  0
SECTION
  2
HEADER
  9
$ACADVER
  1
AC1014
  9
$ACADMAINTVER
 70
           0
  9
$DWGCODEPAGE
  3
DOS932
  9
$INSBASE
 10
0.0
 20
0.0
 30
0.0
  9
$EXTMIN
 10
1.000000000000E+20
 20
1.000000000000E+20
 30
1.000000000000E+20
  9
$EXTMAX
 10
-1.000000000000E+20
 20
-1.000000000000E+20
 30
-1.000000000000E+20
  9
$LIMMIN
 10
0.0
 20
0.0
  9
$LIMMAX
 10
0.0
 20
0.0
  9
$ORTHOMODE
 70
           0
  9
$REGENMODE
 70
           1
  9
$FILLMODE
 70
           1
  9
$QTEXTMODE
 70
           0
  9
$MIRRTEXT
 70
           1
  9
$DRAGMODE
 70
           2
  9
$LTSCALE
 40
1.0
  9
$OSMODE
 70
           0
  9
$ATTMODE
 70
           1
  9
$TEXTSIZE
 40
0.2
  9
$TRACEWID
 40
0.05
  9
$TEXTSTYLE
  7
STANDARD
  9
$CLAYER
  8
0
  9
$CELTYPE
  6
CONTINUOUS
  9
$CECOLOR
 62
         256
  9
$CELTSCALE
 40
1.0
  9
$DELOBJ
 70
           1
  9
$DISPSILH
 70
           0
  9
$DIMSCALE
 40
1.0
  9
$DIMASZ
 40
0.18
  9
$DIMEXO
 40
0.0625
  9
$DIMDLI
 40
0.38
  9
$DIMRND
 40
0.0
  9
$DIMDLE
 40
0.0
  9
$DIMEXE
 40
0.18
  9
$DIMTP
 40
0.0
  9
$DIMTM
 40
0.0
  9
$DIMTXT
 40
0.18
  9
$DIMCEN
 40
0.09
  9
$DIMTSZ
 40
0.0
  9
$DIMTOL
 70
           0
  9
$DIMLIM
 70
           0
  9
$DIMTIH
 70
           1
  9
$DIMTOH
 70
           1
  9
$DIMSE1
 70
           0
  9
$DIMSE2
 70
           0
  9
$DIMTAD
 70
           0
  9
$DIMZIN
 70
           0
  9
$DIMBLK
  1

  9
$DIMASO
 70
           1
  9
$DIMSHO
 70
           1
  9
$DIMPOST
  1

  9
$DIMAPOST
  1

  9
$DIMALT
 70
           0
  9
$DIMALTD
 70
           2
  9
$DIMALTF
 40
25.4
  9
$DIMLFAC
 40
1.0
  9
$DIMTOFL
 70
           0
  9
$DIMTVP
 40
0.0
  9
$DIMTIX
 70
           0
  9
$DIMSOXD
 70
           0
  9
$DIMSAH
 70
           0
  9
$DIMBLK1
  1

  9
$DIMBLK2
  1

  9
$DIMSTYLE
  2
STANDARD
  9
$DIMCLRD
 70
           0
  9
$DIMCLRE
 70
           0
  9
$DIMCLRT
 70
           0
  9
$DIMTFAC
 40
1.0
  9
$DIMGAP
 40
0.09
  9
$DIMJUST
 70
           0
  9
$DIMSD1
 70
           0
  9
$DIMSD2
 70
           0
  9
$DIMTOLJ
 70
           1
  9
$DIMTZIN
 70
           0
  9
$DIMALTZ
 70
           0
  9
$DIMALTTZ
 70
           0
  9
$DIMFIT
 70
           3
  9
$DIMUPT
 70
           0
  9
$DIMUNIT
 70
           2
  9
$DIMDEC
 70
           4
  9
$DIMTDEC
 70
           4
  9
$DIMALTU
 70
           2
  9
$DIMALTTD
 70
           2
  9
$DIMTXSTY
  7
STANDARD
  9
$DIMAUNIT
 70
           0
  9
$LUNITS
 70
           2
  9
$LUPREC
 70
           4
  9
$SKETCHINC
 40
0.1
  9
$FILLETRAD
 40
0.0
  9
$AUNITS
 70
           0
  9
$AUPREC
 70
           0
  9
$MENU
  1
acad
  9
$ELEVATION
 40
0.0
  9
$PELEVATION
 40
0.0
  9
$THICKNESS
 40
0.0
  9
$LIMCHECK
 70
           0
  9
$BLIPMODE
 70
           1
  9
$CHAMFERA
 40
0.0
  9
$CHAMFERB
 40
0.0
  9
$CHAMFERC
 40
0.0
  9
$CHAMFERD
 40
0.0
  9
$SKPOLY
 70
           0
  9
$TDCREATE
 40
0.000000000
  9
$TDUPDATE
 40
0.000000000
  9
$TDINDWG
 40
0.0000000000
  9
$TDUSRTIMER
 40
0.0000000000
  9
$USRTIMER
 70
           1
  9
$ANGBASE
 50
0.0
  9
$ANGDIR
 70
           0
  9
$PDMODE
 70
           0
  9
$PDSIZE
 40
0.0
  9
$PLINEWID
 40
0.0
  9
$COORDS
 70
           0
  9
$SPLFRAME
 70
           0
  9
$SPLINETYPE
 70
           6
  9
$SPLINESEGS
 70
           8
  9
$ATTDIA
 70
           0
  9
$ATTREQ
 70
           1
  9
$HANDLING
 70
           1
  9
$HANDSEED
  5
3AE
  9
$SURFTAB1
 70
           6
  9
$SURFTAB2
 70
           6
  9
$SURFTYPE
 70
           6
  9
$SURFU
 70
           6
  9
$SURFV
 70
           6
  9
$UCSNAME
  2

  9
$UCSORG
 10
0.0
 20
0.0
 30
0.0
  9
$UCSXDIR
 10
1.0
 20
0.0
 30
0.0
  9
$UCSYDIR
 10
0.0
 20
1.0
 30
0.0
  9
$PUCSNAME
  2

  9
$PUCSORG
 10
0.0
 20
0.0
 30
0.0
  9
$PUCSXDIR
 10
1.0
 20
0.0
 30
0.0
  9
$PUCSYDIR
 10
0.0
 20
1.0
 30
0.0
  9
$USERI1
 70
           0
  9
$USERI2
 70
           0
  9
$USERI3
 70
           0
  9
$USERI4
 70
           0
  9
$USERI5
 70
           0
  9
$USERR1
 40
0.0
  9
$USERR2
 40
0.0
  9
$USERR3
 40
0.0
  9
$USERR4
 40
0.0
  9
$USERR5
 40
0.0
  9
$WORLDVIEW
 70
           1
  9
$SHADEDGE
 70
           3
  9
$SHADEDIF
 70
          70
  9
$TILEMODE
 70
           1
  9
$MAXACTVP
 70
          16
  9
$PINSBASE
 10
0.0
 20
0.0
 30
0.0
  9
$PLIMCHECK
 70
           0
  9
$PEXTMIN
 10
1.000000000000E+20
 20
1.000000000000E+20
 30
1.000000000000E+20
  9
$PEXTMAX
 10
-1.000000000000E+20
 20
-1.000000000000E+20
 30
-1.000000000000E+20
  9
$PLIMMIN
 10
0.0
 20
0.0
  9
$PLIMMAX
 10
12.0
 20
9.0
  9
$UNITMODE
 70
           0
  9
$VISRETAIN
 70
           0
  9
$PLINEGEN
 70
           1
  9
$PSLTSCALE
 70
           0
  9
$TREEDEPTH
 70
        3020
  9
$PICKSTYLE
 70
           1
  9
$CMLSTYLE
  2
STANDARD
  9
$CMLJUST
 70
           0
  9
$CMLSCALE
 40
1.0
  9
$PROXYGRAPHICS
 70
           0
  9
$MEASUREMENT
 70
           0
  0
ENDSEC
  0
SECTION
  2
CLASSES
  0
CLASS
  1
LWPOLYLINE
  2
AcDbPolyline
  3
"AutoCAD"
 90
        0
280
           0
281
           1
  0
CLASS
  1
IMAGE
  2
AcDbRasterImage
  3
ISM
 90
      127
280
           0
281
           1
  0
CLASS
  1
OLE2FRAME
  2
AcDbOle2Frame
  3
""
 90
        0
280
           0
281
           1
  0
CLASS
  1
HATCH
  2
AcDbHatch
  3
"ACAD_SEDONA"
 90
        0
280
           0
281
           1
  0
CLASS
  1
DICTIONARYVAR
  2
AcDbDictionaryVar
  3
"AutoCAD"
 90
        0
280
           0
281
           0
  0
CLASS
  1
RASTERVARIABLES
  2
AcDbRasterVariables
  3
ISM
 90
        0
280
           0
281
           0
  0
CLASS
  1
IMAGEDEF
  2
AcDbRasterImageDef
  3
ISM
 90
        0
280
           0
281
           0
  0
CLASS
  1
IMAGEDEF_REACTOR
  2
AcDbRasterImageDefReactor
  3
ISM
 90
        1
280
           0
281
           0
  0
CLASS
  1
IDBUFFER
  2
AcDbIdBuffer
  3
"Acad"
 90
        0
280
           0
281
           0
  0
CLASS
  1
SPATIAL_FILTER
  2
AcDbSpatialFilter
  3
"Acad"
 90
        0
280
           0
281
           0
  0
CLASS
  1
XRECORD
  2
AcDbXrecord
  3
"<Built In>"
 90
        0
280
           0
281
           0
  0
CLASS
  1
SORTENTSTABLE
  2
AcDbSortentsTable
  3
"AutoCAD"
 90
        0
280
           0
281
           0
  0
CLASS
  1
LAYER_INDEX
  2
AcDbLayerIndex
  3
"Acad"
 90
        0
280
           0
281
           0
  0
CLASS
  1
SPATIAL_INDEX
  2
AcDbSpatialIndex
  3
"Acad"
 90
        0
280
           0
281
           0
  0
CLASS
  1
OBJECT_PTR
  2
CAseDLPNTableRecord
  3
"ASE-LPNTableRecord"
 90
        1
280
           0
281
           0
  0
CLASS
  1
LAYOUT
  2
AcDbLayout
  3
"AutoCAD 2000"
 90
        1
280
           0
281
           0
  0
CLASS
  1
PLOTSETTINGS
  2
AcDbPlotSettings
  3
"AutoCAD 2000"
 90
        1
280
           0
281
           0
  0
CLASS
  1
ACDBDICTIONARYWDFLT
  2
AcDbDictionaryWithDefault
  3
"AutoCAD 2000"
 90
        1
280
           0
281
           0
  0
CLASS
  1
ACDBPLACEHOLDER
  2
AcDbPlaceHolder
  3
"AutoCAD 2000"
 90
        1
280
           0
281
           0
  0
CLASS
  1
VBA_PROJECT
  2
AcDbVbaProject
  3
"acadvba"
 90
        1
280
           0
281
           0
  0
CLASS
  1
WIPEOUT
  2
AcDbWipeout
  3
WipeOut|AutoCAD Express Tool|expresstools@autodesk.com
 90
      127
280
           0
281
           1
  0
CLASS
  1
WIPEOUTVARIABLES
  2
AcDbWipeoutVariables
  3
WipeOut|AutoCAD Express Tool|expresstools@autodesk.com
 90
        0
280
           0
281
           0
  0
CLASS
  1
RTEXT
  2
RText
  3
RText|AutoCAD Express Tool|expresstools@autodesk.com
 90
        0
280
           0
281
           1
  0
CLASS
  1
ARCALIGNEDTEXT
  2
AcDbArcAlignedText
  3
ATEXT|AutoCAD Express Tool|expresstools@autodesk.com
 90
        0
280
           0
281
           1
  0
ENDSEC
  0
SECTION
  2
TABLES
  0
TABLE
  2
VPORT
  5
7
100
AcDbSymbolTable
 70
           1
  0
VPORT
  5
15
100
AcDbSymbolTableRecord
100
AcDbViewportTableRecord
  2
*ACTIVE
 70
           0
 10
0.0
 20
0.0
 11
1.0
 21
1.0
 12
6.591288
 22
4.579184
 13
0.0
 23
0.0
 14
1.0
 24
1.0
 15
0.0
 25
0.0
 16
0.0
 26
0.0
 36
1.0
 17
0.0
 27
0.0
 37
0.0
 40
9.158369
 41
0.688564
 42
50.0
 43
0.0
 44
0.0
 50
0.0
 51
0.0
 71
           0
 72
         100
 73
           1
 74
           1
 75
           0
 76
           0
 77
           0
 78
           0
  0
ENDTAB
  0
TABLE
  2
LTYPE
  5
4
100
AcDbSymbolTable
 70
          10
  0
LTYPE
  5
11
100
AcDbSymbolTableRecord
100
AcDbLinetypeTableRecord
  2
BYBLOCK
 70
          64
  3

 72
          65
 73
           0
 40
0.0
  0
LTYPE
  5
12
100
AcDbSymbolTableRecord
100
AcDbLinetypeTableRecord
  2
BYLAYER
 70
          64
  3

 72
          65
 73
           0
 40
0.0
  0
LTYPE
  5
13
100
AcDbSymbolTableRecord
100
AcDbLinetypeTableRecord
  2
CONTINUOUS
 70
          64
  3
Solid line
 72
          65
 73
           0
 40
0.0
  0
LTYPE
  5
1D
100
AcDbSymbolTableRecord
100
AcDbLinetypeTableRecord
  2
DASHED
 70
          64
  3
Dashed
 72
          65
 73
           2
 40
15.0
 49
12.0
 74
           0
 49
-3.0
 74
           0
  0
LTYPE
  5
1E
100
AcDbSymbolTableRecord
100
AcDbLinetypeTableRecord
  2
DOTTED
 70
          64
  3
Dotted
 72
          65
 73
           2
 40
3.5
 49
0.5
 74
           0
 49
-3.0
 74
           0
  0
LTYPE
  5
1F
100
AcDbSymbolTableRecord
100
AcDbLinetypeTableRecord
  2
DOT_CENTER
 70
          64
  3
Dot_Center
 72
          65
 73
           4
 40
2.0
 49
1.25
 74
           0
 49
-0.25
 74
           0
 49
0.25
 74
           0
 49
-0.25
 74
           0
  0
LTYPE
  5
20
100
AcDbSymbolTableRecord
100
AcDbLinetypeTableRecord
  2
LONG_DASHED
 70
          64
  3
Long_Dashed
 72
          65
 73
           2
 40
2.0
 49
1.5
 74
           0
 49
-0.5
 74
           0
  0
LTYPE
  5
21
100
AcDbSymbolTableRecord
100
AcDbLinetypeTableRecord
  2
DASH_CENTER
 70
          64
  3
Dash_Center
 72
          65
 73
           4
 40
36.0
 49
24.0
 74
           0
 49
-3.0
 74
           0
 49
6.0
 74
           0
 49
-3.0
 74
           0
  0
LTYPE
  5
22
100
AcDbSymbolTableRecord
100
AcDbLinetypeTableRecord
  2
PHANTOM
 70
          64
  3
Phantom
 72
          65
 73
           6
 40
2.5
 49
1.25
 74
           0
 49
-0.25
 74
           0
 49
0.25
 74
           0
 49
-0.25
 74
           0
 49
0.25
 74
           0
 49
-0.25
 74
           0
  0
LTYPE
  5
23
100
AcDbSymbolTableRecord
100
AcDbLinetypeTableRecord
  2
CENTER_DASH_DASH
 70
          64
  3
Center_Dash_Dash
 72
          65
 73
           6
 40
22.0
 49
12.0
 74
           0
 49
-3.0
 74
           0
 49
0.5
 74
           0
 49
-3.0
 74
           0
 49
0.5
 74
           0
 49
-3.0
 74
           0
  0
ENDTAB
  0
TABLE
  2
LAYER
  5
2
100
AcDbSymbolTable
 70
           8
  0
LAYER
  5
14
100
AcDbSymbolTableRecord
100
AcDbLayerTableRecord
  2
0
 70
           0
 62
           7
  6
CONTINUOUS
  0
LAYER
  5
24
100
AcDbSymbolTableRecord
100
AcDbLayerTableRecord
  2
___S__
 70
           0
 62
           7
  6
CONTINUOUS
  0
LAYER
  5
25
100
AcDbSymbolTableRecord
100
AcDbLayerTableRecord
  2
976
 70
           0
 62
           7
  6
CONTINUOUS
  0
LAYER
  5
26
100
AcDbSymbolTableRecord
100
AcDbLayerTableRecord
  2
FORMAT
 70
           0
 62
           7
  6
CONTINUOUS
  0
LAYER
  5
27
100
AcDbSymbolTableRecord
100
AcDbLayerTableRecord
  2
1
 70
           0
 62
           7
  6
CONTINUOUS
  0
LAYER
  5
28
100
AcDbSymbolTableRecord
100
AcDbLayerTableRecord
  2
2
 70
           0
 62
           7
  6
CONTINUOUS
  0
LAYER
  5
29
100
AcDbSymbolTableRecord
100
AcDbLayerTableRecord
  2
7
 70
           0
 62
           7
  6
CONTINUOUS
  0
LAYER
  5
2A
100
AcDbSymbolTableRecord
100
AcDbLayerTableRecord
  2
____
 70
           0
 62
           7
  6
CONTINUOUS
  0
ENDTAB
  0
TABLE
  2
STYLE
  5
3
100
AcDbSymbolTable
 70
           1
  0
STYLE
  5
17
100
AcDbSymbolTableRecord
100
AcDbTextStyleTableRecord
  2
STANDARD
 70
           0
 40
0.0
 41
1.0
 50
0.0
 71
           0
 42
0.0
  3
txt
  4

  0
ENDTAB
  0
TABLE
  2
VIEW
  5
5
100
AcDbSymbolTable
 70
           0
  0
ENDTAB
  0
TABLE
  2
UCS
  5
6
100
AcDbSymbolTable
 70
           0
  0
ENDTAB
  0
TABLE
  2
APPID
  5
8
100
AcDbSymbolTable
 70
           1
  0
APPID
  5
16
100
AcDbSymbolTableRecord
100
AcDbRegAppTableRecord
  2
ACAD
 70
           0
  0
ENDTAB
  0
TABLE
  2
DIMSTYLE
  5
9
100
AcDbSymbolTable
 70
           1
  0
DIMSTYLE
105
18
100
AcDbSymbolTableRecord
100
AcDbDimStyleTableRecord
  2
STANDARD
 70
           0
  3

  4

  5

  6

  7

 40
1.0
 41
0.18
 42
0.0625
 43
0.38
 44
0.18
 45
0.0
 46
0.0
 47
0.0
 48
0.0
 71
           0
 72
           0
 73
           1
 74
           1
 75
           0
 76
           0
 77
           0
 78
           0
140
0.18
141
0.09
142
0.0
143
25.4
144
1.0
145
0.0
146
1.0
147
0.09
170
           0
171
           2
172
           0
173
           0
174
           0
175
           0
176
           0
177
           0
178
           0
270
           2
271
           4
272
           4
273
           2
274
           2
275
           0
280
           0
281
           0
282
           0
283
           1
284
           0
285
           0
286
           0
287
           0
288
           0
340
17
  0
ENDTAB
  0
TABLE
  2
BLOCK_RECORD
  5
1
100
AcDbSymbolTable
 70
           0
  0
BLOCK_RECORD
  5
A
100
AcDbSymbolTableRecord
100
AcDbBlockTableRecord
  2
*MODEL_SPACE
  0
BLOCK_RECORD
  5
B
100
AcDbSymbolTableRecord
100
AcDbBlockTableRecord
  2
*PAPER_SPACE
  0
ENDTAB
  0
ENDSEC
  0
SECTION
  2
BLOCKS
  0
BLOCK
  5
D
100
AcDbEntity
  8
0
100
AcDbBlockBegin
  2
*MODEL_SPACE
 70
           0
 10
0.0
 20
0.0
 30
0.0
  3
*MODEL_SPACE
  1

  0
ENDBLK
  5
E
100
AcDbEntity
  8
0
100
AcDbBlockEnd
  0
BLOCK
  5
F
100
AcDbEntity
 67
           1
  8
0
100
AcDbBlockBegin
  2
*PAPER_SPACE
 70
           0
 10
0.0
 20
0.0
 30
0.0
  3
*PAPER_SPACE
  1

  0
ENDBLK
  5
10
100
AcDbEntity
 67
           1
  8
0
100
AcDbBlockEnd
  0
ENDSEC
  0
SECTION
  2
ENTITIES
  0
HATCH
  5
3AC
100
AcDbEntity
  8
0
  6
CONTINUOUS
 62
           2
100
AcDbHatch
 10
0.0
 20
0.0
 30
0.0
210
0.0
220
0.0
230
1.0
  2
USER
 70
           0
 71
           1
 91
        1
 92
        1
 93
        8
 72
           1
 10
4479.9999999999982
 20
1107.5
 11
4382.4999999999991
 21
1107.5
 72
           2
 10
4479.9999999999982
 20
1112.5
 40
5.0
 50
-90.0
 51
0.0
 73
           1
 72
           1
 10
4484.9999999999991
 20
1112.5
 11
4484.9999999999991
 21
1180.0
 72
           1
 10
4499.9999999999991
 20
1180.0
 11
4484.9999999999991
 21
1180.0
 72
           1
 10
4499.9999999999991
 20
1112.5
 11
4499.9999999999991
 21
1180.0
 72
           2
 10
4479.9999999999982
 20
1112.5
 40
20.0
 50
-90.0
 51
0.0
 73
           1
 72
           1
 10
4382.4999999999991
 20
1107.5
 11
4382.4999999999991
 21
1092.5
 72
           1
 10
4382.4999999999991
 20
1092.5
 11
4479.9999999999982
 21
1092.5
 97
        7
330
A0
330
392
330
A2
330
390
330
A1
330
393
330
391
 75
           1
 76
           0
 52
45.0
 41
10.0
 77
           0
 78
           1
 53
45.0
 43
0.0
 44
0.0
 45
-7.0710678118654746
 46
7.0710678118654755
 79
           0
 98
        1
 10
0.0
 20
0.0
  0
ARC
  5
3AB
100
AcDbEntity
  8
1
  6
CONTINUOUS
 62
           3
100
AcDbCircle
 10
5382.399996810935
 20
1639.1108682961
 40
58.0
100
AcDbArc
 50
90.0
 51
180.0
  0
ARC
  5
3AA
100
AcDbEntity
  8
1
  6
CONTINUOUS
 62
           3
100
AcDbCircle
 10
5384.489640809793
 20
1379.110868296102
 40
317.999999999999
100
AcDbArc
 50
45.0
 51
90.0
  0
ARC
  5
3A9
100
AcDbEntity
  8
1
  6
CONTINUOUS
 62
           3
100
AcDbCircle
 10
5384.489640809793
 20
1379.110868296102
 40
310.000000000001
100
AcDbArc
 50
45.0
 51
90.0
  0
ARC
  5
3A8
100
AcDbEntity
  8
1
  6
CONTINUOUS
 62
           3
100
AcDbCircle
 10
5382.399998122329
 20
1639.110868296102
 40
50.000000000001
100
AcDbArc
 50
90.0
 51
180.0
  0
ARC
  5
3A7
100
AcDbEntity
  8
1
  6
CONTINUOUS
 62
           3
100
AcDbCircle
 10
5762.020471516057
 20
1435.469602197221
 40
0.499999999999
100
AcDbArc
 50
134.999999999963
 51
-134.999999999871
  0
ARC
  5
3A6
100
AcDbEntity
  8
1
  6
CONTINUOUS
 62
           3
100
AcDbCircle
 10
5772.193965493826
 20
1445.64309617499
 40
0.499999999999
100
AcDbArc
 50
45.000000000055
 51
135.000000000092
  0
ARC
  5
3A5
100
AcDbEntity
  8
1
  6
CONTINUOUS
 62
           4
100
AcDbCircle
 10
117.908702762045
 20
6307.730352175891
 40
12.0
100
AcDbArc
 50
90.0
 51
120.430594205709
  0
ARC
  5
3A4
100
AcDbEntity
  8
1
  6
CONTINUOUS
 62
           4
100
AcDbCircle
 10
117.908702762045
 20
6216.730352175891
 40
11.999999999999
100
AcDbArc
 50
-120.430594205709
 51
-90.0
  0
ARC
  5
3A3
100
AcDbEntity
  8
1
  6
CONTINUOUS
 62
           7
100
AcDbCircle
 10
144.824966598197
 20
6210.730352175891
 40
12.0
100
AcDbArc
 50
180.0
 51
-90.0
  0
ARC
  5
3A2
100
AcDbEntity
  8
1
  6
CONTINUOUS
 62
           7
100
AcDbCircle
 10
144.824966598197
 20
6313.730352175891
 40
12.0
100
AcDbArc
 50
90.0
 51
180.0
  0
ARC
  5
3A1
100
AcDbEntity
  8
1
  6
CONTINUOUS
 62
           7
100
AcDbCircle
 10
185.000000000001
 20
6210.730352175891
 40
12.0
100
AcDbArc
 50
-90.0
 51
0.0
  0
ARC
  5
3A0
100
AcDbEntity
  8
1
  6
CONTINUOUS
 62
           7
100
AcDbCircle
 10
185.000000000001
 20
6313.730352175891
 40
12.0
100
AcDbArc
 50
0.0
 51
90.0
  0
ARC
  5
39F
100
AcDbEntity
  8
1
  6
CONTINUOUS
 62
           7
100
AcDbCircle
 10
185.000000000002
 20
2887.499999999996
 40
12.0
100
AcDbArc
 50
0.0
 51
90.0
  0
ARC
  5
39E
100
AcDbEntity
  8
1
  6
CONTINUOUS
 62
           7
100
AcDbCircle
 10
185.000000000002
 20
2811.499999999996
 40
12.0
100
AcDbArc
 50
-90.0
 51
0.0
  0
ARC
  5
39D
100
AcDbEntity
  8
1
  6
CONTINUOUS
 62
           7
100
AcDbCircle
 10
134.4963968
 20
2887.499999999996
 40
12.0
100
AcDbArc
 50
90.0
 51
180.0
  0
ARC
  5
39C
100
AcDbEntity
  8
1
  6
CONTINUOUS
 62
           7
100
AcDbCircle
 10
134.4963968
 20
2811.499999999996
 40
12.000000000001
100
AcDbArc
 50
180.0
 51
-90.0
  0
ARC
  5
39B
100
AcDbEntity
  8
1
  6
CONTINUOUS
 62
           7
100
AcDbCircle
 10
5811.000000000001
 20
2811.500000000001
 40
12.0
100
AcDbArc
 50
180.0
 51
-90.0
  0
ARC
  5
39A
100
AcDbEntity
  8
1
  6
CONTINUOUS
 62
           7
100
AcDbCircle
 10
5811.000000000001
 20
2887.500000000001
 40
12.0
100
AcDbArc
 50
90.0
 51
180.0
  0
ARC
  5
399
100
AcDbEntity
  8
1
  6
CONTINUOUS
 62
           7
100
AcDbCircle
 10
5914.000000000001
 20
2811.500000000001
 40
12.0
100
AcDbArc
 50
-90.0
 51
0.0
  0
ARC
  5
398
100
AcDbEntity
  8
1
  6
CONTINUOUS
 62
           7
100
AcDbCircle
 10
5914.000000000001
 20
2887.500000000001
 40
12.0
100
AcDbArc
 50
0.0
 51
90.0
  0
ARC
  5
397
100
AcDbEntity
  8
1
  6
CONTINUOUS
 62
           4
100
AcDbCircle
 10
6417.999999999999
 20
2160.000000000001
 40
1.0
100
AcDbArc
 50
90.0
 51
180.0
  0
ARC
  5
396
100
AcDbEntity
  8
1
  6
CONTINUOUS
 62
           4
100
AcDbCircle
 10
6406.999999999999
 20
2160.000000000001
 40
1.0
100
AcDbArc
 50
0.0
 51
90.0
  0
ARC
  5
395
100
AcDbEntity
  8
1
  6
CONTINUOUS
 62
           4
100
AcDbCircle
 10
6406.999999999999
 20
2665.999999999999
 40
0.999999999998
100
AcDbArc
 50
-90.0
 51
0.000000000104
  0
ARC
  5
394
100
AcDbEntity
  8
1
  6
CONTINUOUS
 62
           4
100
AcDbCircle
 10
6417.999999999999
 20
2665.999999999999
 40
1.0
100
AcDbArc
 50
179.999999999895
 51
-90.0
  0
ARC
  5
393
100
AcDbEntity
  8
1
  6
CONTINUOUS
 62
           7
100
AcDbCircle
 10
4479.999999999998
 20
1112.5
 40
20.0
100
AcDbArc
 50
-90.0
 51
0.0
  0
ARC
  5
392
100
AcDbEntity
  8
1
  6
CONTINUOUS
 62
           7
100
AcDbCircle
 10
4479.999999999998
 20
1112.5
 40
5.0
100
AcDbArc
 50
-90.0
 51
0.0
  0
LWPOLYLINE
  5
391
100
AcDbEntity
  8
1
  6
CONTINUOUS
 62
           7
 60
           1
100
AcDbPolyline
 90
        3
 70
           0
 10
4382.499999999999
 20
1107.5
 10
4382.499999999999
 20
1092.5
 10
4479.999999999998
 20
1092.5
  0
LWPOLYLINE
  5
390
100
AcDbEntity
  8
1
  6
CONTINUOUS
 62
           7
 60
           1
100
AcDbPolyline
 90
        2
 70
           0
 10
4499.999999999999
 20
1180.0
 10
4484.999999999999
 20
1180.0
  0
SPLINE
  5
38F
100
AcDbEntity
  8
0
  6
CONTINUOUS
 62
           3
100
AcDbSpline
210
0.0
220
0.0
230
1.0
 70
           0
 71
           3
 72
           8
 73
           5
 74
           7
 42
0.00000000001
 43
0.00000000001
 44
0.00000000001
 40
0.0
 40
0.0
 40
0.0
 40
0.2989651950319967
 40
0.4296296276535259
 40
0.4465803504019732
 40
0.4465803504019732
 40
0.4465803504019732
 10
5283.3999966098681
 20
1384.646579623304
 30
0.0
 10
5283.3999966099154
 20
1384.466936563427
 30
0.0
 10
5283.3999966099154
 20
1384.228292293117
 30
0.0
 10
5283.3999966099154
 20
1384.2056076981839
 30
0.0
 10
5283.3999966099154
 20
1384.199999272902
 30
0.0
 11
5283.3999966098681
 21
1384.646579623304
 31
0.0
 11
5283.3999966099036
 21
1384.470331144325
 31
0.0
 11
5283.3999966099154
 21
1384.3008718271419
 31
0.0
 11
5283.3999966099154
 21
1384.2414172487595
 31
0.0
 11
5283.3999966099154
 21
1384.2082125816621
 31
0.0
 11
5283.3999966099154
 21
1384.2048568127329
 31
0.0
 11
5283.3999966099154
 21
1384.199999272902
 31
0.0
  0
SPLINE
  5
38E
100
AcDbEntity
  8
0
  6
CONTINUOUS
 62
           3
100
AcDbSpline
210
0.0
220
0.0
230
1.0
 70
           0
 71
           3
 72
           8
 73
           5
 74
           7
 42
0.00000000001
 43
0.00000000001
 44
0.00000000001
 40
0.0
 40
0.0
 40
0.0
 40
0.0169507227484473
 40
0.1476151553699765
 40
0.4465803504019732
 40
0.4465803504019732
 40
0.4465803504019732
 10
5273.3999968334374
 20
1384.199999272902
 30
0.0
 10
5273.3999968334374
 20
1384.2056076981839
 30
0.0
 10
5273.3999968334374
 20
1384.228292293117
 30
0.0
 10
5273.3999968334374
 20
1384.466936563427
 30
0.0
 10
5273.3999968334774
 20
1384.646579623304
 30
0.0
 11
5273.3999968334374
 21
1384.199999272902
 31
0.0
 11
5273.3999968334365
 21
1384.2048568127329
 31
0.0
 11
5273.3999968334374
 21
1384.2082125816623
 31
0.0
 11
5273.3999968334374
 21
1384.2414172487597
 31
0.0
 11
5273.3999968334374
 21
1384.3008718271421
 31
0.0
 11
5273.3999968334474
 21
1384.470331144325
 31
0.0
 11
5273.3999968334774
 21
1384.646579623304
 31
0.0
  0
SPLINE
  5
38D
100
AcDbEntity
  8
0
  6
CONTINUOUS
 62
           3
100
AcDbSpline
210
0.0
220
0.0
230
1.0
 70
           0
 71
           3
 72
           8
 73
           5
 74
           7
 42
0.00000000001
 43
0.00000000001
 44
0.00000000001
 40
0.0
 40
0.0
 40
0.0
 40
0.481388339284221
 40
1.3325653926439736
 40
2.5594910488313505
 40
2.5594910488313505
 40
2.5594910488313505
 10
5280.8999966657648
 20
1384.199999272902
 30
0.0
 10
5280.9592614719477
 20
1384.2004449713111
 30
0.0
 10
5281.8034813132954
 20
1384.206793890067
 30
0.0
 10
5282.6307773327844
 20
1384.434685841557
 30
0.0
 10
5283.3999966098681
 20
1384.646579623304
 30
0.0
 11
5280.8999966657648
 21
1384.199999272902
 31
0.0
 11
5281.0206887308841
 21
1384.2009069323515
 31
0.0
 11
5281.2642353138772
 21
1384.2027385138817
 31
0.0
 11
5281.7533835507475
 21
1384.2291158030628
 31
0.0
 11
5282.1423362625192
 21
1384.3001369182352
 31
0.0
 11
5282.7009718844893
 21
1384.4540220561635
 31
0.0
 11
5283.3999966098681
 21
1384.646579623304
 31
0.0
  0
SPLINE
  5
38C
100
AcDbEntity
  8
0
  6
CONTINUOUS
 62
           3
100
AcDbSpline
210
0.0
220
0.0
230
1.0
 70
           0
 71
           3
 72
           8
 73
           5
 74
           7
 42
0.00000000001
 43
0.00000000001
 44
0.00000000001
 40
0.0
 40
0.0
 40
0.0
 40
0.4813884775056222
 40
1.3325655942388777
 40
2.559491057253096
 40
2.559491057253096
 40
2.559491057253096
 10
5275.8999967775571
 20
1384.199999272902
 30
0.0
 10
5275.9592615843994
 20
1384.200444971555
 30
0.0
 10
5276.8034817008338
 20
1384.2067938958301
 30
0.0
 10
5277.6307775679634
 20
1384.434685841728
 30
0.0
 10
5278.3999967216778
 20
1384.6465796232969
 30
0.0
 11
5275.8999967775571
 21
1384.199999272902
 31
0.0
 11
5276.0206888783723
 21
1384.2009069331107
 31
0.0
 11
5276.2642355671342
 21
1384.2027385164308
 31
0.0
 11
5276.7533839007119
 21
1384.229115810645
 31
0.0
 11
5277.1423366340459
 21
1384.3001369344879
 31
0.0
 11
5277.7009721229133
 21
1384.4540220603101
 31
0.0
 11
5278.3999967216778
 21
1384.6465796232969
 31
0.0
  0
SPLINE
  5
38B
100
AcDbEntity
  8
0
  6
CONTINUOUS
 62
           3
100
AcDbSpline
210
0.0
220
0.0
230
1.0
 70
           0
 71
           3
 72
           8
 73
           5
 74
           7
 42
0.00000000001
 43
0.00000000001
 44
0.00000000001
 40
0.0
 40
0.0
 40
0.0
 40
0.2779454797471048
 40
0.7862825386906907
 40
1.5429638907224874
 40
1.5429638907224874
 40
1.5429638907224874
 10
5274.0698696873487
 20
1367.599993944257
 30
0.0
 10
5274.104086231926
 20
1367.6004396365131
 30
0.0
 10
5274.5914969500354
 20
1367.6067884711761
 30
0.0
 10
5275.0691364171989
 20
1367.8346843256791
 30
0.0
 10
5275.513245287847
 20
1368.0465817452371
 30
0.0
 11
5274.0698696873487
 21
1367.599993944257
 31
0.0
 11
5274.1386061814992
 21
1367.6008892808163
 31
0.0
 11
5274.2763825747961
 21
1367.6026839059828
 31
0.0
 11
5274.5607022116119
 21
1367.6286568402302
 31
0.0
 11
5274.7834323715806
 21
1367.6983665125849
 31
0.0
 11
5275.1087376234573
 21
1367.8535792272951
 31
0.0
 11
5275.513245287847
 21
1368.0465817452371
 31
0.0
  0
SPLINE
  5
38A
100
AcDbEntity
  8
0
  6
CONTINUOUS
 62
           3
100
AcDbSpline
210
0.0
220
0.0
230
1.0
 70
           0
 71
           3
 72
           8
 73
           5
 74
           7
 42
0.00000000001
 43
0.00000000001
 44
0.00000000001
 40
0.0
 40
0.0
 40
0.0
 40
0.2779464854372362
 40
0.7862840843769809
 40
1.5429642658567382
 40
1.5429642658567382
 40
1.5429642658567382
 10
5274.0698696873487
 20
1372.600004077043
 30
0.0
 10
5274.0356531379848
 20
1372.5995583816691
 30
0.0
 10
5273.5482404188851
 20
1372.5932094774421
 30
0.0
 10
5273.0706019393438
 20
1372.3653136934749
 30
0.0
 10
5272.6264938539762
 20
1372.1534162761111
 30
0.0
 11
5274.0698696873487
 21
1372.600004077043
 31
0.0
 11
5274.0011329415956
 21
1372.5991087310704
 31
0.0
 11
5273.8633558030606
 21
1372.5973140839001
 31
0.0
 11
5273.5790354338696
 21
1372.571341090058
 31
0.0
 11
5273.3563050946468
 21
1372.5016313214483
 31
0.0
 11
5273.0310007068274
 21
1372.3464187461273
 31
0.0
 11
5272.6264938539762
 21
1372.1534162761111
 31
0.0
  0
SPLINE
  5
389
100
AcDbEntity
  8
0
  6
CONTINUOUS
 62
           3
100
AcDbSpline
210
0.0
220
0.0
230
1.0
 70
           0
 71
           3
 72
           8
 73
           5
 74
           7
 42
0.00000000001
 43
0.00000000001
 44
0.00000000001
 40
0.0
 40
0.0
 40
0.0
 40
0.2779464854282354
 40
0.7862840843632371
 40
1.5429642658963338
 40
1.5429642658963338
 40
1.5429642658963338
 10
5282.7301237560068
 20
1367.599993944257
 30
0.0
 10
5282.7643403053671
 20
1367.600439639637
 30
0.0
 10
5283.2517530244559
 20
1367.6067885438661
 30
0.0
 10
5283.7293915040027
 20
1367.834684327825
 30
0.0
 10
5284.1734995893694
 20
1368.046581745313
 30
0.0
 11
5282.7301237560068
 21
1367.599993944257
 31
0.0
 11
5282.7988605017554
 21
1367.6008892902341
 31
0.0
 11
5282.9366376402841
 21
1367.6026839374065
 31
0.0
 11
5283.2209580094705
 21
1367.6286569312479
 31
0.0
 11
5283.4436883486869
 21
1367.6983666998522
 31
0.0
 11
5283.7689927365154
 21
1367.8535792752039
 31
0.0
 11
5284.1734995893694
 21
1368.046581745313
 31
0.0
  0
SPLINE
  5
388
100
AcDbEntity
  8
0
  6
CONTINUOUS
 62
           3
100
AcDbSpline
210
0.0
220
0.0
230
1.0
 70
           0
 71
           3
 72
           8
 73
           5
 74
           7
 42
0.00000000001
 43
0.00000000001
 44
0.00000000001
 40
0.0
 40
0.0
 40
0.0
 40
0.2779454797516238
 40
0.7862825386955912
 40
1.5429638907284651
 40
1.5429638907284651
 40
1.5429638907284651
 10
5282.7301237560068
 20
1372.600004077043
 30
0.0
 10
5282.6959072114269
 20
1372.599558384785
 30
0.0
 10
5282.2084964933138
 20
1372.59320955013
 30
0.0
 10
5281.7308570261557
 20
1372.365313695622
 30
0.0
 10
5281.2867481555049
 20
1372.153416276064
 30
0.0
 11
5282.7301237560068
 21
1372.600004077043
 31
0.0
 11
5282.6613872618536
 21
1372.599108740483
 31
0.0
 11
5282.523610868554
 21
1372.5973141153181
 31
0.0
 11
5282.2392912317382
 21
1372.5713411810741
 31
0.0
 11
5282.0165610717704
 21
1372.5016315087191
 31
0.0
 11
5281.6912558198974
 21
1372.3464187940067
 31
0.0
 11
5281.2867481555049
 21
1372.153416276064
 31
0.0
  0
SPLINE
  5
387
100
AcDbEntity
  8
0
  6
CONTINUOUS
 62
           3
100
AcDbSpline
210
0.0
220
0.0
230
1.0
 70
           0
 71
           3
 72
           8
 73
           5
 74
           7
 42
0.00000000001
 43
0.00000000001
 44
0.00000000001
 40
0.0
 40
0.0
 40
0.0
 40
0.709710718914105
 40
1.6878556121190571
 40
2.9354150974118656
 40
2.9354150974118656
 40
2.9354150974118656
 10
5275.513245287847
 20
1368.0465817452371
 30
0.0
 10
5275.7266018694982
 20
1367.9869406026969
 30
0.0
 10
5276.6669045504659
 20
1367.724090842954
 30
0.0
 10
5277.644341891687
 20
1367.6541020998679
 30
0.0
 10
5278.3999967216778
 20
1367.599993944257
 30
0.0
 11
5275.513245287847
 21
1368.0465817452371
 31
0.0
 11
5275.7721075078034
 21
1367.9742200752141
 31
0.0
 11
5276.1219810043694
 21
1367.8764173502254
 31
0.0
 11
5276.638063862858
 21
1367.7544828668429
 31
0.0
 11
5277.0964653461306
 21
1367.6933324312381
 31
0.0
 11
5277.6962864627958
 21
1367.6503826438079
 31
0.0
 11
5278.3999967216778
 21
1367.599993944257
 31
0.0
  0
SPLINE
  5
386
100
AcDbEntity
  8
0
  6
CONTINUOUS
 62
           3
100
AcDbSpline
210
0.0
220
0.0
230
1.0
 70
           0
 71
           3
 72
           8
 73
           5
 74
           7
 42
0.00000000001
 43
0.00000000001
 44
0.00000000001
 40
0.0
 40
0.0
 40
0.0
 40
0.7273681394911705
 40
1.7065914567888942
 40
2.9387223240291553
 40
2.9387223240291553
 40
2.9387223240291553
 10
5278.3999967216778
 20
1367.599993944257
 30
0.0
 10
5278.6387195010357
 20
1367.605473483329
 30
0.0
 10
5279.6156271469854
 20
1367.6278969974539
 30
0.0
 10
5280.5674888562471
 20
1367.8663776207211
 30
0.0
 10
5281.2867481553658
 20
1368.046581745313
 30
0.0
 11
5278.3999967216778
 21
1367.599993944257
 31
0.0
 11
5278.6831310149764
 21
1367.606492885945
 31
0.0
 11
5279.0550883361557
 21
1367.6150306328655
 31
0.0
 11
5279.5808673755164
 21
1367.6510811733865
 31
0.0
 11
5280.0371268719364
 21
1367.7335000657727
 31
0.0
 11
5280.6147131849493
 21
1367.878209263132
 31
0.0
 11
5281.2867481553658
 21
1368.046581745313
 31
0.0
  0
SPLINE
  5
385
100
AcDbEntity
  8
0
  6
CONTINUOUS
 62
           3
100
AcDbSpline
210
0.0
220
0.0
230
1.0
 70
           0
 71
           3
 72
           8
 73
           5
 74
           7
 42
0.00000000001
 43
0.00000000001
 44
0.00000000001
 40
0.0
 40
0.0
 40
0.0
 40
1.2321308673572553
 40
2.2113541846551912
 40
2.9387223241463043
 40
2.9387223241463043
 40
2.9387223241463043
 10
5281.2867481555049
 20
1372.153416276064
 30
0.0
 10
5280.5674888562471
 20
1372.3336204005809
 30
0.0
 10
5279.6156271469854
 20
1372.5721010238501
 30
0.0
 10
5278.6387195010357
 20
1372.5945245379719
 30
0.0
 10
5278.3999967216778
 20
1372.600004077043
 30
0.0
 11
5281.2867481555049
 21
1372.153416276064
 31
0.0
 11
5280.6147131849793
 21
1372.3217887581905
 31
0.0
 11
5280.0371268719146
 21
1372.4664979555359
 31
0.0
 11
5279.5808673755091
 21
1372.5489168479182
 31
0.0
 11
5279.0550883361557
 21
1372.5849673884368
 31
0.0
 11
5278.6831310149755
 21
1372.5935051353558
 31
0.0
 11
5278.3999967216778
 21
1372.600004077043
 31
0.0
  0
SPLINE
  5
384
100
AcDbEntity
  8
0
  6
CONTINUOUS
 62
           3
100
AcDbSpline
210
0.0
220
0.0
230
1.0
 70
           0
 71
           3
 72
           8
 73
           5
 74
           7
 42
0.00000000001
 43
0.00000000001
 44
0.00000000001
 40
0.0
 40
0.0
 40
0.0
 40
1.2475616964922178
 40
2.2257084622415912
 40
2.9354211178796281
 40
2.9354211178796281
 40
2.9354211178796281
 10
5278.3999967216778
 20
1372.600004077043
 30
0.0
 10
5277.6443400642574
 20
1372.545908809474
 30
0.0
 10
5276.6668989125874
 20
1372.4759366334711
 30
0.0
 10
5275.7266017037664
 20
1372.2130631111611
 30
0.0
 10
5275.513245287847
 20
1372.153416276064
 30
0.0
 11
5278.3999967216778
 21
1372.600004077043
 31
0.0
 11
5277.6962845668077
 21
1372.5496273656952
 31
0.0
 11
5277.0964614170371
 21
1372.5066877667891
 31
0.0
 11
5276.6380594916363
 21
1372.4455393603098
 31
0.0
 11
5276.1219787243317
 21
1372.3235964075075
 31
0.0
 11
5275.7721068549281
 21
1372.2257847264736
 31
0.0
 11
5275.513245287847
 21
1372.153416276064
 31
0.0
  0
SPLINE
  5
383
100
AcDbEntity
  8
0
  6
CONTINUOUS
 62
           3
100
AcDbSpline
210
0.0
220
0.0
230
1.0
 70
           0
 71
           3
 72
           8
 73
           5
 74
           7
 42
0.00000000001
 43
0.00000000001
 44
0.00000000001
 40
0.0
 40
0.0
 40
0.0
 40
0.2779452695545963
 40
0.7862805426577674
 40
1.5429573554978033
 40
1.5429573554978033
 40
1.5429573554978033
 10
5274.0698696873487
 20
1372.600004077043
 30
0.0
 10
5274.1040862308764
 20
1372.6004497818101
 30
0.0
 10
5274.5914965280863
 20
1372.606798789368
 30
0.0
 10
5275.0691362283669
 20
1372.834686833088
 30
0.0
 10
5275.513245287847
 20
1373.0465769768621
 30
0.0
 11
5274.0698696873487
 21
1372.600004077043
 31
0.0
 11
5274.1386062202873
 21
1372.600899439265
 31
0.0
 11
5274.2763827320514
 21
1372.6026941163973
 31
0.0
 11
5274.5607020292273
 21
1372.6286663808428
 31
0.0
 11
5274.7834323286888
 21
1372.6983738282381
 31
0.0
 11
5275.108737518316
 21
1372.853581117819
 31
0.0
 11
5275.513245287847
 21
1373.0465769768621
 31
0.0
  0
SPLINE
  5
382
100
AcDbEntity
  8
0
  6
CONTINUOUS
 62
           3
100
AcDbSpline
210
0.0
220
0.0
230
1.0
 70
           0
 71
           3
 72
           8
 73
           5
 74
           7
 42
0.00000000001
 43
0.00000000001
 44
0.00000000001
 40
0.0
 40
0.0
 40
0.0
 40
0.2779463803328208
 40
0.7862830863400728
 40
1.5429609982609258
 40
1.5429609982609258
 40
1.5429609982609258
 10
5274.0698696873487
 20
1377.599999308668
 30
0.0
 10
5274.0356531385078
 20
1377.5995536070391
 30
0.0
 10
5273.5482406298779
 20
1377.59320461636
 30
0.0
 10
5273.0706020337648
 20
1377.3653127377891
 30
0.0
 10
5272.6264938539762
 20
1377.1534189582051
 30
0.0
 11
5274.0698696873487
 21
1377.599999308668
 31
0.0
 11
5274.0011329221998
 21
1377.599103949864
 31
0.0
 11
5273.8633557244393
 21
1377.5973092767099
 31
0.0
 11
5273.5790355250765
 21
1377.5713366177681
 31
0.0
 11
5273.3563051161145
 21
1377.5016279616425
 31
0.0
 11
5273.0310007594044
 21
1377.3464180988562
 31
0.0
 11
5272.6264938539762
 21
1377.1534189582051
 31
0.0
  0
SPLINE
  5
381
100
AcDbEntity
  8
0
  6
CONTINUOUS
 62
           3
100
AcDbSpline
210
0.0
220
0.0
230
1.0
 70
           0
 71
           3
 72
           8
 73
           5
 74
           7
 42
0.00000000001
 43
0.00000000001
 44
0.00000000001
 40
0.0
 40
0.0
 40
0.0
 40
0.2779462752411406
 40
0.7862820883294222
 40
1.5429577306534425
 40
1.5429577306534425
 40
1.5429577306534425
 10
5282.7301237560068
 20
1372.600004077043
 30
0.0
 10
5282.7643403043257
 20
1372.6004497849301
 30
0.0
 10
5283.2517526025094
 20
1372.6067988620539
 30
0.0
 10
5283.729391315168
 20
1372.834686835236
 30
0.0
 10
5284.1734995893694
 20
1373.046576976913
 30
0.0
 11
5282.7301237560068
 21
1372.600004077043
 31
0.0
 11
5282.7988605405526
 21
1372.6008994486801
 31
0.0
 11
5282.9366377975512
 21
1372.6026941478171
 31
0.0
 11
5283.2209578270922
 21
1372.6286664718564
 31
0.0
 11
5283.443688305797
 21
1372.6983740155001
 31
0.0
 11
5283.768992631376
 21
1372.8535811657214
 31
0.0
 11
5284.1734995893694
 21
1373.046576976913
 31
0.0
  0
SPLINE
  5
380
100
AcDbEntity
  8
0
  6
CONTINUOUS
 62
           3
100
AcDbSpline
210
0.0
220
0.0
230
1.0
 70
           0
 71
           3
 72
           8
 73
           5
 74
           7
 42
0.00000000001
 43
0.00000000001
 44
0.00000000001
 40
0.0
 40
0.0
 40
0.0
 40
0.2779453746513154
 40
0.7862815406660615
 40
1.5429606230904374
 40
1.5429606230904374
 40
1.5429606230904374
 10
5282.7301237560068
 20
1377.599999308668
 30
0.0
 10
5282.6959072119544
 20
1377.599553610153
 30
0.0
 10
5282.2084967042938
 20
1377.5932046890471
 30
0.0
 10
5281.7308571205767
 20
1377.3653127399391
 30
0.0
 10
5281.2867481555049
 20
1377.153418958269
 30
0.0
 11
5282.7301237560068
 21
1377.599999308668
 31
0.0
 11
5282.6613872424614
 21
1377.599103959275
 31
0.0
 11
5282.52361078993
 21
1377.5973093081261
 31
0.0
 11
5282.2392913229351
 21
1377.5713367087822
 31
0.0
 11
5282.0165610932227
 21
1377.5016281489079
 31
0.0
 11
5281.6912558724707
 21
1377.3464181467639
 31
0.0
 11
5281.2867481555049
 21
1377.153418958269
 31
0.0
  0
SPLINE
  5
37F
100
AcDbEntity
  8
0
  6
CONTINUOUS
 62
           3
100
AcDbSpline
210
0.0
220
0.0
230
1.0
 70
           0
 71
           3
 72
           8
 73
           5
 74
           7
 42
0.00000000001
 43
0.00000000001
 44
0.00000000001
 40
0.0
 40
0.0
 40
0.0
 40
0.70971049268218
 40
1.6878550560200063
 40
2.9354142011751359
 40
2.9354142011751359
 40
2.9354142011751359
 10
5275.513245287847
 20
1373.0465769768621
 30
0.0
 10
5275.7266018489581
 20
1372.9869356693509
 30
0.0
 10
5276.6669038516557
 20
1372.7240853468591
 30
0.0
 10
5277.6443416651764
 20
1372.654105412623
 30
0.0
 10
5278.3999967216778
 20
1372.600004077043
 30
0.0
 11
5275.513245287847
 21
1373.0465769768621
 31
0.0
 11
5275.7721074221563
 21
1372.9742151236587
 31
0.0
 11
5276.121980702861
 21
1372.8764121790714
 31
0.0
 11
5276.6380633113758
 21
1372.754478420082
 31
0.0
 11
5277.0964648393328
 21
1372.69333080754
 31
0.0
 11
5277.6962862228411
 21
1372.6503864274573
 31
0.0
 11
5278.3999967216778
 21
1372.600004077043
 31
0.0
  0
SPLINE
  5
37E
100
AcDbEntity
  8
0
  6
CONTINUOUS
 62
           3
100
AcDbSpline
210
0.0
220
0.0
230
1.0
 70
           0
 71
           3
 72
           8
 73
           5
 74
           7
 42
0.00000000001
 43
0.00000000001
 44
0.00000000001
 40
0.0
 40
0.0
 40
0.0
 40
0.7273675739554827
 40
1.7065896374626464
 40
2.9387184666011046
 40
2.9387184666011046
 40
2.9387184666011046
 10
5278.3999967216778
 20
1372.600004077043
 30
0.0
 10
5278.6387194651588
 20
1372.605483801266
 30
0.0
 10
5279.6156260260959
 20
1372.627908051521
 30
0.0
 10
5280.5674885010558
 20
1372.8663796942869
 30
0.0
 10
5281.2867481553658
 20
1373.046576976913
 30
0.0
 11
5278.3999967216778
 21
1372.600004077043
 31
0.0
 11
5278.6831309024928
 21
1372.6065032367205
 31
0.0
 11
5279.0550879579769
 21
1372.6150412673069
 31
0.0
 11
5279.5808665470122
 21
1372.6510911338667
 31
0.0
 11
5280.0371261778837
 21
1372.7335071651187
 31
0.0
 11
5280.6147128338398
 21
1372.8782108826515
 31
0.0
 11
5281.2867481553658
 21
1373.046576976913
 31
0.0
  0
SPLINE
  5
37D
100
AcDbEntity
  8
0
  6
CONTINUOUS
 62
           3
100
AcDbSpline
210
0.0
220
0.0
230
1.0
 70
           0
 71
           3
 72
           8
 73
           5
 74
           7
 42
0.00000000001
 43
0.00000000001
 44
0.00000000001
 40
0.0
 40
0.0
 40
0.0
 40
1.2321298483013359
 40
2.2113525386978328
 40
2.9387203954173864
 40
2.9387203954173864
 40
2.9387203954173864
 10
5281.2867481555049
 20
1377.153418958269
 30
0.0
 10
5280.5674886786474
 20
1377.333619661817
 30
0.0
 10
5279.6156265865357
 20
1377.572095794834
 30
0.0
 10
5278.638719483095
 20
1377.594519677024
 30
0.0
 10
5278.3999967216778
 20
1377.599999308668
 30
0.0
 11
5281.2867481555049
 21
1377.153418958269
 31
0.0
 11
5280.6147130094214
 21
1377.321788246446
 31
0.0
 11
5280.0371265248832
 21
1377.4664947038809
 31
0.0
 11
5279.5808669612543
 21
1377.548912165696
 31
0.0
 11
5279.0550881470635
 21
1377.5849623692354
 31
0.0
 11
5278.6831309587324
 21
1377.5935002579879
 31
0.0
 11
5278.3999967216778
 21
1377.599999308668
 31
0.0
  0
SPLINE
  5
37C
100
AcDbEntity
  8
0
  6
CONTINUOUS
 62
           3
100
AcDbSpline
210
0.0
220
0.0
230
1.0
 70
           0
 71
           3
 72
           8
 73
           5
 74
           7
 42
0.00000000001
 43
0.00000000001
 44
0.00000000001
 40
0.0
 40
0.0
 40
0.0
 40
1.2475604207867295
 40
2.2257060852955828
 40
2.9354176594305246
 40
2.9354176594305246
 40
2.9354176594305246
 10
5278.3999967216778
 20
1377.599999308668
 30
0.0
 10
5277.6443408647247
 20
1377.5459010071061
 30
0.0
 10
5276.6669013821638
 20
1377.475924952008
 30
0.0
 10
5275.7266017763659
 20
1377.213063029574
 30
0.0
 10
5275.513245287847
 20
1377.153418958269
 30
0.0
 11
5278.3999967216778
 21
1377.599999308668
 31
0.0
 11
5277.6962853948344
 21
1377.5496197777993
 31
0.0
 11
5277.0964631282104
 21
1377.5066777883171
 31
0.0
 11
5276.6380614015379
 21
1377.4455297788081
 31
0.0
 11
5276.1219797136164
 21
1377.3235914228999
 31
0.0
 11
5275.7721071385486
 21
1377.2257841100791
 31
0.0
 11
5275.513245287847
 21
1377.153418958269
 31
0.0
  0
SPLINE
  5
37B
100
AcDbEntity
  8
0
  6
CONTINUOUS
 62
           3
100
AcDbSpline
210
0.0
220
0.0
230
1.0
 70
           0
 71
           3
 72
           8
 73
           5
 74
           7
 42
0.00000000001
 43
0.00000000001
 44
0.00000000001
 40
0.0
 40
0.0
 40
0.0
 40
0.2779454797470915
 40
0.7862825386912739
 40
1.5429638907224343
 40
1.5429638907224343
 40
1.5429638907224343
 10
5274.0698696873487
 20
1359.99999940405
 30
0.0
 10
5274.104086231926
 20
1360.0004450963081
 30
0.0
 10
5274.5914969500354
 20
1360.0067939309649
 30
0.0
 10
5275.0691364171989
 20
1360.2346897854709
 30
0.0
 10
5275.513245287847
 20
1360.4465872050259
 30
0.0
 11
5274.0698696873487
 21
1359.99999940405
 31
0.0
 11
5274.1386061814983
 21
1360.0008947406102
 31
0.0
 11
5274.2763825747952
 21
1360.0026893657757
 31
0.0
 11
5274.5607022116128
 21
1360.0286623000202
 31
0.0
 11
5274.7834323715815
 21
1360.0983719723754
 31
0.0
 11
5275.1087376234564
 21
1360.2535846870858
 31
0.0
 11
5275.513245287847
 21
1360.4465872050259
 31
0.0
  0
SPLINE
  5
37A
100
AcDbEntity
  8
0
  6
CONTINUOUS
 62
           3
100
AcDbSpline
210
0.0
220
0.0
230
1.0
 70
           0
 71
           3
 72
           8
 73
           5
 74
           7
 42
0.00000000001
 43
0.00000000001
 44
0.00000000001
 40
0.0
 40
0.0
 40
0.0
 40
0.2779462752374762
 40
0.7862820883294106
 40
1.5429577306145146
 40
1.5429577306145146
 40
1.5429577306145146
 10
5274.0698696873487
 20
1364.999994635675
 30
0.0
 10
5274.0356531390353
 20
1364.9995489277919
 30
0.0
 10
5273.5482408408479
 20
1364.993199850664
 30
0.0
 10
5273.0706021281849
 20
1364.7653118774831
 30
0.0
 10
5272.6264938539762
 20
1364.5534217359159
 30
0.0
 11
5274.0698696873487
 21
1364.999994635675
 31
0.0
 11
5274.0011329028075
 21
1364.9990992640405
 31
0.0
 11
5273.8633556458117
 21
1364.9973045649035
 31
0.0
 11
5273.5790356162643
 21
1364.9713322408616
 31
0.0
 11
5273.3563051375513
 21
1364.9016246972151
 31
0.0
 11
5273.0310008119741
 21
1364.7464175470243
 31
0.0
 11
5272.6264938539762
 21
1364.5534217359159
 31
0.0
  0
SPLINE
  5
379
100
AcDbEntity
  8
0
  6
CONTINUOUS
 62
           3
100
AcDbSpline
210
0.0
220
0.0
230
1.0
 70
           0
 71
           3
 72
           8
 73
           5
 74
           7
 42
0.00000000001
 43
0.00000000001
 44
0.00000000001
 40
0.0
 40
0.0
 40
0.0
 40
0.2779464854698385
 40
0.7862840844060997
 40
1.5429642659473235
 40
1.5429642659473235
 40
1.5429642659473235
 10
5282.7301237559668
 20
1359.9999994039231
 30
0.0
 10
5282.7643403053671
 20
1360.0004450994261
 30
0.0
 10
5283.2517530244559
 20
1360.0067940036531
 30
0.0
 10
5283.7293915040027
 20
1360.234689787618
 30
0.0
 10
5284.1734995893694
 20
1360.4465872051219
 30
0.0
 11
5282.7301237559668
 21
1359.9999994039231
 31
0.0
 11
5282.7988605017508
 21
1360.0008947499925
 31
0.0
 11
5282.9366376403013
 21
1360.0026893971951
 31
0.0
 11
5283.220958009475
 21
1360.0286623910358
 31
0.0
 11
5283.4436883486851
 21
1360.0983721596413
 31
0.0
 11
5283.7689927365154
 21
1360.2535847349998
 31
0.0
 11
5284.1734995893694
 21
1360.4465872051219
 31
0.0
  0
SPLINE
  5
378
100
AcDbEntity
  8
0
  6
CONTINUOUS
 62
           3
100
AcDbSpline
210
0.0
220
0.0
230
1.0
 70
           0
 71
           3
 72
           8
 73
           5
 74
           7
 42
0.00000000001
 43
0.00000000001
 44
0.00000000001
 40
0.0
 40
0.0
 40
0.0
 40
0.2779452695527626
 40
0.7862805426557556
 40
1.5429573555005023
 40
1.5429573555005023
 40
1.5429573555005023
 10
5282.7301237560068
 20
1364.999994635675
 30
0.0
 10
5282.6959072124773
 20
1364.999548930906
 30
0.0
 10
5282.2084969152747
 20
1364.993199923354
 30
0.0
 10
5281.7308572149859
 20
1364.765311879635
 30
0.0
 10
5281.2867481555049
 20
1364.55342173586
 30
0.0
 11
5282.7301237560068
 21
1364.999994635675
 31
0.0
 11
5282.6613872230673
 21
1364.9990992734522
 31
0.0
 11
5282.523610711306
 21
1364.9973045963211
 31
0.0
 11
5282.239291414131
 21
1364.9713323318786
 31
0.0
 11
5282.0165611146695
 21
1364.9016248844846
 31
0.0
 11
5281.6912559250359
 21
1364.7464175949035
 31
0.0
 11
5281.2867481555049
 21
1364.55342173586
 31
0.0
  0
SPLINE
  5
377
100
AcDbEntity
  8
0
  6
CONTINUOUS
 62
           3
100
AcDbSpline
210
0.0
220
0.0
230
1.0
 70
           0
 71
           3
 72
           8
 73
           5
 74
           7
 42
0.00000000001
 43
0.00000000001
 44
0.00000000001
 40
0.0
 40
0.0
 40
0.0
 40
0.7097126556374556
 40
1.6878594213866345
 40
2.9354211178787875
 40
2.9354211178787875
 40
2.9354211178787875
 10
5275.513245287847
 20
1360.4465872050259
 30
0.0
 10
5275.7266017037664
 20
1360.38694036993
 30
0.0
 10
5276.6668989125874
 20
1360.1240668476221
 30
0.0
 10
5277.6443400642574
 20
1360.0540946716169
 30
0.0
 10
5278.3999967216778
 20
1359.99999940405
 30
0.0
 11
5275.513245287847
 21
1360.4465872050259
 31
0.0
 11
5275.7721068549281
 21
1360.3742187546177
 31
0.0
 11
5276.1219787243317
 21
1360.2764070735843
 31
0.0
 11
5276.6380594916363
 21
1360.1544641207829
 31
0.0
 11
5277.0964614170371
 21
1360.0933157143029
 31
0.0
 11
5277.6962845668077
 21
1360.0503761153966
 31
0.0
 11
5278.3999967216778
 21
1359.99999940405
 31
0.0
  0
SPLINE
  5
376
100
AcDbEntity
  8
0
  6
CONTINUOUS
 62
           3
100
AcDbSpline
210
0.0
220
0.0
230
1.0
 70
           0
 71
           3
 72
           8
 73
           5
 74
           7
 42
0.00000000001
 43
0.00000000001
 44
0.00000000001
 40
0.0
 40
0.0
 40
0.0
 40
0.7273681394910819
 40
1.7065914567890266
 40
2.9387223240338742
 40
2.9387223240338742
 40
2.9387223240338742
 10
5278.3999967216778
 20
1359.99999940405
 30
0.0
 10
5278.6387195010357
 20
1360.0054789431181
 30
0.0
 10
5279.6156271469854
 20
1360.027902457243
 30
0.0
 10
5280.5674888562471
 20
1360.266383080512
 30
0.0
 10
5281.2867481553658
 20
1360.4465872051219
 30
0.0
 11
5278.3999967216778
 21
1359.99999940405
 31
0.0
 11
5278.6831310149764
 21
1360.0064983457351
 31
0.0
 11
5279.0550883361557
 21
1360.0150360926543
 31
0.0
 11
5279.5808673755155
 21
1360.0510866331758
 31
0.0
 11
5280.0371268719355
 21
1360.1335055255624
 31
0.0
 11
5280.6147131849493
 21
1360.2782147229273
 31
0.0
 11
5281.2867481553658
 21
1360.4465872051219
 31
0.0
  0
SPLINE
  5
375
100
AcDbEntity
  8
0
  6
CONTINUOUS
 62
           3
100
AcDbSpline
210
0.0
220
0.0
230
1.0
 70
           0
 71
           3
 72
           8
 73
           5
 74
           7
 42
0.00000000001
 43
0.00000000001
 44
0.00000000001
 40
0.0
 40
0.0
 40
0.0
 40
1.2321288292602053
 40
2.2113508927675412
 40
2.9387184667229636
 40
2.9387184667229636
 40
2.9387184667229636
 10
5281.2867481555049
 20
1364.55342173586
 30
0.0
 10
5280.5674885010558
 20
1364.733619018431
 30
0.0
 10
5279.6156260260959
 20
1364.9720906611981
 30
0.0
 10
5278.6387194651588
 20
1364.994514911456
 30
0.0
 10
5278.3999967216778
 20
1364.999994635675
 30
0.0
 11
5281.2867481555049
 21
1364.55342173586
 31
0.0
 11
5280.6147128338698
 21
1364.7217878300819
 31
0.0
 11
5280.03712617786
 21
1364.8664915476056
 31
0.0
 11
5279.5808665470076
 21
1364.9489075788538
 31
0.0
 11
5279.0550879579769
 21
1364.9849574454138
 31
0.0
 11
5278.6831309024928
 21
1364.9934954760001
 31
0.0
 11
5278.3999967216778
 21
1364.999994635675
 31
0.0
  0
SPLINE
  5
374
100
AcDbEntity
  8
0
  6
CONTINUOUS
 62
           3
100
AcDbSpline
210
0.0
220
0.0
230
1.0
 70
           0
 71
           3
 72
           8
 73
           5
 74
           7
 42
0.00000000001
 43
0.00000000001
 44
0.00000000001
 40
0.0
 40
0.0
 40
0.0
 40
1.2475591451551864
 40
2.2257037084929703
 40
2.9354142011740789
 40
2.9354142011740789
 40
2.9354142011740789
 10
5278.3999967216778
 20
1364.999994635675
 30
0.0
 10
5277.6443416651764
 20
1364.9458933000931
 30
0.0
 10
5276.6669038516557
 20
1364.8759133658591
 30
0.0
 10
5275.7266018489581
 20
1364.613063043367
 30
0.0
 10
5275.513245287847
 20
1364.55342173586
 30
0.0
 11
5278.3999967216778
 21
1364.999994635675
 31
0.0
 11
5277.6962862228411
 21
1364.9496122852595
 31
0.0
 11
5277.0964648393328
 21
1364.9066679051775
 31
0.0
 11
5276.6380633113758
 21
1364.8455202926355
 31
0.0
 11
5276.121980702861
 21
1364.7235865336465
 31
0.0
 11
5275.7721074221563
 21
1364.6257835890601
 31
0.0
 11
5275.513245287847
 21
1364.55342173586
 31
0.0
  0
SPLINE
  5
373
100
AcDbEntity
  8
0
  6
CONTINUOUS
 62
           3
100
AcDbSpline
210
0.0
220
0.0
230
1.0
 70
           0
 71
           3
 72
           8
 73
           5
 74
           7
 42
0.00000000001
 43
0.00000000001
 44
0.00000000001
 40
0.0
 40
0.0
 40
0.0
 40
0.2779464854665187
 40
0.7862840844028673
 40
1.542964265923872
 40
1.542964265923872
 40
1.542964265923872
 10
5282.7301237559668
 20
1359.9999994039231
 30
0.0
 10
5282.7643403053671
 20
1359.9995537086779
 30
0.0
 10
5283.2517530244559
 20
1359.993204804445
 30
0.0
 10
5283.7293915040027
 20
1359.7653090204799
 30
0.0
 10
5284.1734995893694
 20
1359.5534116030231
 30
0.0
 11
5282.7301237559668
 21
1359.9999994039231
 31
0.0
 11
5282.7988605017499
 21
1359.9991040580464
 31
0.0
 11
5282.9366376402995
 21
1359.9973094109068
 31
0.0
 11
5283.2209580094741
 21
1359.971336417063
 31
0.0
 11
5283.4436883486887
 21
1359.901626648455
 31
0.0
 11
5283.7689927365154
 21
1359.7464140731095
 31
0.0
 11
5284.1734995893694
 21
1359.5534116030231
 31
0.0
  0
SPLINE
  5
372
100
AcDbEntity
  8
0
  6
CONTINUOUS
 62
           3
100
AcDbSpline
210
0.0
220
0.0
230
1.0
 70
           0
 71
           3
 72
           8
 73
           5
 74
           7
 42
0.00000000001
 43
0.00000000001
 44
0.00000000001
 40
0.0
 40
0.0
 40
0.0
 40
0.3778155284983235
 40
0.8942062233972833
 40
1.535751417466614
 40
1.535751417466614
 40
1.535751417466614
 10
5272.6264938539762
 20
1359.5534116030231
 30
0.0
 10
5272.721011897037
 20
1359.6064716909079
 30
0.0
 10
5273.1908817949061
 20
1359.870245011376
 30
0.0
 10
5273.6795227343064
 20
1359.9423771862
 30
0.0
 10
5274.0698696873487
 20
1359.99999940405
 30
0.0
 11
5272.6264938539762
 21
1359.5534116030231
 31
0.0
 11
5272.747014154409
 21
1359.6210687140301
 31
0.0
 11
5272.9195389695888
 21
1359.7179198712815
 31
0.0
 11
5273.1775244143328
 21
1359.8402057052385
 31
0.0
 11
5273.4087950979283
 21
1359.9024129269201
 31
0.0
 11
5273.7094275634727
 21
1359.9467916758426
 31
0.0
 11
5274.0698696873487
 21
1359.99999940405
 31
0.0
  0
SPLINE
  5
371
100
AcDbEntity
  8
0
  6
CONTINUOUS
 62
           3
100
AcDbSpline
210
0.0
220
0.0
230
1.0
 70
           0
 71
           3
 72
           8
 73
           5
 74
           7
 42
0.00000000001
 43
0.00000000001
 44
0.00000000001
 40
0.0
 40
0.0
 40
0.0
 40
0.6415450374769798
 40
1.1579303686105877
 40
1.5357381749060393
 40
1.5357381749060393
 40
1.5357381749060393
 10
5274.0698696873487
 20
1355.000004172422
 30
0.0
 10
5273.6795237086153
 20
1355.057633693878
 30
0.0
 10
5273.1908846293627
 20
1355.1297749168839
 30
0.0
 10
5272.7210119621168
 20
1355.393522448258
 30
0.0
 10
5272.6264938539762
 20
1355.446577072225
 30
0.0
 11
5274.0698696873487
 21
1355.000004172422
 31
0.0
 11
5273.7094282457065
 21
1355.053218676801
 31
0.0
 11
5273.4087958782466
 21
1355.0976031470259
 31
0.0
 11
5273.1775260473223
 21
1355.1598096979624
 31
0.0
 11
5272.9195390523164
 21
1355.2820858110558
 31
0.0
 11
5272.7470142076309
 21
1355.3789269449489
 31
0.0
 11
5272.6264938539762
 21
1355.446577072225
 31
0.0
  0
SPLINE
  5
370
100
AcDbEntity
  8
0
  6
CONTINUOUS
 62
           3
100
AcDbSpline
210
0.0
220
0.0
230
1.0
 70
           0
 71
           3
 72
           8
 73
           5
 74
           7
 42
0.00000000001
 43
0.00000000001
 44
0.00000000001
 40
0.0
 40
0.0
 40
0.0
 40
0.3539460334951224
 40
0.8643414136598189
 40
1.5431068114000444
 40
1.5431068114000444
 40
1.5431068114000444
 10
5274.0698696873487
 20
1359.99999940405
 30
0.0
 10
5274.1793238424261
 20
1359.995393507832
 30
0.0
 10
5274.6676816710469
 20
1359.974843118742
 30
0.0
 10
5275.1438213484489
 20
1359.7375336343559
 30
0.0
 10
5275.5132452879734
 20
1359.5534116030231
 30
0.0
 11
5274.0698696873487
 21
1359.99999940405
 31
0.0
 11
5274.201955685583
 21
1359.9944411463562
 31
0.0
 11
5274.3793053701356
 21
1359.9869781657112
 31
0.0
 11
5274.6466781413901
 21
1359.9524131949274
 31
0.0
 11
5274.872043853331
 21
1359.872988376515
 31
0.0
 11
5275.1682329595506
 21
1359.7253668120625
 31
0.0
 11
5275.5132452879734
 21
1359.5534116030231
 31
0.0
  0
SPLINE
  5
36F
100
AcDbEntity
  8
0
  6
CONTINUOUS
 62
           3
100
AcDbSpline
210
0.0
220
0.0
230
1.0
 70
           0
 71
           3
 72
           8
 73
           5
 74
           7
 42
0.00000000001
 43
0.00000000001
 44
0.00000000001
 40
0.0
 40
0.0
 40
0.0
 40
0.6787700534940075
 40
1.1891668948827561
 40
1.5431123743459974
 40
1.5431123743459974
 40
1.5431123743459974
 10
5275.513245287847
 20
1355.4465770722441
 30
0.0
 10
5275.1438214744057
 20
1355.2624483716061
 30
0.0
 10
5274.6676820506254
 20
1355.0251303367861
 30
0.0
 10
5274.1793238525879
 20
1355.0046045512629
 30
0.0
 10
5274.0698696873487
 20
1355.000004172422
 30
0.0
 11
5275.513245287847
 21
1355.4465770722441
 31
0.0
 11
5275.1682329736395
 21
1355.2746155830075
 31
0.0
 11
5274.8720436579015
 21
1355.1269885165739
 31
0.0
 11
5274.6466781919498
 21
1355.0475647466103
 31
0.0
 11
5274.379305008646
 21
1355.0130097962951
 31
0.0
 11
5274.2019556002924
 21
1355.0055557678106
 31
0.0
 11
5274.0698696873487
 21
1355.000004172422
 31
0.0
  0
SPLINE
  5
36E
100
AcDbEntity
  8
0
  6
CONTINUOUS
 62
           3
100
AcDbSpline
210
0.0
220
0.0
230
1.0
 70
           0
 71
           3
 72
           8
 73
           5
 74
           7
 42
0.00000000001
 43
0.00000000001
 44
0.00000000001
 40
0.0
 40
0.0
 40
0.0
 40
0.2779452695527908
 40
0.7862805426568251
 40
1.5429573556195741
 40
1.5429573556195741
 40
1.5429573556195741
 10
5282.7301237560068
 20
1355.000004172422
 30
0.0
 10
5282.6959072124773
 20
1355.0004498771921
 30
0.0
 10
5282.2084969152747
 20
1355.0067988847461
 30
0.0
 10
5281.7308572149859
 20
1355.23468692847
 30
0.0
 10
5281.2867481553658
 20
1355.446577072225
 30
0.0
 11
5282.7301237560068
 21
1355.000004172422
 31
0.0
 11
5282.6613872230664
 21
1355.0008995346461
 31
0.0
 11
5282.523610711306
 21
1355.0026942117779
 31
0.0
 11
5282.2392914141356
 21
1355.0286664762198
 31
0.0
 11
5282.0165611146876
 21
1355.098373923609
 31
0.0
 11
5281.6912559250059
 21
1355.2535812131935
 31
0.0
 11
5281.2867481553658
 21
1355.446577072225
 31
0.0
  0
SPLINE
  5
36D
100
AcDbEntity
  8
0
  6
CONTINUOUS
 62
           3
100
AcDbSpline
210
0.0
220
0.0
230
1.0
 70
           0
 71
           3
 72
           8
 73
           5
 74
           7
 42
0.00000000001
 43
0.00000000001
 44
0.00000000001
 40
0.0
 40
0.0
 40
0.0
 40
0.5558558490687638
 40
1.5343195422043747
 40
2.9385037456641294
 40
2.9385037456641294
 40
2.9385037456641294
 10
5278.3999967216778
 20
1355.0000041723231
 30
0.0
 10
5278.331563636295
 20
1355.0004498783039
 30
0.0
 10
5277.3567416872438
 20
1355.0067989106681
 30
0.0
 10
5276.4014629162684
 20
1355.2346869292321
 30
0.0
 10
5275.513245287847
 20
1355.4465770722441
 30
0.0
 11
5278.3999967216778
 21
1355.0000041723231
 31
0.0
 11
5278.2603818762491
 21
1355.000913486324
 31
0.0
 11
5277.9784035107305
 21
1355.0027500163642
 31
0.0
 11
5277.414082896018
 21
1355.0291829422188
 31
0.0
 11
5276.9644446988568
 21
1355.1003839311757
 31
0.0
 11
5276.3201539548099
 21
1355.2540837154711
 31
0.0
 11
5275.513245287847
 21
1355.4465770722441
 31
0.0
  0
SPLINE
  5
36C
100
AcDbEntity
  8
0
  6
CONTINUOUS
 62
           3
100
AcDbSpline
210
0.0
220
0.0
230
1.0
 70
           0
 71
           3
 72
           8
 73
           5
 74
           7
 42
0.00000000001
 43
0.00000000001
 44
0.00000000001
 40
0.0
 40
0.0
 40
0.0
 40
0.5558562714156194
 40
1.5343210643712788
 40
2.9385072682929163
 40
2.9385072682929163
 40
2.9385072682929163
 10
5278.3999967216778
 20
1359.99999940405
 30
0.0
 10
5278.468429809147
 20
1359.999553710679
 30
0.0
 10
5279.4432526000273
 20
1359.9932048512151
 30
0.0
 10
5280.3985309047457
 20
1359.7653090218651
 30
0.0
 10
5281.2867481555049
 20
1359.5534116030699
 30
0.0
 11
5278.3999967216778
 21
1359.99999940405
 31
0.0
 11
5278.5396116244092
 21
1359.9990901152999
 31
0.0
 11
5278.8215901576641
 21
1359.9972536357916
 31
0.0
 11
5279.38591117129
 21
1359.9708199944789
 31
0.0
 11
5279.8355493274403
 21
1359.8996166396923
 31
0.0
 11
5280.4798398231087
 21
1359.7459115716231
 31
0.0
 11
5281.2867481555049
 21
1359.5534116030699
 31
0.0
  0
CIRCLE
  5
36B
100
AcDbEntity
  8
1
  6
CONTINUOUS
 62
           4
100
AcDbCircle
 10
-0.000000000001
 20
6262.23035217589
 40
100.9476
  0
CIRCLE
  5
36A
100
AcDbEntity
  8
1
  6
CONTINUOUS
 62
           4
100
AcDbCircle
 10
-0.000000000001
 20
6262.23035217589
 40
125.0
  0
CIRCLE
  5
369
100
AcDbEntity
  8
1
  6
CONTINUOUS
 62
           7
100
AcDbCircle
 10
-0.000000000001
 20
6262.23035217589
 40
400.0
  0
CIRCLE
  5
368
100
AcDbEntity
  8
1
  6
CONTINUOUS
 62
           7
100
AcDbCircle
 10
5662.499999999999
 20
100.0
 40
15.0
  0
CIRCLE
  5
367
100
AcDbEntity
  8
1
  6
CONTINUOUS
 62
           2
100
AcDbCircle
 10
5662.499999999999
 20
100.0
 40
8.350000000001
  0
CIRCLE
  5
366
100
AcDbEntity
  8
1
  6
CONTINUOUS
 62
           7
100
AcDbCircle
 10
5662.499999999999
 20
100.0
 40
7.5
  0
CIRCLE
  5
365
100
AcDbEntity
  8
1
  6
CONTINUOUS
 62
           3
100
AcDbCircle
 10
-1241.527744678122
 20
795.200848327049
 40
40.0
  0
ARC
  5
364
100
AcDbEntity
  8
1
  6
CONTINUOUS
 62
           3
100
AcDbCircle
 10
5782.663567691046
 20
1425.000000000002
 40
9.5
100
AcDbArc
 50
-169.797812779172
 51
-45.000000000007
  0
ARC
  5
363
100
AcDbEntity
  8
1
  6
CONTINUOUS
 62
           3
100
AcDbCircle
 10
5782.663567691046
 20
1425.000000000002
 40
9.5
100
AcDbArc
 50
-45.000000000007
 51
80.91695737144
  0
ARC
  5
362
100
AcDbEntity
  8
1
  6
CONTINUOUS
 62
           3
100
AcDbCircle
 10
5782.663567691046
 20
1425.000000000002
 40
5.871834995063
100
AcDbArc
 50
-44.999999999994
 51
-6.400286082086
  0
ARC
  5
361
100
AcDbEntity
  8
1
  6
CONTINUOUS
 62
           3
100
AcDbCircle
 10
5782.663567691046
 20
1425.000000000002
 40
5.871834995067
100
AcDbArc
 50
-6.400286082086
 51
45.000000000001
  0
ARC
  5
360
100
AcDbEntity
  8
1
  6
CONTINUOUS
 62
           3
100
AcDbCircle
 10
5782.663567691046
 20
1425.000000000002
 40
5.871834995066
100
AcDbArc
 50
-134.999999999979
 51
-44.999999999994
  0
ARC
  5
35F
100
AcDbEntity
  8
0
  6
CONTINUOUS
 62
           3
100
AcDbCircle
 10
5340.899996721517
 20
1368.000000000115
 40
2.5
100
AcDbArc
 50
0.0
 51
180.0
  0
ARC
  5
35E
100
AcDbEntity
  8
0
  6
CONTINUOUS
 62
           3
100
AcDbCircle
 10
5340.899996721517
 20
1631.9999999999
 40
2.499999999992
100
AcDbArc
 50
180.0
 51
0.0
  0
ARC
  5
35D
100
AcDbEntity
  8
0
  6
CONTINUOUS
 62
           3
100
AcDbCircle
 10
5215.899996721827
 20
1631.9999999999
 40
2.5
100
AcDbArc
 50
180.0
 51
0.0
  0
ARC
  5
35C
100
AcDbEntity
  8
0
  6
CONTINUOUS
 62
           3
100
AcDbCircle
 10
5215.899996721827
 20
1368.000000000115
 40
2.49999999999
100
AcDbArc
 50
0.0
 51
180.0
  0
ARC
  5
35B
100
AcDbEntity
  8
0
  6
CONTINUOUS
 62
           3
100
AcDbCircle
 10
5220.399996721817
 20
1508.999999999998
 40
0.999999999996
100
AcDbArc
 50
-90.0
 51
90.0
  0
ARC
  5
35A
100
AcDbEntity
  8
0
  6
CONTINUOUS
 62
           3
100
AcDbCircle
 10
5220.399996721817
 20
1431.000000000064
 40
1.0
100
AcDbArc
 50
-90.0
 51
90.0
  0
ARC
  5
359
100
AcDbEntity
  8
0
  6
CONTINUOUS
 62
           3
100
AcDbCircle
 10
5220.399996721817
 20
1409.00000000018
 40
0.999999999996
100
AcDbArc
 50
-90.0
 51
90.0
  0
ARC
  5
358
100
AcDbEntity
  8
0
  6
CONTINUOUS
 62
           3
100
AcDbCircle
 10
5336.399996721525
 20
1409.00000000018
 40
1.0
100
AcDbArc
 50
90.0
 51
-90.0
  0
ARC
  5
357
100
AcDbEntity
  8
0
  6
CONTINUOUS
 62
           3
100
AcDbCircle
 10
5336.399996721525
 20
1431.000000000064
 40
0.999999999996
100
AcDbArc
 50
90.0
 51
-90.0
  0
ARC
  5
356
100
AcDbEntity
  8
0
  6
CONTINUOUS
 62
           3
100
AcDbCircle
 10
5336.399996721525
 20
1508.999999999998
 40
1.0
100
AcDbArc
 50
90.0
 51
-90.0
  0
ARC
  5
355
100
AcDbEntity
  8
0
  6
CONTINUOUS
 62
           3
100
AcDbCircle
 10
5336.399996721525
 20
1530.999999999882
 40
1.0
100
AcDbArc
 50
90.0
 51
-90.0
  0
ARC
  5
354
100
AcDbEntity
  8
0
  6
CONTINUOUS
 62
           3
100
AcDbCircle
 10
5220.399996721817
 20
1530.999999999882
 40
0.999999999997
100
AcDbArc
 50
-90.0
 51
90.0
  0
ARC
  5
353
100
AcDbEntity
  8
0
  6
CONTINUOUS
 62
           3
100
AcDbCircle
 10
5284.873499413465
 20
1389.999999999998
 40
0.900000000001
100
AcDbArc
 50
-90.0
 51
-62.733955549533
  0
ARC
  5
352
100
AcDbEntity
  8
0
  6
CONTINUOUS
 62
           3
100
AcDbCircle
 10
5271.926494029874
 20
1389.999999999998
 40
0.900000000001
100
AcDbArc
 50
-117.266044450415
 51
-90.0
  0
ARC
  5
351
100
AcDbEntity
  8
0
  6
CONTINUOUS
 62
           3
100
AcDbCircle
 10
5278.399996721678
 20
1315.00000000006
 40
53.999999999964
100
AcDbArc
 50
180.0
 51
0.0
  0
ARC
  5
350
100
AcDbEntity
  8
0
  6
CONTINUOUS
 62
           3
100
AcDbCircle
 10
5278.399996721678
 20
1315.00000000006
 40
45.999999999971
100
AcDbArc
 50
180.0
 51
0.0
  0
ARC
  5
34F
100
AcDbEntity
  8
0
  6
CONTINUOUS
 62
           3
100
AcDbCircle
 10
5278.399996721678
 20
1355.000000000224
 40
4.0
100
AcDbArc
 50
180.0
 51
0.0
  0
ARC
  5
34E
100
AcDbEntity
  8
1
  6
CONTINUOUS
 62
           7
100
AcDbCircle
 10
-0.000000000001
 20
6262.23035217589
 40
150.0
100
AcDbArc
 50
-89.999999999999
 51
-23.882765003116
  0
ARC
  5
34D
100
AcDbEntity
  8
1
  6
CONTINUOUS
 62
           7
100
AcDbCircle
 10
-0.000000000001
 20
6262.23035217589
 40
132.839999999999
100
AcDbArc
 50
-75.809724714478
 51
-75.809724714478
  0
ARC
  5
34C
100
AcDbEntity
  8
1
  6
CONTINUOUS
 62
           7
100
AcDbCircle
 10
-0.000000000001
 20
6262.23035217589
 40
150.000000000001
100
AcDbArc
 50
23.882765003116
 51
-89.999999999999
  0
ARC
  5
34B
100
AcDbEntity
  8
0
  6
CONTINUOUS
 62
           7
100
AcDbCircle
 10
44.999999999998
 20
6239.23035217589
 40
469.999999999994
100
AcDbArc
 50
31.359627184827
 51
72.547531235072
  0
ARC
  5
34A
100
AcDbEntity
  8
1
  6
CONTINUOUS
 62
           7
100
AcDbCircle
 10
181.182082628214
 20
6689.068590180439
 40
5.000000000001
100
AcDbArc
 50
163.461829900463
 51
-17.147702543124
  0
ARC
  5
349
100
AcDbEntity
  8
1
  6
CONTINUOUS
 62
           7
100
AcDbCircle
 10
529.981720683265
 20
6187.746278774055
 40
4.999999999999
100
AcDbArc
 50
89.793306572368
 51
-90.727565944104
  0
ARC
  5
348
100
AcDbEntity
  8
0
  6
CONTINUOUS
 62
           7
100
AcDbCircle
 10
-20.000000000002
 20
6192.23035217589
 40
550.000000000001
100
AcDbArc
 50
-65.3714141245
 51
-0.988002202365
  0
ARC
  5
347
100
AcDbEntity
  8
0
  6
CONTINUOUS
 62
           7
100
AcDbCircle
 10
-20.000000000002
 20
6192.23035217589
 40
550.000000000001
100
AcDbArc
 50
0.053742830624
 51
18.194147279427
  0
ARC
  5
346
100
AcDbEntity
  8
1
  6
CONTINUOUS
 62
           7
100
AcDbCircle
 10
500.919408978727
 20
6368.704059422187
 40
5.000000000001
100
AcDbArc
 50
108.97545605416
 51
-71.54541646233
  0
ARC
  5
345
100
AcDbEntity
  8
0
  6
CONTINUOUS
 62
           7
100
AcDbCircle
 10
-68.000000000002
 20
6302.23035217589
 40
670.0
100
AcDbArc
 50
180.0
 51
-177.004902602006
  0
ARC
  5
344
100
AcDbEntity
  8
1
  6
CONTINUOUS
 62
           7
100
AcDbCircle
 10
-736.804904288239
 20
6262.23035217589
 40
5.000000000001
100
AcDbArc
 50
-86.363530447505
 51
93.208888116176
  0
ARC
  5
343
100
AcDbEntity
  8
0
  6
CONTINUOUS
 62
           7
100
AcDbCircle
 10
-68.000000000002
 20
6302.230352175888
 40
669.999999999998
100
AcDbArc
 50
-176.149739729349
 51
-90.0
  0
ARC
  5
342
100
AcDbEntity
  8
0
  6
CONTINUOUS
 62
           7
100
AcDbCircle
 10
-20.000000000002
 20
6192.23035217589
 40
550.000000000001
100
AcDbArc
 50
19.235892312416
 51
32.0167313156
  0
ARC
  5
341
100
AcDbEntity
  8
0
  6
CONTINUOUS
 62
           7
100
AcDbCircle
 10
44.999999999998
 20
6239.23035217589
 40
469.999999999995
100
AcDbArc
 50
73.766596122265
 51
91.7405042324
  0
ARC
  5
340
100
AcDbEntity
  8
0
  6
CONTINUOUS
 62
           7
100
AcDbCircle
 10
-68.000000000002
 20
6302.23035217589
 40
670.0
100
AcDbArc
 50
-90.0
 51
-65.560184603745
  0
ARC
  5
33F
100
AcDbEntity
  8
7
  6
CONTINUOUS
 62
           7
100
AcDbCircle
 10
-113.96
 20
3106.133628400001
 40
7.44
100
AcDbArc
 50
122.681914999996
 51
180.0
  0
ARC
  5
33E
100
AcDbEntity
  8
7
  6
CONTINUOUS
 62
           7
100
AcDbCircle
 10
-88.52
 20
3132.16
 40
3.840000000001
100
AcDbArc
 50
90.0
 51
180.0
  0
ARC
  5
33D
100
AcDbEntity
  8
7
  6
CONTINUOUS
 62
           7
100
AcDbCircle
 10
-94.76
 20
3132.449360799999
 40
2.399999999999
100
AcDbArc
 50
-54.999999999961
 51
0.0
  0
ARC
  5
33C
100
AcDbEntity
  8
7
  6
CONTINUOUS
 62
           7
100
AcDbCircle
 10
85.52
 20
3132.16
 40
3.84
100
AcDbArc
 50
0.0
 51
90.0
  0
ARC
  5
33B
100
AcDbEntity
  8
7
  6
CONTINUOUS
 62
           7
100
AcDbCircle
 10
91.76
 20
3132.449360799999
 40
2.400000000001
100
AcDbArc
 50
180.0
 51
-125.000000000021
  0
ARC
  5
33A
100
AcDbEntity
  8
7
  6
CONTINUOUS
 62
           7
100
AcDbCircle
 10
116.5078244
 20
3112.6
 40
2.399999999997
100
AcDbArc
 50
-125.000000000015
 51
-90.0
  0
ARC
  5
339
100
AcDbEntity
  8
7
  6
CONTINUOUS
 62
           7
100
AcDbCircle
 10
117.56
 20
3106.360000000002
 40
3.84
100
AcDbArc
 50
0.0
 51
90.0
  0
ARC
  5
338
100
AcDbEntity
  8
7
  6
CONTINUOUS
 62
           7
100
AcDbCircle
 10
5980.06
 20
3106.360000000002
 40
3.840000000002
100
AcDbArc
 50
0.0
 51
90.0
  0
ARC
  5
337
100
AcDbEntity
  8
7
  6
CONTINUOUS
 62
           7
100
AcDbCircle
 10
5979.007824400002
 20
3112.6
 40
2.399999999998
100
AcDbArc
 50
-125.000000000051
 51
-90.0
  0
ARC
  5
336
100
AcDbEntity
  8
7
  6
CONTINUOUS
 62
           7
100
AcDbCircle
 10
5954.259999999999
 20
3132.449360799999
 40
2.400000000001
100
AcDbArc
 50
180.0
 51
-125.000000000039
  0
ARC
  5
335
100
AcDbEntity
  8
7
  6
CONTINUOUS
 62
           7
100
AcDbCircle
 10
5948.02
 20
3132.160000000001
 40
3.839999999997
100
AcDbArc
 50
0.0
 51
90.0
  0
ARC
  5
334
100
AcDbEntity
  8
7
  6
CONTINUOUS
 62
           7
100
AcDbCircle
 10
5767.739999999999
 20
3132.449360799999
 40
2.399999999999
100
AcDbArc
 50
-54.999999999961
 51
0.0
  0
ARC
  5
333
100
AcDbEntity
  8
7
  6
CONTINUOUS
 62
           7
100
AcDbCircle
 10
5773.980000000001
 20
3132.160000000001
 40
3.84
100
AcDbArc
 50
90.0
 51
180.0
  0
ARC
  5
332
100
AcDbEntity
  8
7
  6
CONTINUOUS
 62
           7
100
AcDbCircle
 10
5748.54
 20
3106.133628400002
 40
7.439999999999
100
AcDbArc
 50
122.681914999996
 51
180.0
  0
ARC
  5
331
100
AcDbEntity
  8
1
  6
CONTINUOUS
 62
           3
100
AcDbCircle
 10
-1238.490241678123
 20
767.114622327059
 40
0.500000000003
100
AcDbArc
 50
-83.827497998184
 51
-5.006793000168
  0
ARC
  5
330
100
AcDbEntity
  8
1
  6
CONTINUOUS
 62
           3
100
AcDbCircle
 10
-1244.565247678122
 20
767.114622327059
 40
0.499999999996
100
AcDbArc
 50
-174.993206999752
 51
-96.172501999303
  0
ARC
  5
32F
100
AcDbEntity
  8
1
  6
CONTINUOUS
 62
           3
100
AcDbCircle
 10
-1238.490241678123
 20
823.287074327051
 40
0.500000000005
100
AcDbArc
 50
5.006793001206
 51
83.827497998161
  0
ARC
  5
32E
100
AcDbEntity
  8
1
  6
CONTINUOUS
 62
           3
100
AcDbCircle
 10
-1244.565247678122
 20
823.287074327051
 40
0.499999999999
100
AcDbArc
 50
96.172501999326
 51
174.993206998714
  0
ARC
  5
32D
100
AcDbEntity
  8
1
  6
CONTINUOUS
 62
           3
100
AcDbCircle
 10
-1245.566047678116
 20
795.200848327049
 40
9.999999999999
100
AcDbArc
 50
-5.006792999977
 51
5.006793000029
  0
ARC
  5
32C
100
AcDbEntity
  8
1
  6
CONTINUOUS
 62
           3
100
AcDbCircle
 10
-1237.489442678122
 20
795.200848327049
 40
10.0
100
AcDbArc
 50
174.993206999971
 51
-174.993207000022
  0
ARC
  5
32B
100
AcDbEntity
  8
1
  6
CONTINUOUS
 62
           3
100
AcDbCircle
 10
-1241.527744678122
 20
795.200848327049
 40
10.74999999999
100
AcDbArc
 50
118.77350699997
 51
-118.773506999951
  0
ARC
  5
32A
100
AcDbEntity
  8
1
  6
CONTINUOUS
 62
           3
100
AcDbCircle
 10
-1241.527744678122
 20
795.200848327049
 40
10.75
100
AcDbArc
 50
-61.226493000021
 51
0.0
  0
ARC
  5
329
100
AcDbEntity
  8
1
  6
CONTINUOUS
 62
           3
100
AcDbCircle
 10
-1241.527744678122
 20
795.200848327049
 40
10.75
100
AcDbArc
 50
0.0
 51
61.226493000002
  0
ARC
  5
328
100
AcDbEntity
  8
1
  6
CONTINUOUS
 62
           3
100
AcDbCircle
 10
-1241.527744678122
 20
795.200848327049
 40
28.749999999987
100
AcDbArc
 50
-96.172501999994
 51
-83.827497999994
  0
ARC
  5
327
100
AcDbEntity
  8
1
  6
CONTINUOUS
 62
           3
100
AcDbCircle
 10
-1241.527744678122
 20
795.200848327049
 40
28.75000000001
100
AcDbArc
 50
83.827497999999
 51
96.172501999989
  0
LINE
  5
326
100
AcDbEntity
  8
1
  6
CONTINUOUS
 62
           3
100
AcDbLine
 10
5769.466432415577
 20
1443.853989524963
 11
5609.349597227116
 21
1603.970824713422
  0
LINE
  5
325
100
AcDbEntity
  8
1
  6
CONTINUOUS
 62
           3
100
AcDbLine
 10
5603.692742977623
 20
1598.313970463933
 11
5763.809578166084
 21
1438.19713527547
  0
LINE
  5
324
100
AcDbEntity
  8
1
  6
CONTINUOUS
 62
           3
100
AcDbLine
 10
5382.399996810935
 20
1697.1108682961
 11
5384.489640809793
 21
1697.1108682961
  0
LINE
  5
323
100
AcDbEntity
  8
1
  6
CONTINUOUS
 62
           3
100
AcDbLine
 10
5382.399998122329
 20
1689.110868296103
 11
5384.489640809793
 21
1689.110868296103
  0
LINE
  5
322
100
AcDbEntity
  8
1
  6
CONTINUOUS
 62
           3
100
AcDbLine
 10
5790.420285209858
 20
1432.756717518814
 11
5784.091715893665
 21
1434.452452556339
  0
LINE
  5
321
100
AcDbEntity
  8
1
  6
CONTINUOUS
 62
           3
100
AcDbLine
 10
5793.259440871726
 20
1422.160844338136
 11
5790.420285209858
 21
1432.756717518814
  0
LINE
  5
320
100
AcDbEntity
  8
1
  6
CONTINUOUS
 62
           3
100
AcDbLine
 10
5785.502723352912
 20
1414.404126819323
 11
5793.259440871726
 21
1422.160844338136
  0
LINE
  5
31F
100
AcDbEntity
  8
1
  6
CONTINUOUS
 62
           3
100
AcDbLine
 10
5774.906850172233
 20
1417.243282481188
 11
5785.502723352912
 21
1414.404126819323
  0
LINE
  5
31E
100
AcDbEntity
  8
1
  6
CONTINUOUS
 62
           3
100
AcDbLine
 10
5773.211115134715
 20
1423.571851797378
 11
5774.906850172233
 21
1417.243282481188
  0
LINE
  5
31D
100
AcDbEntity
  8
1
  6
DOT_CENTER
 62
           3
100
AcDbLine
 10
5765.731861780773
 20
1441.931705910274
 11
5795.040854995536
 21
1412.622712695511
  0
LINE
  5
31C
100
AcDbEntity
  8
1
  6
CONTINUOUS
 62
           3
100
AcDbLine
 10
5769.211318804976
 20
1426.784986996494
 11
5769.604649370288
 21
1427.178317561804
  0
LINE
  5
31B
100
AcDbEntity
  8
1
  6
CONTINUOUS
 62
           3
100
AcDbLine
 10
5769.211318804976
 20
1426.784986996494
 11
5762.37033578607
 21
1433.625970015397
  0
LINE
  5
31A
100
AcDbEntity
  8
1
  6
CONTINUOUS
 62
           3
100
AcDbLine
 10
5762.37033578607
 20
1433.625970015397
 11
5768.203966730859
 21
1439.459600960188
  0
LINE
  5
319
100
AcDbEntity
  8
1
  6
CONTINUOUS
 62
           3
100
AcDbLine
 10
5763.961326043741
 20
1435.216960273068
 11
5763.363251223441
 21
1435.815035093367
  0
LINE
  5
318
100
AcDbEntity
  8
1
  6
CONTINUOUS
 62
           3
100
AcDbLine
 10
5762.165591531083
 20
1434.617375401009
 11
5767.60589191056
 21
1440.057675780487
  0
LINE
  5
317
100
AcDbEntity
  8
1
  6
CONTINUOUS
 62
           3
100
AcDbLine
 10
5762.165591531083
 20
1434.617375401009
 11
5761.666918125465
 21
1435.116048806627
  0
LINE
  5
316
100
AcDbEntity
  8
1
  6
CONTINUOUS
 62
           3
100
AcDbLine
 10
5766.753665114348
 20
1440.909902576699
 11
5761.666918125465
 21
1435.823155587814
  0
LINE
  5
315
100
AcDbEntity
  8
1
  6
CONTINUOUS
 62
           3
100
AcDbLine
 10
5771.840412103232
 20
1445.996649565583
 11
5766.753665114348
 21
1440.909902576699
  0
LINE
  5
314
100
AcDbEntity
  8
1
  6
CONTINUOUS
 62
           3
100
AcDbLine
 10
5772.547518884418
 20
1445.996649565583
 11
5773.046192290037
 21
1445.497976159964
  0
LINE
  5
313
100
AcDbEntity
  8
1
  6
CONTINUOUS
 62
           3
100
AcDbLine
 10
5767.60589191056
 20
1440.057675780487
 11
5773.046192290037
 21
1445.497976159964
  0
LINE
  5
312
100
AcDbEntity
  8
1
  6
CONTINUOUS
 62
           3
100
AcDbLine
 10
5771.848532597679
 20
1444.300316467607
 11
5772.446607417979
 21
1443.702241647308
  0
LINE
  5
311
100
AcDbEntity
  8
1
  6
CONTINUOUS
 62
           3
100
AcDbLine
 10
5774.03759767565
 20
1445.293231904976
 11
5780.878580694553
 21
1438.452248886071
  0
LINE
  5
310
100
AcDbEntity
  8
1
  6
CONTINUOUS
 62
           3
100
AcDbLine
 10
5768.203966730859
 20
1439.459600960188
 11
5774.03759767565
 21
1445.293231904976
  0
LINE
  5
30F
100
AcDbEntity
  8
1
  6
CONTINUOUS
 62
           3
100
AcDbLine
 10
5780.485250129242
 20
1438.058918320761
 11
5780.878580694553
 21
1438.452248886071
  0
LINE
  5
30E
100
AcDbEntity
  8
1
  6
CONTINUOUS
 62
           3
100
AcDbLine
 10
5769.604649370288
 20
1427.178317561804
 11
5780.485250129242
 21
1438.058918320761
  0
LINE
  5
30D
100
AcDbEntity
  8
1
  6
CONTINUOUS
 62
           3
100
AcDbLine
 10
5773.751912345796
 20
1423.031054586298
 11
5784.63251310475
 21
1433.911655345251
  0
LINE
  5
30C
100
AcDbEntity
  8
1
  6
CONTINUOUS
 62
           3
100
AcDbLine
 10
5773.751912345796
 20
1423.031054586298
 11
5769.604649370288
 21
1427.178317561804
  0
LINE
  5
30B
100
AcDbEntity
  8
1
  6
CONTINUOUS
 62
           3
100
AcDbLine
 10
5784.63251310475
 20
1433.911655345251
 11
5780.485250129242
 21
1438.058918320761
  0
LINE
  5
30A
100
AcDbEntity
  8
1
  6
CONTINUOUS
 62
           3
100
AcDbLine
 10
5783.344227068295
 20
1432.623369308796
 11
5786.815582034067
 21
1429.152014343023
  0
LINE
  5
309
100
AcDbEntity
  8
1
  6
DOT_CENTER
 62
           3
100
AcDbLine
 10
5792.31101852017
 20
1434.647450829125
 11
5770.294861711785
 21
1412.631294020743
  0
LINE
  5
308
100
AcDbEntity
  8
1
  6
CONTINUOUS
 62
           3
100
AcDbLine
 10
5778.511553348028
 20
1420.847985656981
 11
5775.040198382253
 21
1424.319340622755
  0
LINE
  5
307
100
AcDbEntity
  8
0
  6
CONTINUOUS
 62
           3
100
AcDbLine
 10
5277.344723494176
 20
1393.116392195194
 11
5278.399996721678
 21
1393.131740391395
  0
LINE
  5
306
100
AcDbEntity
  8
0
  6
CONTINUOUS
 62
           3
100
AcDbLine
 10
5276.403805503278
 20
1393.072016537195
 11
5277.344723494176
 21
1393.116392195194
  0
LINE
  5
305
100
AcDbEntity
  8
0
  6
CONTINUOUS
 62
           3
100
AcDbLine
 10
5275.679205573576
 20
1393.003411590993
 11
5276.403805503278
 21
1393.072016537195
  0
LINE
  5
304
100
AcDbEntity
  8
0
  6
CONTINUOUS
 62
           3
100
AcDbLine
 10
5275.249445840379
 20
1392.918020486795
 11
5275.679205573576
 21
1393.003411590993
  0
LINE
  5
303
100
AcDbEntity
  8
0
  6
CONTINUOUS
 62
           3
100
AcDbLine
 10
5275.161097088375
 20
1392.825089394994
 11
5275.249445840379
 21
1392.918020486795
  0
LINE
  5
302
100
AcDbEntity
  8
0
  6
CONTINUOUS
 62
           3
100
AcDbLine
 10
5275.399996695579
 20
1392.739541828794
 11
5275.161097088375
 21
1392.825089394994
  0
LINE
  5
301
100
AcDbEntity
  8
0
  6
CONTINUOUS
 62
           3
100
AcDbLine
 10
5281.638896354966
 20
1392.825089394994
 11
5281.399996747766
 21
1392.739541828794
  0
LINE
  5
300
100
AcDbEntity
  8
0
  6
CONTINUOUS
 62
           3
100
AcDbLine
 10
5281.550547602965
 20
1392.918020486795
 11
5281.638896354966
 21
1392.825089394994
  0
LINE
  5
2FF
100
AcDbEntity
  8
0
  6
CONTINUOUS
 62
           3
100
AcDbLine
 10
5281.120787869766
 20
1393.003411590993
 11
5281.550547602965
 21
1392.918020486795
  0
LINE
  5
2FE
100
AcDbEntity
  8
0
  6
CONTINUOUS
 62
           3
100
AcDbLine
 10
5280.396187940065
 20
1393.072016537195
 11
5281.120787869766
 21
1393.003411590993
  0
LINE
  5
2FD
100
AcDbEntity
  8
0
  6
CONTINUOUS
 62
           3
100
AcDbLine
 10
5279.455269949177
 20
1393.116392195194
 11
5280.396187940065
 21
1393.072016537195
  0
LINE
  5
2FC
100
AcDbEntity
  8
0
  6
CONTINUOUS
 62
           3
100
AcDbLine
 10
5278.399996721678
 20
1393.131740391395
 11
5279.455269949177
 21
1393.116392195194
  0
LINE
  5
2FB
100
AcDbEntity
  8
FORMAT
  6
CONTINUOUS
 62
           3
100
AcDbLine
 10
5274.899996721576
 20
1392.596845102895
 11
5264.399996721587
 21
1392.596845102895
  0
LINE
  5
2FA
100
AcDbEntity
  8
FORMAT
  6
DOT_CENTER
 62
           3
100
AcDbLine
 10
5278.399996721678
 20
1249.759397252257
 11
5278.399996721678
 21
1725.394390768571
  0
LINE
  5
2F9
100
AcDbEntity
  8
FORMAT
  6
CONTINUOUS
 62
           3
100
AcDbLine
 10
5281.899996721767
 20
1392.596845102895
 11
5274.899996721576
 21
1392.596845102895
  0
LINE
  5
2F8
100
AcDbEntity
  8
FORMAT
  6
CONTINUOUS
 62
           3
100
AcDbLine
 10
5292.399996721758
 20
1392.596845102895
 11
5281.899996721767
 21
1392.596845102895
  0
LINE
  5
2F7
100
AcDbEntity
  8
FORMAT
  6
DOT_CENTER
 62
           3
100
AcDbLine
 10
5203.499996721635
 20
1375.000000000009
 11
5189.899996721747
 21
1375.000000000009
  0
LINE
  5
2F6
100
AcDbEntity
  8
FORMAT
  6
DOT_CENTER
 62
           3
100
AcDbLine
 10
5203.499996721635
 20
1625.000000000002
 11
5189.899996721747
 21
1625.000000000002
  0
LINE
  5
2F5
100
AcDbEntity
  8
0
  6
CONTINUOUS
 62
           3
100
AcDbLine
 10
5213.399999106023
 20
1364.999994635817
 11
5197.999999189236
 21
1364.999994635817
  0
LINE
  5
2F4
100
AcDbEntity
  8
0
  6
CONTINUOUS
 62
           3
100
AcDbLine
 10
5216.899995023126
 20
1590.000003576233
 11
5216.899995023126
 21
1509.999999776397
  0
LINE
  5
2F3
100
AcDbEntity
  8
0
  6
CONTINUOUS
 62
           3
100
AcDbLine
 10
5219.899997377519
 20
1590.000003576233
 11
5216.899995023126
 21
1590.000003576233
  0
LINE
  5
2F2
100
AcDbEntity
  8
0
  6
CONTINUOUS
 62
           3
100
AcDbLine
 10
5219.899997377519
 20
1550.000000744965
 11
5219.899997377519
 21
1590.000003576233
  0
LINE
  5
2F1
100
AcDbEntity
  8
0
  6
CONTINUOUS
 62
           3
100
AcDbLine
 10
5219.899997377519
 20
1529.999999329482
 11
5219.899997377519
 21
1532.00000151988
  0
LINE
  5
2F0
100
AcDbEntity
  8
0
  6
CONTINUOUS
 62
           3
100
AcDbLine
 10
5216.899995023126
 20
1509.999999776397
 11
5218.475189322327
 21
1509.999999776397
  0
LINE
  5
2EF
100
AcDbEntity
  8
0
  6
CONTINUOUS
 62
           3
100
AcDbLine
 10
5338.399995380623
 20
1368.000000715316
 11
5338.399995380623
 21
1367.300003767017
  0
LINE
  5
2EE
100
AcDbEntity
  8
0
  6
CONTINUOUS
 62
           3
100
AcDbLine
 10
5343.399994337317
 20
1364.999994635817
 11
5343.399994337317
 21
1368.000000715316
  0
LINE
  5
2ED
100
AcDbEntity
  8
0
  6
CONTINUOUS
 62
           3
100
AcDbLine
 10
5343.399994337317
 20
1635.000005364198
 11
5343.399994337317
 21
1631.999999284699
  0
LINE
  5
2EC
100
AcDbEntity
  8
0
  6
CONTINUOUS
 62
           3
100
AcDbLine
 10
5338.399995380623
 20
1631.999999284699
 11
5338.399995380623
 21
1632.699996232997
  0
LINE
  5
2EB
100
AcDbEntity
  8
0
  6
CONTINUOUS
 62
           3
100
AcDbLine
 10
5218.399998062717
 20
1631.999999284699
 11
5218.399998062717
 21
1632.699996232997
  0
LINE
  5
2EA
100
AcDbEntity
  8
0
  6
CONTINUOUS
 62
           3
100
AcDbLine
 10
5213.399999106023
 20
1635.000005364198
 11
5213.399999106023
 21
1631.999999284699
  0
LINE
  5
2E9
100
AcDbEntity
  8
0
  6
CONTINUOUS
 62
           3
100
AcDbLine
 10
5213.399999106023
 20
1635.000005364198
 11
5197.999999189236
 21
1635.000005364198
  0
LINE
  5
2E8
100
AcDbEntity
  8
0
  6
CONTINUOUS
 62
           3
100
AcDbLine
 10
5213.399999106023
 20
1364.999994635817
 11
5213.399999106023
 21
1368.000000715316
  0
LINE
  5
2E7
100
AcDbEntity
  8
0
  6
CONTINUOUS
 62
           3
100
AcDbLine
 10
5218.399998062717
 20
1368.000000715316
 11
5218.399998062717
 21
1367.300003767017
  0
LINE
  5
2E6
100
AcDbEntity
  8
0
  6
CONTINUOUS
 62
           3
100
AcDbLine
 10
5216.899995023126
 20
1409.999996423781
 11
5216.899995023126
 21
1490.000000223614
  0
LINE
  5
2E5
100
AcDbEntity
  8
0
  6
CONTINUOUS
 62
           3
100
AcDbLine
 10
5216.899995023126
 20
1490.000000223614
 11
5218.399998062717
 21
1490.000000223614
  0
LINE
  5
2E4
100
AcDbEntity
  8
0
  6
CONTINUOUS
 62
           3
100
AcDbLine
 10
5219.899997377519
 20
1431.999996304559
 11
5219.899997377519
 21
1429.999999701964
  0
LINE
  5
2E3
100
AcDbEntity
  8
0
  6
CONTINUOUS
 62
           3
100
AcDbLine
 10
5218.475189322327
 20
1409.999996423781
 11
5216.899995023126
 21
1409.999996423781
  0
LINE
  5
2E2
100
AcDbEntity
  8
0
  6
CONTINUOUS
 62
           3
100
AcDbLine
 10
5339.899998420227
 20
1590.000003576233
 11
5339.899998420227
 21
1509.999999776397
  0
LINE
  5
2E1
100
AcDbEntity
  8
0
  6
CONTINUOUS
 62
           3
100
AcDbLine
 10
5339.899998420227
 20
1509.999999776397
 11
5338.324804121025
 21
1509.999999776397
  0
LINE
  5
2E0
100
AcDbEntity
  8
0
  6
CONTINUOUS
 62
           3
100
AcDbLine
 10
5336.899996066128
 20
1550.000000744965
 11
5336.899996066128
 21
1590.000003576233
  0
LINE
  5
2DF
100
AcDbEntity
  8
0
  6
CONTINUOUS
 62
           3
100
AcDbLine
 10
5336.899996066128
 20
1529.999999329482
 11
5336.899996066128
 21
1532.00000151988
  0
LINE
  5
2DE
100
AcDbEntity
  8
0
  6
CONTINUOUS
 62
           3
100
AcDbLine
 10
5336.899996066128
 20
1590.000003576233
 11
5339.899998420227
 21
1590.000003576233
  0
LINE
  5
2DD
100
AcDbEntity
  8
0
  6
CONTINUOUS
 62
           3
100
AcDbLine
 10
5339.899998420227
 20
1409.999996423781
 11
5339.899998420227
 21
1490.000000223614
  0
LINE
  5
2DC
100
AcDbEntity
  8
0
  6
CONTINUOUS
 62
           3
100
AcDbLine
 10
5338.324804121025
 20
1409.999996423781
 11
5339.899998420227
 21
1409.999996423781
  0
LINE
  5
2DB
100
AcDbEntity
  8
0
  6
CONTINUOUS
 62
           3
100
AcDbLine
 10
5336.899996066128
 20
1431.999996304559
 11
5336.899996066128
 21
1429.999999701964
  0
LINE
  5
2DA
100
AcDbEntity
  8
0
  6
CONTINUOUS
 62
           3
100
AcDbLine
 10
5339.899998420227
 20
1490.000000223614
 11
5338.399995380623
 21
1490.000000223614
  0
LINE
  5
2D9
100
AcDbEntity
  8
0
  6
CONTINUOUS
 62
           3
100
AcDbLine
 10
5197.999999189236
 20
1635.000005364198
 11
5195.899993443336
 21
1635.000005364198
  0
LINE
  5
2D8
100
AcDbEntity
  8
0
  6
CONTINUOUS
 62
           3
100
AcDbLine
 10
5195.899993443336
 20
1635.000005364198
 11
5195.899993443336
 21
1364.999994635817
  0
LINE
  5
2D7
100
AcDbEntity
  8
0
  6
CONTINUOUS
 62
           3
100
AcDbLine
 10
5197.999999189236
 20
1364.999994635817
 11
5195.899993443336
 21
1364.999994635817
  0
LINE
  5
2D6
100
AcDbEntity
  8
0
  6
CONTINUOUS
 62
           3
100
AcDbLine
 10
5218.399998062717
 20
1366.600006818715
 11
5218.399998062717
 21
1367.300003767017
  0
LINE
  5
2D5
100
AcDbEntity
  8
0
  6
CONTINUOUS
 62
           3
100
AcDbLine
 10
5338.399995380623
 20
1366.600006818715
 11
5338.399995380623
 21
1367.300003767017
  0
LINE
  5
2D4
100
AcDbEntity
  8
0
  6
CONTINUOUS
 62
           3
100
AcDbLine
 10
5218.399998062717
 20
1633.399993180998
 11
5218.399998062717
 21
1632.699996232997
  0
LINE
  5
2D3
100
AcDbEntity
  8
0
  6
CONTINUOUS
 62
           3
100
AcDbLine
 10
5338.399995380623
 20
1633.399993180998
 11
5338.399995380623
 21
1632.699996232997
  0
LINE
  5
2D2
100
AcDbEntity
  8
0
  6
CONTINUOUS
 62
           3
100
AcDbLine
 10
5333.399996423626
 20
1633.399993180998
 11
5338.399995380623
 21
1633.399993180998
  0
LINE
  5
2D1
100
AcDbEntity
  8
0
  6
CONTINUOUS
 62
           3
100
AcDbLine
 10
5338.399995380623
 20
1635.000005364198
 11
5333.399996423626
 21
1635.000005364198
  0
LINE
  5
2D0
100
AcDbEntity
  8
0
  6
CONTINUOUS
 62
           3
100
AcDbLine
 10
5338.399995380623
 20
1633.399993180998
 11
5338.399995380623
 21
1635.000005364198
  0
LINE
  5
2CF
100
AcDbEntity
  8
0
  6
CONTINUOUS
 62
           3
100
AcDbLine
 10
5333.399996423626
 20
1366.600006818715
 11
5338.399995380623
 21
1366.600006818715
  0
LINE
  5
2CE
100
AcDbEntity
  8
0
  6
CONTINUOUS
 62
           3
100
AcDbLine
 10
5338.399995380623
 20
1364.999994635817
 11
5333.399996423626
 21
1364.999994635817
  0
LINE
  5
2CD
100
AcDbEntity
  8
0
  6
CONTINUOUS
 62
           3
100
AcDbLine
 10
5338.399995380623
 20
1366.600006818715
 11
5338.399995380623
 21
1364.999994635817
  0
LINE
  5
2CC
100
AcDbEntity
  8
0
  6
CONTINUOUS
 62
           3
100
AcDbLine
 10
5323.399998509634
 20
1366.600006818715
 11
5325.399995112236
 21
1366.600006818715
  0
LINE
  5
2CB
100
AcDbEntity
  8
0
  6
CONTINUOUS
 62
           3
100
AcDbLine
 10
5325.399995112236
 20
1364.999994635817
 11
5323.399998509634
 21
1364.999994635817
  0
LINE
  5
2CA
100
AcDbEntity
  8
0
  6
CONTINUOUS
 62
           3
100
AcDbLine
 10
5325.399995112236
 20
1366.600006818715
 11
5325.399995112236
 21
1364.999994635817
  0
LINE
  5
2C9
100
AcDbEntity
  8
0
  6
CONTINUOUS
 62
           3
100
AcDbLine
 10
5323.399998509634
 20
1633.399993180998
 11
5325.399995112236
 21
1633.399993180998
  0
LINE
  5
2C8
100
AcDbEntity
  8
0
  6
CONTINUOUS
 62
           3
100
AcDbLine
 10
5325.399995112236
 20
1635.000005364198
 11
5323.399998509634
 21
1635.000005364198
  0
LINE
  5
2C7
100
AcDbEntity
  8
0
  6
CONTINUOUS
 62
           3
100
AcDbLine
 10
5325.399995112236
 20
1633.399993180998
 11
5325.399995112236
 21
1635.000005364198
  0
LINE
  5
2C6
100
AcDbEntity
  8
0
  6
CONTINUOUS
 62
           3
100
AcDbLine
 10
5331.399996095923
 20
1366.600006818715
 11
5333.399996423626
 21
1366.600006818715
  0
LINE
  5
2C5
100
AcDbEntity
  8
0
  6
CONTINUOUS
 62
           3
100
AcDbLine
 10
5333.399996423626
 20
1364.999994635817
 11
5331.399996095923
 21
1364.999994635817
  0
LINE
  5
2C4
100
AcDbEntity
  8
0
  6
CONTINUOUS
 62
           3
100
AcDbLine
 10
5331.399996095923
 20
1364.999994635817
 11
5331.399996095923
 21
1366.600006818715
  0
LINE
  5
2C3
100
AcDbEntity
  8
0
  6
CONTINUOUS
 62
           3
100
AcDbLine
 10
5331.399996095923
 20
1633.399993180998
 11
5333.399996423626
 21
1633.399993180998
  0
LINE
  5
2C2
100
AcDbEntity
  8
0
  6
CONTINUOUS
 62
           3
100
AcDbLine
 10
5333.399996423626
 20
1635.000005364198
 11
5331.399996095923
 21
1635.000005364198
  0
LINE
  5
2C1
100
AcDbEntity
  8
0
  6
CONTINUOUS
 62
           3
100
AcDbLine
 10
5331.399996095923
 20
1635.000005364198
 11
5331.399996095923
 21
1633.399993180998
  0
LINE
  5
2C0
100
AcDbEntity
  8
0
  6
CONTINUOUS
 62
           3
100
AcDbLine
 10
5223.399997019715
 20
1633.399993180998
 11
5218.399998062717
 21
1633.399993180998
  0
LINE
  5
2BF
100
AcDbEntity
  8
0
  6
CONTINUOUS
 62
           3
100
AcDbLine
 10
5218.399998062717
 20
1635.000005364198
 11
5223.399997019715
 21
1635.000005364198
  0
LINE
  5
2BE
100
AcDbEntity
  8
0
  6
CONTINUOUS
 62
           3
100
AcDbLine
 10
5218.399998062717
 20
1633.399993180998
 11
5218.399998062717
 21
1635.000005364198
  0
LINE
  5
2BD
100
AcDbEntity
  8
0
  6
CONTINUOUS
 62
           3
100
AcDbLine
 10
5223.399997019715
 20
1366.600006818715
 11
5218.399998062717
 21
1366.600006818715
  0
LINE
  5
2BC
100
AcDbEntity
  8
0
  6
CONTINUOUS
 62
           3
100
AcDbLine
 10
5218.399998062717
 20
1364.999994635817
 11
5223.399997019715
 21
1364.999994635817
  0
LINE
  5
2BB
100
AcDbEntity
  8
0
  6
CONTINUOUS
 62
           3
100
AcDbLine
 10
5218.399998062717
 20
1366.600006818715
 11
5218.399998062717
 21
1364.999994635817
  0
LINE
  5
2BA
100
AcDbEntity
  8
0
  6
CONTINUOUS
 62
           3
100
AcDbLine
 10
5233.399994933706
 20
1633.399993180998
 11
5323.399998509634
 21
1633.399993180998
  0
LINE
  5
2B9
100
AcDbEntity
  8
0
  6
CONTINUOUS
 62
           3
100
AcDbLine
 10
5233.399994933706
 20
1635.000005364198
 11
5323.399998509634
 21
1635.000005364198
  0
LINE
  5
2B8
100
AcDbEntity
  8
0
  6
CONTINUOUS
 62
           3
100
AcDbLine
 10
5233.399994933706
 20
1366.600006818715
 11
5323.399998509634
 21
1366.600006818715
  0
LINE
  5
2B7
100
AcDbEntity
  8
0
  6
CONTINUOUS
 62
           3
100
AcDbLine
 10
5233.399994933706
 20
1364.999994635817
 11
5323.399998509634
 21
1364.999994635817
  0
LINE
  5
2B6
100
AcDbEntity
  8
0
  6
CONTINUOUS
 62
           3
100
AcDbLine
 10
5233.399994933706
 20
1366.600006818715
 11
5231.399998331106
 21
1366.600006818715
  0
LINE
  5
2B5
100
AcDbEntity
  8
0
  6
CONTINUOUS
 62
           3
100
AcDbLine
 10
5231.399998331106
 20
1366.600006818715
 11
5231.399998331106
 21
1364.999994635817
  0
LINE
  5
2B4
100
AcDbEntity
  8
0
  6
CONTINUOUS
 62
           3
100
AcDbLine
 10
5231.399998331106
 20
1364.999994635817
 11
5233.399994933706
 21
1364.999994635817
  0
LINE
  5
2B3
100
AcDbEntity
  8
0
  6
CONTINUOUS
 62
           3
100
AcDbLine
 10
5233.399994933706
 20
1633.399993180998
 11
5231.399998331106
 21
1633.399993180998
  0
LINE
  5
2B2
100
AcDbEntity
  8
0
  6
CONTINUOUS
 62
           3
100
AcDbLine
 10
5231.399998331106
 20
1635.000005364198
 11
5233.399994933706
 21
1635.000005364198
  0
LINE
  5
2B1
100
AcDbEntity
  8
0
  6
CONTINUOUS
 62
           3
100
AcDbLine
 10
5231.399998331106
 20
1633.399993180998
 11
5231.399998331106
 21
1635.000005364198
  0
LINE
  5
2B0
100
AcDbEntity
  8
0
  6
CONTINUOUS
 62
           3
100
AcDbLine
 10
5225.399997347716
 20
1633.399993180998
 11
5223.399997019715
 21
1633.399993180998
  0
LINE
  5
2AF
100
AcDbEntity
  8
0
  6
CONTINUOUS
 62
           3
100
AcDbLine
 10
5225.399997347716
 20
1635.000005364198
 11
5225.399997347716
 21
1633.399993180998
  0
LINE
  5
2AE
100
AcDbEntity
  8
0
  6
CONTINUOUS
 62
           3
100
AcDbLine
 10
5223.399997019715
 20
1635.000005364198
 11
5225.399997347716
 21
1635.000005364198
  0
LINE
  5
2AD
100
AcDbEntity
  8
0
  6
CONTINUOUS
 62
           3
100
AcDbLine
 10
5225.399997347716
 20
1366.600006818715
 11
5223.399997019715
 21
1366.600006818715
  0
LINE
  5
2AC
100
AcDbEntity
  8
0
  6
CONTINUOUS
 62
           3
100
AcDbLine
 10
5223.399997019715
 20
1364.999994635817
 11
5225.399997347716
 21
1364.999994635817
  0
LINE
  5
2AB
100
AcDbEntity
  8
0
  6
CONTINUOUS
 62
           3
100
AcDbLine
 10
5225.399997347716
 20
1364.999994635817
 11
5225.399997347716
 21
1366.600006818715
  0
LINE
  5
2AA
100
AcDbEntity
  8
0
  6
CONTINUOUS
 62
           3
100
AcDbLine
 10
5338.324804121025
 20
1409.999996423781
 11
5336.699996405627
 21
1409.999996423781
  0
LINE
  5
2A9
100
AcDbEntity
  8
0
  6
CONTINUOUS
 62
           3
100
AcDbLine
 10
5336.699996405627
 20
1429.999999701964
 11
5338.399995380623
 21
1429.999999701964
  0
LINE
  5
2A8
100
AcDbEntity
  8
0
  6
CONTINUOUS
 62
           3
100
AcDbLine
 10
5338.399995380623
 20
1429.999999701964
 11
5338.399995380623
 21
1409.999996423781
  0
LINE
  5
2A7
100
AcDbEntity
  8
0
  6
CONTINUOUS
 62
           3
100
AcDbLine
 10
5218.399998062717
 20
1529.999999329482
 11
5220.099997037718
 21
1529.999999329482
  0
LINE
  5
2A6
100
AcDbEntity
  8
0
  6
CONTINUOUS
 62
           3
100
AcDbLine
 10
5218.399998062717
 20
1509.999999776397
 11
5218.399998062717
 21
1529.999999329482
  0
LINE
  5
2A5
100
AcDbEntity
  8
0
  6
CONTINUOUS
 62
           3
100
AcDbLine
 10
5220.099997037718
 20
1509.999999776397
 11
5218.475189322327
 21
1509.999999776397
  0
LINE
  5
2A4
100
AcDbEntity
  8
0
  6
CONTINUOUS
 62
           3
100
AcDbLine
 10
5218.475189322327
 20
1409.999996423781
 11
5220.099997037718
 21
1409.999996423781
  0
LINE
  5
2A3
100
AcDbEntity
  8
0
  6
CONTINUOUS
 62
           3
100
AcDbLine
 10
5220.099997037718
 20
1429.999999701964
 11
5218.399998062717
 21
1429.999999701964
  0
LINE
  5
2A2
100
AcDbEntity
  8
0
  6
CONTINUOUS
 62
           3
100
AcDbLine
 10
5218.399998062717
 20
1429.999999701964
 11
5218.399998062717
 21
1409.999996423781
  0
LINE
  5
2A1
100
AcDbEntity
  8
0
  6
CONTINUOUS
 62
           3
100
AcDbLine
 10
5220.099997037718
 20
1529.999999329482
 11
5220.399998390717
 21
1529.999999329482
  0
LINE
  5
2A0
100
AcDbEntity
  8
0
  6
CONTINUOUS
 62
           3
100
AcDbLine
 10
5220.399998390717
 20
1509.999999776397
 11
5220.099997037718
 21
1509.999999776397
  0
LINE
  5
29F
100
AcDbEntity
  8
0
  6
CONTINUOUS
 62
           3
100
AcDbLine
 10
5218.399998062717
 20
1508.000000379901
 11
5220.399998390717
 21
1508.000000379901
  0
LINE
  5
29E
100
AcDbEntity
  8
0
  6
CONTINUOUS
 62
           3
100
AcDbLine
 10
5218.399998062717
 20
1508.000000379901
 11
5218.399998062717
 21
1431.999996304559
  0
LINE
  5
29D
100
AcDbEntity
  8
0
  6
CONTINUOUS
 62
           3
100
AcDbLine
 10
5218.399998062717
 20
1431.999996304559
 11
5220.399998390717
 21
1431.999996304559
  0
LINE
  5
29C
100
AcDbEntity
  8
0
  6
CONTINUOUS
 62
           3
100
AcDbLine
 10
5220.399998390717
 20
1429.999999701964
 11
5220.099997037718
 21
1429.999999701964
  0
LINE
  5
29B
100
AcDbEntity
  8
0
  6
CONTINUOUS
 62
           3
100
AcDbLine
 10
5220.099997037718
 20
1409.999996423781
 11
5220.399998390717
 21
1409.999996423781
  0
LINE
  5
29A
100
AcDbEntity
  8
0
  6
CONTINUOUS
 62
           3
100
AcDbLine
 10
5220.399998390717
 20
1407.999999821184
 11
5218.399998062717
 21
1407.999999821184
  0
LINE
  5
299
100
AcDbEntity
  8
0
  6
CONTINUOUS
 62
           3
100
AcDbLine
 10
5218.399998062717
 20
1391.699999570794
 11
5218.399998062717
 21
1407.999999821184
  0
LINE
  5
298
100
AcDbEntity
  8
0
  6
CONTINUOUS
 62
           3
100
AcDbLine
 10
5338.399995380623
 20
1391.699999570794
 11
5338.399995380623
 21
1407.999999821184
  0
LINE
  5
297
100
AcDbEntity
  8
0
  6
CONTINUOUS
 62
           3
100
AcDbLine
 10
5336.399995052625
 20
1407.999999821184
 11
5338.399995380623
 21
1407.999999821184
  0
LINE
  5
296
100
AcDbEntity
  8
0
  6
CONTINUOUS
 62
           3
100
AcDbLine
 10
5336.699996405627
 20
1409.999996423781
 11
5336.399995052625
 21
1409.999996423781
  0
LINE
  5
295
100
AcDbEntity
  8
0
  6
CONTINUOUS
 62
           3
100
AcDbLine
 10
5336.399995052625
 20
1429.999999701964
 11
5336.699996405627
 21
1429.999999701964
  0
LINE
  5
294
100
AcDbEntity
  8
0
  6
CONTINUOUS
 62
           3
100
AcDbLine
 10
5338.399995380623
 20
1431.999996304559
 11
5336.399995052625
 21
1431.999996304559
  0
LINE
  5
293
100
AcDbEntity
  8
0
  6
CONTINUOUS
 62
           3
100
AcDbLine
 10
5338.399995380623
 20
1508.000000379901
 11
5338.399995380623
 21
1431.999996304559
  0
LINE
  5
292
100
AcDbEntity
  8
0
  6
CONTINUOUS
 62
           3
100
AcDbLine
 10
5338.399995380623
 20
1508.000000379901
 11
5336.399995052625
 21
1508.000000379901
  0
LINE
  5
291
100
AcDbEntity
  8
0
  6
CONTINUOUS
 62
           3
100
AcDbLine
 10
5336.399995052625
 20
1509.999999776397
 11
5336.699996405627
 21
1509.999999776397
  0
LINE
  5
290
100
AcDbEntity
  8
0
  6
CONTINUOUS
 62
           3
100
AcDbLine
 10
5336.699996405627
 20
1529.999999329482
 11
5336.399995052625
 21
1529.999999329482
  0
LINE
  5
28F
100
AcDbEntity
  8
0
  6
CONTINUOUS
 62
           3
100
AcDbLine
 10
5336.399995052625
 20
1532.00000151988
 11
5338.399995380623
 21
1532.00000151988
  0
LINE
  5
28E
100
AcDbEntity
  8
0
  6
CONTINUOUS
 62
           3
100
AcDbLine
 10
5338.399995380623
 20
1548.300001770267
 11
5338.399995380623
 21
1532.00000151988
  0
LINE
  5
28D
100
AcDbEntity
  8
0
  6
CONTINUOUS
 62
           3
100
AcDbLine
 10
5218.399998062717
 20
1548.300001770267
 11
5218.399998062717
 21
1532.00000151988
  0
LINE
  5
28C
100
AcDbEntity
  8
0
  6
CONTINUOUS
 62
           3
100
AcDbLine
 10
5220.399998390717
 20
1532.00000151988
 11
5218.399998062717
 21
1532.00000151988
  0
LINE
  5
28B
100
AcDbEntity
  8
0
  6
CONTINUOUS
 62
           3
100
AcDbLine
 10
5336.699996405627
 20
1509.999999776397
 11
5338.324804121025
 21
1509.999999776397
  0
LINE
  5
28A
100
AcDbEntity
  8
0
  6
CONTINUOUS
 62
           3
100
AcDbLine
 10
5338.399995380623
 20
1509.999999776397
 11
5338.399995380623
 21
1529.999999329482
  0
LINE
  5
289
100
AcDbEntity
  8
0
  6
CONTINUOUS
 62
           3
100
AcDbLine
 10
5338.399995380623
 20
1529.999999329482
 11
5336.699996405627
 21
1529.999999329482
  0
LINE
  5
288
100
AcDbEntity
  8
0
  6
CONTINUOUS
 62
           3
100
AcDbLine
 10
5338.399995380623
 20
1548.799999058068
 11
5338.399995380623
 21
1548.300001770267
  0
LINE
  5
287
100
AcDbEntity
  8
0
  6
CONTINUOUS
 62
           3
100
AcDbLine
 10
5218.399998062717
 20
1548.799999058068
 11
5218.399998062717
 21
1548.300001770267
  0
LINE
  5
286
100
AcDbEntity
  8
0
  6
CONTINUOUS
 62
           3
100
AcDbLine
 10
5218.399998062717
 20
1391.199998557595
 11
5218.399998062717
 21
1391.699999570794
  0
LINE
  5
285
100
AcDbEntity
  8
0
  6
CONTINUOUS
 62
           3
100
AcDbLine
 10
5338.399995380623
 20
1391.199998557595
 11
5338.399995380623
 21
1391.699999570794
  0
LINE
  5
284
100
AcDbEntity
  8
0
  6
CONTINUOUS
 62
           3
100
AcDbLine
 10
5281.399996747766
 20
1550.000000744965
 11
5281.649996788766
 21
1550.000000744965
  0
LINE
  5
283
100
AcDbEntity
  8
0
  6
CONTINUOUS
 62
           3
100
AcDbLine
 10
5275.149996654579
 20
1550.000000744965
 11
5275.399996695579
 21
1550.000000744965
  0
LINE
  5
282
100
AcDbEntity
  8
0
  6
CONTINUOUS
 62
           3
100
AcDbLine
 10
5281.399996747766
 20
1548.799999058068
 11
5281.649996788766
 21
1548.799999058068
  0
LINE
  5
281
100
AcDbEntity
  8
0
  6
CONTINUOUS
 62
           3
100
AcDbLine
 10
5275.149996654579
 20
1548.799999058068
 11
5275.399996695579
 21
1548.799999058068
  0
LINE
  5
280
100
AcDbEntity
  8
0
  6
CONTINUOUS
 62
           3
100
AcDbLine
 10
5275.399996695579
 20
1391.199998557595
 11
5275.149996654579
 21
1391.199998557595
  0
LINE
  5
27F
100
AcDbEntity
  8
0
  6
CONTINUOUS
 62
           3
100
AcDbLine
 10
5281.649996788766
 20
1391.199998557595
 11
5281.399996747766
 21
1391.199998557595
  0
LINE
  5
27E
100
AcDbEntity
  8
0
  6
CONTINUOUS
 62
           3
100
AcDbLine
 10
5223.399997019715
 20
1391.199998557595
 11
5218.399998062717
 21
1391.199998557595
  0
LINE
  5
27D
100
AcDbEntity
  8
0
  6
CONTINUOUS
 62
           3
100
AcDbLine
 10
5218.399998062717
 20
1390.000000596099
 11
5223.399997019715
 21
1390.000000596099
  0
LINE
  5
27C
100
AcDbEntity
  8
0
  6
CONTINUOUS
 62
           3
100
AcDbLine
 10
5218.399998062717
 20
1391.199998557595
 11
5218.399998062717
 21
1390.000000596099
  0
LINE
  5
27B
100
AcDbEntity
  8
0
  6
CONTINUOUS
 62
           3
100
AcDbLine
 10
5218.399998062717
 20
1550.000000744965
 11
5223.399997019715
 21
1550.000000744965
  0
LINE
  5
27A
100
AcDbEntity
  8
0
  6
CONTINUOUS
 62
           3
100
AcDbLine
 10
5223.399997019715
 20
1548.799999058068
 11
5218.399998062717
 21
1548.799999058068
  0
LINE
  5
279
100
AcDbEntity
  8
0
  6
CONTINUOUS
 62
           3
100
AcDbLine
 10
5218.399998062717
 20
1548.799999058068
 11
5218.399998062717
 21
1550.000000744965
  0
LINE
  5
278
100
AcDbEntity
  8
0
  6
CONTINUOUS
 62
           3
100
AcDbLine
 10
5323.399998509634
 20
1550.000000744965
 11
5308.399996051146
 21
1550.000000744965
  0
LINE
  5
277
100
AcDbEntity
  8
0
  6
CONTINUOUS
 62
           3
100
AcDbLine
 10
5323.399998509634
 20
1548.799999058068
 11
5308.399996051146
 21
1548.799999058068
  0
LINE
  5
276
100
AcDbEntity
  8
0
  6
CONTINUOUS
 62
           3
100
AcDbLine
 10
5338.399995380623
 20
1550.000000744965
 11
5333.399996423626
 21
1550.000000744965
  0
LINE
  5
275
100
AcDbEntity
  8
0
  6
CONTINUOUS
 62
           3
100
AcDbLine
 10
5333.399996423626
 20
1548.799999058068
 11
5338.399995380623
 21
1548.799999058068
  0
LINE
  5
274
100
AcDbEntity
  8
0
  6
CONTINUOUS
 62
           3
100
AcDbLine
 10
5338.399995380623
 20
1548.799999058068
 11
5338.399995380623
 21
1550.000000744965
  0
LINE
  5
273
100
AcDbEntity
  8
0
  6
CONTINUOUS
 62
           3
100
AcDbLine
 10
5323.399998509634
 20
1391.199998557595
 11
5308.399996051146
 21
1391.199998557595
  0
LINE
  5
272
100
AcDbEntity
  8
0
  6
CONTINUOUS
 62
           3
100
AcDbLine
 10
5323.399998509634
 20
1390.000000596099
 11
5308.399996051146
 21
1390.000000596099
  0
LINE
  5
271
100
AcDbEntity
  8
0
  6
CONTINUOUS
 62
           3
100
AcDbLine
 10
5233.399994933706
 20
1550.000000744965
 11
5248.399997392193
 21
1550.000000744965
  0
LINE
  5
270
100
AcDbEntity
  8
0
  6
CONTINUOUS
 62
           3
100
AcDbLine
 10
5233.399994933706
 20
1548.799999058068
 11
5248.399997392193
 21
1548.799999058068
  0
LINE
  5
26F
100
AcDbEntity
  8
0
  6
CONTINUOUS
 62
           3
100
AcDbLine
 10
5333.399996423626
 20
1391.199998557595
 11
5338.399995380623
 21
1391.199998557595
  0
LINE
  5
26E
100
AcDbEntity
  8
0
  6
CONTINUOUS
 62
           3
100
AcDbLine
 10
5338.399995380623
 20
1390.000000596099
 11
5333.399996423626
 21
1390.000000596099
  0
LINE
  5
26D
100
AcDbEntity
  8
0
  6
CONTINUOUS
 62
           3
100
AcDbLine
 10
5338.399995380623
 20
1391.199998557595
 11
5338.399995380623
 21
1390.000000596099
  0
LINE
  5
26C
100
AcDbEntity
  8
0
  6
CONTINUOUS
 62
           3
100
AcDbLine
 10
5233.399994933706
 20
1391.199998557595
 11
5248.399997392193
 21
1391.199998557595
  0
LINE
  5
26B
100
AcDbEntity
  8
0
  6
CONTINUOUS
 62
           3
100
AcDbLine
 10
5233.399994933706
 20
1390.000000596099
 11
5248.399997392193
 21
1390.000000596099
  0
LINE
  5
26A
100
AcDbEntity
  8
0
  6
CONTINUOUS
 62
           3
100
AcDbLine
 10
5231.399998331106
 20
1550.000000744965
 11
5233.399994933706
 21
1550.000000744965
  0
LINE
  5
269
100
AcDbEntity
  8
0
  6
CONTINUOUS
 62
           3
100
AcDbLine
 10
5233.399994933706
 20
1548.799999058068
 11
5231.399998331106
 21
1548.799999058068
  0
LINE
  5
268
100
AcDbEntity
  8
0
  6
CONTINUOUS
 62
           3
100
AcDbLine
 10
5231.399998331106
 20
1548.799999058068
 11
5231.399998331106
 21
1550.000000744965
  0
LINE
  5
267
100
AcDbEntity
  8
0
  6
CONTINUOUS
 62
           3
100
AcDbLine
 10
5223.399997019715
 20
1550.000000744965
 11
5225.399997347716
 21
1550.000000744965
  0
LINE
  5
266
100
AcDbEntity
  8
0
  6
CONTINUOUS
 62
           3
100
AcDbLine
 10
5225.399997347716
 20
1548.799999058068
 11
5223.399997019715
 21
1548.799999058068
  0
LINE
  5
265
100
AcDbEntity
  8
0
  6
CONTINUOUS
 62
           3
100
AcDbLine
 10
5225.399997347716
 20
1550.000000744965
 11
5225.399997347716
 21
1548.799999058068
  0
LINE
  5
264
100
AcDbEntity
  8
0
  6
CONTINUOUS
 62
           3
100
AcDbLine
 10
5323.399998509634
 20
1391.199998557595
 11
5325.399995112236
 21
1391.199998557595
  0
LINE
  5
263
100
AcDbEntity
  8
0
  6
CONTINUOUS
 62
           3
100
AcDbLine
 10
5325.399995112236
 20
1390.000000596099
 11
5323.399998509634
 21
1390.000000596099
  0
LINE
  5
262
100
AcDbEntity
  8
0
  6
CONTINUOUS
 62
           3
100
AcDbLine
 10
5325.399995112236
 20
1391.199998557595
 11
5325.399995112236
 21
1390.000000596099
  0
LINE
  5
261
100
AcDbEntity
  8
0
  6
CONTINUOUS
 62
           3
100
AcDbLine
 10
5331.399996095923
 20
1391.199998557595
 11
5333.399996423626
 21
1391.199998557595
  0
LINE
  5
260
100
AcDbEntity
  8
0
  6
CONTINUOUS
 62
           3
100
AcDbLine
 10
5333.399996423626
 20
1390.000000596099
 11
5331.399996095923
 21
1390.000000596099
  0
LINE
  5
25F
100
AcDbEntity
  8
0
  6
CONTINUOUS
 62
           3
100
AcDbLine
 10
5331.399996095923
 20
1390.000000596099
 11
5331.399996095923
 21
1391.199998557595
  0
LINE
  5
25E
100
AcDbEntity
  8
0
  6
CONTINUOUS
 62
           3
100
AcDbLine
 10
5325.399995112236
 20
1550.000000744965
 11
5323.399998509634
 21
1550.000000744965
  0
LINE
  5
25D
100
AcDbEntity
  8
0
  6
CONTINUOUS
 62
           3
100
AcDbLine
 10
5323.399998509634
 20
1548.799999058068
 11
5325.399995112236
 21
1548.799999058068
  0
LINE
  5
25C
100
AcDbEntity
  8
0
  6
CONTINUOUS
 62
           3
100
AcDbLine
 10
5325.399995112236
 20
1548.799999058068
 11
5325.399995112236
 21
1550.000000744965
  0
LINE
  5
25B
100
AcDbEntity
  8
0
  6
CONTINUOUS
 62
           3
100
AcDbLine
 10
5333.399996423626
 20
1550.000000744965
 11
5331.399996095923
 21
1550.000000744965
  0
LINE
  5
25A
100
AcDbEntity
  8
0
  6
CONTINUOUS
 62
           3
100
AcDbLine
 10
5331.399996095923
 20
1548.799999058068
 11
5333.399996423626
 21
1548.799999058068
  0
LINE
  5
259
100
AcDbEntity
  8
0
  6
CONTINUOUS
 62
           3
100
AcDbLine
 10
5331.399996095923
 20
1550.000000744965
 11
5331.399996095923
 21
1548.799999058068
  0
LINE
  5
258
100
AcDbEntity
  8
0
  6
CONTINUOUS
 62
           3
100
AcDbLine
 10
5233.399994933706
 20
1391.199998557595
 11
5231.399998331106
 21
1391.199998557595
  0
LINE
  5
257
100
AcDbEntity
  8
0
  6
CONTINUOUS
 62
           3
100
AcDbLine
 10
5231.399998331106
 20
1390.000000596099
 11
5233.399994933706
 21
1390.000000596099
  0
LINE
  5
256
100
AcDbEntity
  8
0
  6
CONTINUOUS
 62
           3
100
AcDbLine
 10
5231.399998331106
 20
1391.199998557595
 11
5231.399998331106
 21
1390.000000596099
  0
LINE
  5
255
100
AcDbEntity
  8
0
  6
CONTINUOUS
 62
           3
100
AcDbLine
 10
5225.399997347716
 20
1391.199998557595
 11
5223.399997019715
 21
1391.199998557595
  0
LINE
  5
254
100
AcDbEntity
  8
0
  6
CONTINUOUS
 62
           3
100
AcDbLine
 10
5223.399997019715
 20
1390.000000596099
 11
5225.399997347716
 21
1390.000000596099
  0
LINE
  5
253
100
AcDbEntity
  8
0
  6
CONTINUOUS
 62
           3
100
AcDbLine
 10
5225.399997347716
 20
1390.000000596099
 11
5225.399997347716
 21
1391.199998557595
  0
LINE
  5
252
100
AcDbEntity
  8
0
  6
CONTINUOUS
 62
           3
100
AcDbLine
 10
5274.899996613579
 20
1391.199998557595
 11
5275.149996654579
 21
1391.199998557595
  0
LINE
  5
251
100
AcDbEntity
  8
0
  6
CONTINUOUS
 62
           3
100
AcDbLine
 10
5275.149996654579
 20
1391.199998557595
 11
5275.149996654579
 21
1390.000000596099
  0
LINE
  5
250
100
AcDbEntity
  8
0
  6
CONTINUOUS
 62
           3
100
AcDbLine
 10
5308.399996051146
 20
1391.199998557595
 11
5298.399996274755
 21
1391.199998557595
  0
LINE
  5
24F
100
AcDbEntity
  8
0
  6
CONTINUOUS
 62
           3
100
AcDbLine
 10
5308.399996051146
 20
1390.000000596099
 11
5298.399996274755
 21
1390.000000596099
  0
LINE
  5
24E
100
AcDbEntity
  8
0
  6
CONTINUOUS
 62
           3
100
AcDbLine
 10
5308.399996051146
 20
1391.199998557595
 11
5308.399996051146
 21
1390.000000596099
  0
LINE
  5
24D
100
AcDbEntity
  8
0
  6
CONTINUOUS
 62
           3
100
AcDbLine
 10
5273.149996792477
 20
1550.000000744965
 11
5275.149996654579
 21
1550.000000744965
  0
LINE
  5
24C
100
AcDbEntity
  8
0
  6
CONTINUOUS
 62
           3
100
AcDbLine
 10
5275.149996654579
 20
1548.799999058068
 11
5273.149996792477
 21
1548.799999058068
  0
LINE
  5
24B
100
AcDbEntity
  8
0
  6
CONTINUOUS
 62
           3
100
AcDbLine
 10
5275.149996654579
 20
1550.000000744965
 11
5275.149996654579
 21
1548.799999058068
  0
LINE
  5
24A
100
AcDbEntity
  8
0
  6
CONTINUOUS
 62
           3
100
AcDbLine
 10
5286.399997101566
 20
1391.199998557595
 11
5298.399996274755
 21
1391.199998557595
  0
LINE
  5
249
100
AcDbEntity
  8
0
  6
CONTINUOUS
 62
           3
100
AcDbLine
 10
5286.399997101566
 20
1390.000000596099
 11
5298.399996274755
 21
1390.000000596099
  0
LINE
  5
248
100
AcDbEntity
  8
0
  6
CONTINUOUS
 62
           3
100
AcDbLine
 10
5298.399996274755
 20
1391.199998557595
 11
5298.399996274755
 21
1390.000000596099
  0
LINE
  5
247
100
AcDbEntity
  8
0
  6
CONTINUOUS
 62
           3
100
AcDbLine
 10
5248.399997392193
 20
1391.199998557595
 11
5258.399997168589
 21
1391.199998557595
  0
LINE
  5
246
100
AcDbEntity
  8
0
  6
CONTINUOUS
 62
           3
100
AcDbLine
 10
5248.399997392193
 20
1390.000000596099
 11
5258.399997168589
 21
1390.000000596099
  0
LINE
  5
245
100
AcDbEntity
  8
0
  6
CONTINUOUS
 62
           3
100
AcDbLine
 10
5248.399997392193
 20
1391.199998557595
 11
5248.399997392193
 21
1390.000000596099
  0
LINE
  5
244
100
AcDbEntity
  8
0
  6
CONTINUOUS
 62
           3
100
AcDbLine
 10
5281.649996788766
 20
1550.000000744965
 11
5283.649996650868
 21
1550.000000744965
  0
LINE
  5
243
100
AcDbEntity
  8
0
  6
CONTINUOUS
 62
           3
100
AcDbLine
 10
5283.649996650868
 20
1548.799999058068
 11
5281.649996788766
 21
1548.799999058068
  0
LINE
  5
242
100
AcDbEntity
  8
0
  6
CONTINUOUS
 62
           3
100
AcDbLine
 10
5281.649996788766
 20
1548.799999058068
 11
5281.649996788766
 21
1550.000000744965
  0
LINE
  5
241
100
AcDbEntity
  8
0
  6
CONTINUOUS
 62
           3
100
AcDbLine
 10
5308.399996051146
 20
1550.000000744965
 11
5298.399996274755
 21
1550.000000744965
  0
LINE
  5
240
100
AcDbEntity
  8
0
  6
CONTINUOUS
 62
           3
100
AcDbLine
 10
5308.399996051146
 20
1548.799999058068
 11
5298.399996274755
 21
1548.799999058068
  0
LINE
  5
23F
100
AcDbEntity
  8
0
  6
CONTINUOUS
 62
           3
100
AcDbLine
 10
5308.399996051146
 20
1548.799999058068
 11
5308.399996051146
 21
1550.000000744965
  0
LINE
  5
23E
100
AcDbEntity
  8
0
  6
CONTINUOUS
 62
           3
100
AcDbLine
 10
5281.649996788766
 20
1391.199998557595
 11
5281.899996829766
 21
1391.199998557595
  0
LINE
  5
23D
100
AcDbEntity
  8
0
  6
CONTINUOUS
 62
           3
100
AcDbLine
 10
5281.649996788766
 20
1390.000000596099
 11
5281.649996788766
 21
1391.199998557595
  0
LINE
  5
23C
100
AcDbEntity
  8
0
  6
CONTINUOUS
 62
           3
100
AcDbLine
 10
5258.399997168589
 20
1391.199998557595
 11
5270.399996341777
 21
1391.199998557595
  0
LINE
  5
23B
100
AcDbEntity
  8
0
  6
CONTINUOUS
 62
           3
100
AcDbLine
 10
5258.399997168589
 20
1390.000000596099
 11
5270.399996341777
 21
1390.000000596099
  0
LINE
  5
23A
100
AcDbEntity
  8
0
  6
CONTINUOUS
 62
           3
100
AcDbLine
 10
5258.399997168589
 20
1391.199998557595
 11
5258.399997168589
 21
1390.000000596099
  0
LINE
  5
239
100
AcDbEntity
  8
0
  6
CONTINUOUS
 62
           3
100
AcDbLine
 10
5258.399997168589
 20
1550.000000744965
 11
5273.149996792477
 21
1550.000000744965
  0
LINE
  5
238
100
AcDbEntity
  8
0
  6
CONTINUOUS
 62
           3
100
AcDbLine
 10
5258.399997168589
 20
1548.799999058068
 11
5273.149996792477
 21
1548.799999058068
  0
LINE
  5
237
100
AcDbEntity
  8
0
  6
CONTINUOUS
 62
           3
100
AcDbLine
 10
5283.649996650868
 20
1550.000000744965
 11
5298.399996274755
 21
1550.000000744965
  0
LINE
  5
236
100
AcDbEntity
  8
0
  6
CONTINUOUS
 62
           3
100
AcDbLine
 10
5283.649996650868
 20
1548.799999058068
 11
5298.399996274755
 21
1548.799999058068
  0
LINE
  5
235
100
AcDbEntity
  8
0
  6
CONTINUOUS
 62
           3
100
AcDbLine
 10
5298.399996274755
 20
1548.799999058068
 11
5298.399996274755
 21
1550.000000744965
  0
LINE
  5
234
100
AcDbEntity
  8
0
  6
CONTINUOUS
 62
           3
100
AcDbLine
 10
5248.399997392193
 20
1548.799999058068
 11
5248.399997392193
 21
1550.000000744965
  0
LINE
  5
233
100
AcDbEntity
  8
0
  6
CONTINUOUS
 62
           3
100
AcDbLine
 10
5248.399997392193
 20
1548.799999058068
 11
5258.399997168589
 21
1548.799999058068
  0
LINE
  5
232
100
AcDbEntity
  8
0
  6
CONTINUOUS
 62
           3
100
AcDbLine
 10
5258.399997168589
 20
1548.799999058068
 11
5258.399997168589
 21
1550.000000744965
  0
LINE
  5
231
100
AcDbEntity
  8
0
  6
CONTINUOUS
 62
           3
100
AcDbLine
 10
5248.399997392193
 20
1550.000000744965
 11
5258.399997168589
 21
1550.000000744965
  0
LINE
  5
230
100
AcDbEntity
  8
0
  6
CONTINUOUS
 62
           3
100
AcDbLine
 10
5286.399997101566
 20
1389.200001954998
 11
5286.399997101566
 21
1388.276241719797
  0
LINE
  5
22F
100
AcDbEntity
  8
0
  6
CONTINUOUS
 62
           3
100
AcDbLine
 10
5270.399996341777
 20
1389.200001954998
 11
5270.399996341777
 21
1388.276241719797
  0
LINE
  5
22E
100
AcDbEntity
  8
0
  6
CONTINUOUS
 62
           3
100
AcDbLine
 10
5273.399996833477
 20
1388.276241719797
 11
5270.399996341777
 21
1388.276241719797
  0
LINE
  5
22D
100
AcDbEntity
  8
0
  6
CONTINUOUS
 62
           3
100
AcDbLine
 10
5286.399997101566
 20
1388.276241719797
 11
5283.399996609868
 21
1388.276241719797
  0
LINE
  5
22C
100
AcDbEntity
  8
0
  6
CONTINUOUS
 62
           3
100
AcDbLine
 10
5280.899996665765
 20
1384.199999272902
 11
5283.399996609915
 21
1384.199999272902
  0
LINE
  5
22B
100
AcDbEntity
  8
0
  6
CONTINUOUS
 62
           3
100
AcDbLine
 10
5273.399996833437
 20
1384.199999272902
 11
5275.899996777557
 21
1384.199999272902
  0
LINE
  5
22A
100
AcDbEntity
  8
0
  6
CONTINUOUS
 62
           3
100
AcDbLine
 10
5283.399996609868
 20
1384.646579623304
 11
5283.399996609868
 21
1389.100000262197
  0
LINE
  5
229
100
AcDbEntity
  8
0
  6
CONTINUOUS
 62
           3
100
AcDbLine
 10
5273.399996833477
 20
1384.646579623304
 11
5273.399996833477
 21
1389.100000262197
  0
LINE
  5
228
100
AcDbEntity
  8
0
  6
CONTINUOUS
 62
           3
100
AcDbLine
 10
5273.399996833477
 20
1384.646579623304
 11
5275.899996777557
 21
1384.199999272902
  0
LINE
  5
227
100
AcDbEntity
  8
0
  6
CONTINUOUS
 62
           3
100
AcDbLine
 10
5278.399996721678
 20
1384.646579623297
 11
5278.399996721678
 21
1389.100000262197
  0
LINE
  5
226
100
AcDbEntity
  8
0
  6
CONTINUOUS
 62
           3
100
AcDbLine
 10
5275.899996777557
 20
1384.199999272902
 11
5280.899996665765
 21
1384.199999272902
  0
LINE
  5
225
100
AcDbEntity
  8
0
  6
CONTINUOUS
 62
           3
100
AcDbLine
 10
5278.399996721678
 20
1384.646579623297
 11
5280.899996665765
 21
1384.199999272902
  0
LINE
  5
224
100
AcDbEntity
  8
0
  6
CONTINUOUS
 62
           3
100
AcDbLine
 10
5274.899996613579
 20
1389.200001954998
 11
5281.899996829766
 21
1389.200001954998
  0
LINE
  5
223
100
AcDbEntity
  8
0
  6
CONTINUOUS
 62
           3
100
AcDbLine
 10
5274.899996613579
 20
1390.000000596099
 11
5281.899996829766
 21
1390.000000596099
  0
LINE
  5
222
100
AcDbEntity
  8
0
  6
CONTINUOUS
 62
           3
100
AcDbLine
 10
5281.899996829766
 20
1393.990144133493
 11
5274.899996613579
 21
1393.990144133493
  0
LINE
  5
221
100
AcDbEntity
  8
0
  6
CONTINUOUS
 62
           3
100
AcDbLine
 10
5275.399996695579
 20
1392.246469855296
 11
5274.899996613579
 21
1392.246469855296
  0
LINE
  5
220
100
AcDbEntity
  8
0
  6
CONTINUOUS
 62
           3
100
AcDbLine
 10
5281.899996829766
 20
1392.246469855296
 11
5281.399996747766
 21
1392.246469855296
  0
LINE
  5
21F
100
AcDbEntity
  8
0
  6
CONTINUOUS
 62
           3
100
AcDbLine
 10
5286.399997101566
 20
1394.799999892895
 11
5286.399997101566
 21
1389.200001954998
  0
LINE
  5
21E
100
AcDbEntity
  8
0
  6
CONTINUOUS
 62
           3
100
AcDbLine
 10
5270.399996341777
 20
1394.799999892895
 11
5270.399996341777
 21
1389.200001954998
  0
LINE
  5
21D
100
AcDbEntity
  8
0
  6
CONTINUOUS
 62
           3
100
AcDbLine
 10
5274.899996613579
 20
1389.200001954998
 11
5274.899996613579
 21
1394.799999892895
  0
LINE
  5
21C
100
AcDbEntity
  8
0
  6
CONTINUOUS
 62
           3
100
AcDbLine
 10
5281.899996829766
 20
1394.799999892895
 11
5281.899996829766
 21
1389.200001954998
  0
LINE
  5
21B
100
AcDbEntity
  8
0
  6
CONTINUOUS
 62
           3
100
AcDbLine
 10
5274.899996613579
 20
1389.200001954998
 11
5270.399996341777
 21
1389.200001954998
  0
LINE
  5
21A
100
AcDbEntity
  8
0
  6
CONTINUOUS
 62
           3
100
AcDbLine
 10
5274.899996613579
 20
1394.792847335493
 11
5281.899996829766
 21
1394.792847335493
  0
LINE
  5
219
100
AcDbEntity
  8
0
  6
CONTINUOUS
 62
           3
100
AcDbLine
 10
5286.399997101566
 20
1389.200001954998
 11
5281.899996829766
 21
1389.200001954998
  0
LINE
  5
218
100
AcDbEntity
  8
0
  6
CONTINUOUS
 62
           3
100
AcDbLine
 10
5280.399996816565
 20
1638.422653078995
 11
5276.399996626778
 21
1638.422653078995
  0
LINE
  5
217
100
AcDbEntity
  8
0
  6
CONTINUOUS
 62
           3
100
AcDbLine
 10
5275.399996695579
 20
1637.422651052295
 11
5281.399996747766
 21
1637.422651052295
  0
LINE
  5
216
100
AcDbEntity
  8
0
  6
CONTINUOUS
 62
           3
100
AcDbLine
 10
5224.399995321016
 20
1665.000006556371
 11
5228.399995976713
 21
1665.000006556371
  0
LINE
  5
215
100
AcDbEntity
  8
0
  6
CONTINUOUS
 62
           3
100
AcDbLine
 10
5228.399995976713
 20
1665.000006556371
 11
5232.399996632415
 21
1665.000006556371
  0
LINE
  5
214
100
AcDbEntity
  8
0
  6
CONTINUOUS
 62
           3
100
AcDbLine
 10
5274.069869687349
 20
1367.599993944257
 11
5273.399996833477
 21
1367.599993944115
  0
LINE
  5
213
100
AcDbEntity
  8
0
  6
CONTINUOUS
 62
           3
100
AcDbLine
 10
5283.399996609868
 20
1367.599993944115
 11
5282.730123756007
 21
1367.599993944257
  0
LINE
  5
212
100
AcDbEntity
  8
0
  6
CONTINUOUS
 62
           3
100
AcDbLine
 10
5274.069869687349
 20
1372.600004077043
 11
5273.399996833477
 21
1372.600004077012
  0
LINE
  5
211
100
AcDbEntity
  8
0
  6
CONTINUOUS
 62
           3
100
AcDbLine
 10
5282.730123756007
 20
1367.599993944257
 11
5278.399996721678
 21
1367.599993944257
  0
LINE
  5
210
100
AcDbEntity
  8
0
  6
CONTINUOUS
 62
           3
100
AcDbLine
 10
5278.399996721678
 20
1367.599993944257
 11
5274.069869687349
 21
1367.599993944257
  0
LINE
  5
20F
100
AcDbEntity
  8
0
  6
CONTINUOUS
 62
           3
100
AcDbLine
 10
5272.626493853976
 20
1372.153416276111
 11
5272.626493853976
 21
1368.046581745313
  0
LINE
  5
20E
100
AcDbEntity
  8
0
  6
CONTINUOUS
 62
           3
100
AcDbLine
 10
5272.626493853976
 20
1368.046581745313
 11
5274.069869687349
 21
1367.599993944257
  0
LINE
  5
20D
100
AcDbEntity
  8
0
  6
CONTINUOUS
 62
           3
100
AcDbLine
 10
5275.513245287847
 20
1372.153416276064
 11
5274.069869687349
 21
1372.600004077043
  0
LINE
  5
20C
100
AcDbEntity
  8
0
  6
CONTINUOUS
 62
           3
100
AcDbLine
 10
5281.286748155366
 20
1368.046581745313
 11
5282.730123756007
 21
1367.599993944257
  0
LINE
  5
20B
100
AcDbEntity
  8
0
  6
CONTINUOUS
 62
           3
100
AcDbLine
 10
5284.173499589369
 20
1372.153416276111
 11
5284.173499589369
 21
1368.046581745313
  0
LINE
  5
20A
100
AcDbEntity
  8
0
  6
CONTINUOUS
 62
           3
100
AcDbLine
 10
5284.173499589369
 20
1372.153416276111
 11
5282.730123756007
 21
1372.600004077043
  0
LINE
  5
209
100
AcDbEntity
  8
0
  6
CONTINUOUS
 62
           3
100
AcDbLine
 10
5275.513245287847
 20
1372.153416276064
 11
5275.513245287847
 21
1368.046581745237
  0
LINE
  5
208
100
AcDbEntity
  8
0
  6
CONTINUOUS
 62
           3
100
AcDbLine
 10
5281.286748155505
 20
1372.153416276064
 11
5281.286748155366
 21
1368.046581745313
  0
LINE
  5
207
100
AcDbEntity
  8
0
  6
CONTINUOUS
 62
           3
100
AcDbLine
 10
5283.399996609868
 20
1372.600004077012
 11
5282.730123756007
 21
1372.600004077043
  0
LINE
  5
206
100
AcDbEntity
  8
0
  6
CONTINUOUS
 62
           3
100
AcDbLine
 10
5283.399996609868
 20
1377.599999308604
 11
5282.730123756007
 21
1377.599999308668
  0
LINE
  5
205
100
AcDbEntity
  8
0
  6
CONTINUOUS
 62
           3
100
AcDbLine
 10
5274.069869687349
 20
1377.599999308668
 11
5273.399996833477
 21
1377.599999308604
  0
LINE
  5
204
100
AcDbEntity
  8
0
  6
CONTINUOUS
 62
           3
100
AcDbLine
 10
5278.399996721678
 20
1372.600004077043
 11
5274.069869687349
 21
1372.600004077043
  0
LINE
  5
203
100
AcDbEntity
  8
0
  6
CONTINUOUS
 62
           3
100
AcDbLine
 10
5282.730123756007
 20
1372.600004077043
 11
5278.399996721678
 21
1372.600004077043
  0
LINE
  5
202
100
AcDbEntity
  8
0
  6
CONTINUOUS
 62
           3
100
AcDbLine
 10
5278.399996721678
 20
1377.599999308668
 11
5274.069869687349
 21
1377.599999308668
  0
LINE
  5
201
100
AcDbEntity
  8
0
  6
CONTINUOUS
 62
           3
100
AcDbLine
 10
5272.626493853976
 20
1377.153418958205
 11
5272.626493853976
 21
1373.046576976913
  0
LINE
  5
200
100
AcDbEntity
  8
0
  6
CONTINUOUS
 62
           3
100
AcDbLine
 10
5272.626493853976
 20
1373.046576976913
 11
5274.069869687349
 21
1372.600004077043
  0
LINE
  5
1FF
100
AcDbEntity
  8
0
  6
CONTINUOUS
 62
           3
100
AcDbLine
 10
5275.513245287847
 20
1377.153418958269
 11
5274.069869687349
 21
1377.599999308668
  0
LINE
  5
1FE
100
AcDbEntity
  8
0
  6
CONTINUOUS
 62
           3
100
AcDbLine
 10
5282.730123756007
 20
1377.599999308668
 11
5278.399996721678
 21
1377.599999308668
  0
LINE
  5
1FD
100
AcDbEntity
  8
0
  6
CONTINUOUS
 62
           3
100
AcDbLine
 10
5281.286748155366
 20
1373.046576976913
 11
5282.730123756007
 21
1372.600004077043
  0
LINE
  5
1FC
100
AcDbEntity
  8
0
  6
CONTINUOUS
 62
           3
100
AcDbLine
 10
5284.173499589369
 20
1377.153418958205
 11
5284.173499589369
 21
1373.046576976913
  0
LINE
  5
1FB
100
AcDbEntity
  8
0
  6
CONTINUOUS
 62
           3
100
AcDbLine
 10
5284.173499589369
 20
1377.153418958205
 11
5282.730123756007
 21
1377.599999308668
  0
LINE
  5
1FA
100
AcDbEntity
  8
0
  6
CONTINUOUS
 62
           3
100
AcDbLine
 10
5275.513245287847
 20
1377.153418958269
 11
5275.513245287847
 21
1373.046576976862
  0
LINE
  5
1F9
100
AcDbEntity
  8
0
  6
CONTINUOUS
 62
           3
100
AcDbLine
 10
5281.286748155505
 20
1377.153418958269
 11
5281.286748155366
 21
1373.046576976913
  0
LINE
  5
1F8
100
AcDbEntity
  8
0
  6
CONTINUOUS
 62
           3
100
AcDbLine
 10
5272.626493853976
 20
1364.553421735916
 11
5272.626493853976
 21
1360.446587205122
  0
LINE
  5
1F7
100
AcDbEntity
  8
0
  6
CONTINUOUS
 62
           3
100
AcDbLine
 10
5272.626493853976
 20
1360.446587205122
 11
5274.069869687349
 21
1359.99999940405
  0
LINE
  5
1F6
100
AcDbEntity
  8
0
  6
CONTINUOUS
 62
           3
100
AcDbLine
 10
5275.513245287847
 20
1364.55342173586
 11
5274.069869687349
 21
1364.999994635675
  0
LINE
  5
1F5
100
AcDbEntity
  8
0
  6
CONTINUOUS
 62
           3
100
AcDbLine
 10
5281.286748155366
 20
1360.446587205122
 11
5282.730123755967
 21
1359.999999403923
  0
LINE
  5
1F4
100
AcDbEntity
  8
0
  6
CONTINUOUS
 62
           3
100
AcDbLine
 10
5284.173499589369
 20
1364.553421735916
 11
5284.173499589369
 21
1360.446587205122
  0
LINE
  5
1F3
100
AcDbEntity
  8
0
  6
CONTINUOUS
 62
           3
100
AcDbLine
 10
5284.173499589369
 20
1364.553421735916
 11
5282.730123756007
 21
1364.999994635675
  0
LINE
  5
1F2
100
AcDbEntity
  8
0
  6
CONTINUOUS
 62
           3
100
AcDbLine
 10
5275.513245287847
 20
1364.55342173586
 11
5275.513245287847
 21
1360.446587205026
  0
LINE
  5
1F1
100
AcDbEntity
  8
0
  6
CONTINUOUS
 62
           3
100
AcDbLine
 10
5281.286748155505
 20
1364.55342173586
 11
5281.286748155366
 21
1360.446587205122
  0
LINE
  5
1F0
100
AcDbEntity
  8
0
  6
CONTINUOUS
 62
           3
100
AcDbLine
 10
5273.399996833477
 20
1359.999999403923
 11
5274.069869687349
 21
1359.99999940405
  0
LINE
  5
1EF
100
AcDbEntity
  8
0
  6
CONTINUOUS
 62
           3
100
AcDbLine
 10
5283.399996609868
 20
1355.000004172323
 11
5282.730123756007
 21
1355.000004172422
  0
LINE
  5
1EE
100
AcDbEntity
  8
0
  6
CONTINUOUS
 62
           3
100
AcDbLine
 10
5273.399996833477
 20
1355.000004172323
 11
5274.069869687349
 21
1355.000004172422
  0
LINE
  5
1ED
100
AcDbEntity
  8
0
  6
CONTINUOUS
 62
           3
100
AcDbLine
 10
5284.173499589369
 20
1355.446577072225
 11
5282.730123756007
 21
1355.000004172422
  0
LINE
  5
1EC
100
AcDbEntity
  8
0
  6
CONTINUOUS
 62
           3
100
AcDbLine
 10
5284.173499589369
 20
1355.446577072225
 11
5284.173499589369
 21
1359.553411603023
  0
LINE
  5
1EB
100
AcDbEntity
  8
0
  6
CONTINUOUS
 62
           3
100
AcDbLine
 10
5272.626493853976
 20
1355.446577072225
 11
5272.626493853976
 21
1359.553411603023
  0
LINE
  5
1EA
100
AcDbEntity
  8
0
  6
CONTINUOUS
 62
           3
100
AcDbLine
 10
5278.399996721678
 20
1359.99999940405
 11
5282.730123755967
 21
1359.999999403923
  0
LINE
  5
1E9
100
AcDbEntity
  8
0
  6
CONTINUOUS
 62
           3
100
AcDbLine
 10
5281.286748155505
 20
1359.55341160307
 11
5282.730123755967
 21
1359.999999403923
  0
LINE
  5
1E8
100
AcDbEntity
  8
0
  6
CONTINUOUS
 62
           3
100
AcDbLine
 10
5274.069869687349
 20
1359.99999940405
 11
5278.399996721678
 21
1359.99999940405
  0
LINE
  5
1E7
100
AcDbEntity
  8
0
  6
CONTINUOUS
 62
           3
100
AcDbLine
 10
5274.069869687349
 20
1355.000004172422
 11
5278.399996721678
 21
1355.000004172323
  0
LINE
  5
1E6
100
AcDbEntity
  8
0
  6
CONTINUOUS
 62
           3
100
AcDbLine
 10
5278.399996721678
 20
1355.000004172323
 11
5282.730123756007
 21
1355.000004172422
  0
LINE
  5
1E5
100
AcDbEntity
  8
0
  6
CONTINUOUS
 62
           3
100
AcDbLine
 10
5275.513245287973
 20
1359.553411603023
 11
5278.399996721678
 21
1359.99999940405
  0
LINE
  5
1E4
100
AcDbEntity
  8
0
  6
CONTINUOUS
 62
           3
100
AcDbLine
 10
5275.513245287847
 20
1355.446577072244
 11
5275.513245287973
 21
1359.553411603023
  0
LINE
  5
1E3
100
AcDbEntity
  8
0
  6
CONTINUOUS
 62
           3
100
AcDbLine
 10
5281.286748155366
 20
1355.446577072225
 11
5278.399996721678
 21
1355.000004172323
  0
LINE
  5
1E2
100
AcDbEntity
  8
0
  6
CONTINUOUS
 62
           3
100
AcDbLine
 10
5281.286748155366
 20
1355.446577072225
 11
5281.286748155505
 21
1359.55341160307
  0
LINE
  5
1E1
100
AcDbEntity
  8
0
  6
CONTINUOUS
 62
           3
100
AcDbLine
 10
5335.399996751326
 20
1393.799997866196
 11
5335.399996751326
 21
1543.80000010137
  0
LINE
  5
1E0
100
AcDbEntity
  8
0
  6
CONTINUOUS
 62
           3
100
AcDbLine
 10
5224.399995321016
 20
1543.80000010137
 11
5221.399996692013
 21
1543.80000010137
  0
LINE
  5
1DF
100
AcDbEntity
  8
0
  6
CONTINUOUS
 62
           3
100
AcDbLine
 10
5275.399996695579
 20
1543.80000010137
 11
5232.399996632415
 21
1543.80000010137
  0
LINE
  5
1DE
100
AcDbEntity
  8
0
  6
CONTINUOUS
 62
           3
100
AcDbLine
 10
5324.399996810935
 20
1543.80000010137
 11
5281.399996747766
 21
1543.80000010137
  0
LINE
  5
1DD
100
AcDbEntity
  8
0
  6
CONTINUOUS
 62
           3
100
AcDbLine
 10
5335.399996751326
 20
1543.80000010137
 11
5332.399998122329
 21
1543.80000010137
  0
LINE
  5
1DC
100
AcDbEntity
  8
0
  6
CONTINUOUS
 62
           3
100
AcDbLine
 10
5221.399996692013
 20
1543.80000010137
 11
5221.399996692013
 21
1393.799997866196
  0
LINE
  5
1DB
100
AcDbEntity
  8
0
  6
CONTINUOUS
 62
           3
100
AcDbLine
 10
5332.399998122329
 20
1393.799997866196
 11
5335.399996751326
 21
1393.799997866196
  0
LINE
  5
1DA
100
AcDbEntity
  8
0
  6
CONTINUOUS
 62
           3
100
AcDbLine
 10
5286.399997101566
 20
1393.799997866196
 11
5324.399996810935
 21
1393.799997866196
  0
LINE
  5
1D9
100
AcDbEntity
  8
0
  6
CONTINUOUS
 62
           3
100
AcDbLine
 10
5232.399996632415
 20
1393.799997866196
 11
5270.399996341777
 21
1393.799997866196
  0
LINE
  5
1D8
100
AcDbEntity
  8
0
  6
CONTINUOUS
 62
           3
100
AcDbLine
 10
5221.399996692013
 20
1393.799997866196
 11
5224.399995321016
 21
1393.799997866196
  0
LINE
  5
1D7
100
AcDbEntity
  8
0
  6
CONTINUOUS
 62
           3
100
AcDbLine
 10
5271.926494029874
 20
1389.099999999997
 11
5284.873499413465
 21
1389.099999999997
  0
LINE
  5
1D6
100
AcDbEntity
  8
0
  6
CONTINUOUS
 62
           3
100
AcDbLine
 10
5286.399997101566
 20
1394.799999892895
 11
5281.899996829766
 21
1394.799999892895
  0
LINE
  5
1D5
100
AcDbEntity
  8
0
  6
CONTINUOUS
 62
           3
100
AcDbLine
 10
5274.899996613579
 20
1394.799999892895
 11
5270.399996341777
 21
1394.799999892895
  0
LINE
  5
1D4
100
AcDbEntity
  8
0
  6
CONTINUOUS
 62
           3
100
AcDbLine
 10
5276.399996626778
 20
1638.422653078995
 11
5275.399996695579
 21
1637.422651052295
  0
LINE
  5
1D3
100
AcDbEntity
  8
0
  6
CONTINUOUS
 62
           3
100
AcDbLine
 10
5281.399996747766
 20
1637.422651052295
 11
5280.399996816565
 21
1638.422653078995
  0
LINE
  5
1D2
100
AcDbEntity
  8
0
  6
CONTINUOUS
 62
           3
100
AcDbLine
 10
5275.399996695579
 20
1367.599993944115
 11
5275.399996695579
 21
1366.600006818715
  0
LINE
  5
1D1
100
AcDbEntity
  8
0
  6
CONTINUOUS
 62
           3
100
AcDbLine
 10
5275.399996695579
 20
1384.199999272902
 11
5275.399996695579
 21
1377.599999308604
  0
LINE
  5
1D0
100
AcDbEntity
  8
0
  6
CONTINUOUS
 62
           3
100
AcDbLine
 10
5275.399996695579
 20
1392.957426607596
 11
5275.399996695579
 21
1390.000000596099
  0
LINE
  5
1CF
100
AcDbEntity
  8
0
  6
CONTINUOUS
 62
           3
100
AcDbLine
 10
5275.399996695579
 20
1633.399993180998
 11
5275.399996695579
 21
1394.792847335493
  0
LINE
  5
1CE
100
AcDbEntity
  8
0
  6
CONTINUOUS
 62
           3
100
AcDbLine
 10
5275.399996695579
 20
1637.422651052295
 11
5275.399996695579
 21
1635.000005364198
  0
LINE
  5
1CD
100
AcDbEntity
  8
0
  6
CONTINUOUS
 62
           3
100
AcDbLine
 10
5281.399996747766
 20
1635.000005364198
 11
5281.399996747766
 21
1637.422651052295
  0
LINE
  5
1CC
100
AcDbEntity
  8
0
  6
CONTINUOUS
 62
           3
100
AcDbLine
 10
5281.399996747766
 20
1394.792847335493
 11
5281.399996747766
 21
1633.399993180998
  0
LINE
  5
1CB
100
AcDbEntity
  8
0
  6
CONTINUOUS
 62
           3
100
AcDbLine
 10
5281.399996747766
 20
1390.000000596099
 11
5281.399996747766
 21
1392.957426607596
  0
LINE
  5
1CA
100
AcDbEntity
  8
0
  6
CONTINUOUS
 62
           3
100
AcDbLine
 10
5281.399996747766
 20
1377.599999308604
 11
5281.399996747766
 21
1384.199999272902
  0
LINE
  5
1C9
100
AcDbEntity
  8
0
  6
CONTINUOUS
 62
           3
100
AcDbLine
 10
5281.399996747766
 20
1366.600006818715
 11
5281.399996747766
 21
1367.599993944115
  0
LINE
  5
1C8
100
AcDbEntity
  8
0
  6
CONTINUOUS
 62
           3
100
AcDbLine
 10
5232.399996632415
 20
1635.000005364198
 11
5232.399996632415
 21
1665.000006556371
  0
LINE
  5
1C7
100
AcDbEntity
  8
0
  6
CONTINUOUS
 62
           3
100
AcDbLine
 10
5232.399996632415
 20
1550.000000744965
 11
5232.399996632415
 21
1633.399993180998
  0
LINE
  5
1C6
100
AcDbEntity
  8
0
  6
CONTINUOUS
 62
           3
100
AcDbLine
 10
5232.399996632415
 20
1391.199998557595
 11
5232.399996632415
 21
1548.799999058068
  0
LINE
  5
1C5
100
AcDbEntity
  8
0
  6
CONTINUOUS
 62
           3
100
AcDbLine
 10
5232.399996632415
 20
1366.600006818715
 11
5232.399996632415
 21
1390.000000596099
  0
LINE
  5
1C4
100
AcDbEntity
  8
0
  6
CONTINUOUS
 62
           3
100
AcDbLine
 10
5224.399995321016
 20
1364.999994635817
 11
5224.399995321016
 21
1314.999997615958
  0
LINE
  5
1C3
100
AcDbEntity
  8
0
  6
CONTINUOUS
 62
           3
100
AcDbLine
 10
5224.399995321016
 20
1390.000000596099
 11
5224.399995321016
 21
1366.600006818715
  0
LINE
  5
1C2
100
AcDbEntity
  8
0
  6
CONTINUOUS
 62
           3
100
AcDbLine
 10
5224.399995321016
 20
1548.799999058068
 11
5224.399995321016
 21
1391.199998557595
  0
LINE
  5
1C1
100
AcDbEntity
  8
0
  6
CONTINUOUS
 62
           3
100
AcDbLine
 10
5224.399995321016
 20
1633.399993180998
 11
5224.399995321016
 21
1550.000000744965
  0
LINE
  5
1C0
100
AcDbEntity
  8
0
  6
CONTINUOUS
 62
           3
100
AcDbLine
 10
5224.399995321016
 20
1665.000006556371
 11
5224.399995321016
 21
1635.000005364198
  0
LINE
  5
1BF
100
AcDbEntity
  8
0
  6
CONTINUOUS
 62
           3
100
AcDbLine
 10
5332.399998122329
 20
1550.000000744965
 11
5332.399998122329
 21
1639.110868296102
  0
LINE
  5
1BE
100
AcDbEntity
  8
0
  6
CONTINUOUS
 62
           3
100
AcDbLine
 10
5332.399998122329
 20
1391.199998557595
 11
5332.399998122329
 21
1548.799999058068
  0
LINE
  5
1BD
100
AcDbEntity
  8
0
  6
CONTINUOUS
 62
           3
100
AcDbLine
 10
5332.399998122329
 20
1366.600006818715
 11
5332.399998122329
 21
1390.000000596099
  0
LINE
  5
1BC
100
AcDbEntity
  8
0
  6
CONTINUOUS
 62
           3
100
AcDbLine
 10
5332.399998122329
 20
1314.999997615958
 11
5332.399998122329
 21
1364.999994635817
  0
LINE
  5
1BB
100
AcDbEntity
  8
0
  6
CONTINUOUS
 62
           3
100
AcDbLine
 10
5324.399996810935
 20
1364.999994635817
 11
5324.399996810935
 21
1314.999997615958
  0
LINE
  5
1BA
100
AcDbEntity
  8
0
  6
CONTINUOUS
 62
           3
100
AcDbLine
 10
5324.399996810935
 20
1390.000000596099
 11
5324.399996810935
 21
1366.600006818715
  0
LINE
  5
1B9
100
AcDbEntity
  8
0
  6
CONTINUOUS
 62
           3
100
AcDbLine
 10
5324.399996810935
 20
1548.799999058068
 11
5324.399996810935
 21
1391.199998557595
  0
LINE
  5
1B8
100
AcDbEntity
  8
0
  6
CONTINUOUS
 62
           3
100
AcDbLine
 10
5324.399996810935
 20
1639.1108682961
 11
5324.399996810935
 21
1550.000000744965
  0
LINE
  5
1B7
100
AcDbEntity
  8
0
  6
CONTINUOUS
 62
           3
100
AcDbLine
 10
5272.626493853976
 20
1368.046581745313
 11
5273.399996833477
 21
1367.599993944115
  0
LINE
  5
1B6
100
AcDbEntity
  8
0
  6
CONTINUOUS
 62
           3
100
AcDbLine
 10
5283.399996609868
 20
1367.599993944115
 11
5284.173499589369
 21
1368.046581745313
  0
LINE
  5
1B5
100
AcDbEntity
  8
0
  6
CONTINUOUS
 62
           3
100
AcDbLine
 10
5284.173499589369
 20
1372.153416276111
 11
5283.399996609868
 21
1372.600004077012
  0
LINE
  5
1B4
100
AcDbEntity
  8
0
  6
CONTINUOUS
 62
           3
100
AcDbLine
 10
5273.399996833477
 20
1372.600004077012
 11
5272.626493853976
 21
1372.153416276111
  0
LINE
  5
1B3
100
AcDbEntity
  8
0
  6
CONTINUOUS
 62
           3
100
AcDbLine
 10
5272.626493853976
 20
1373.046576976913
 11
5273.399996833477
 21
1372.600004077012
  0
LINE
  5
1B2
100
AcDbEntity
  8
0
  6
CONTINUOUS
 62
           3
100
AcDbLine
 10
5283.399996609868
 20
1372.600004077012
 11
5284.173499589369
 21
1373.046576976913
  0
LINE
  5
1B1
100
AcDbEntity
  8
0
  6
CONTINUOUS
 62
           3
100
AcDbLine
 10
5284.173499589369
 20
1377.153418958205
 11
5283.399996609868
 21
1377.599999308604
  0
LINE
  5
1B0
100
AcDbEntity
  8
0
  6
CONTINUOUS
 62
           3
100
AcDbLine
 10
5273.399996833477
 20
1377.599999308604
 11
5272.626493853976
 21
1377.153418958205
  0
LINE
  5
1AF
100
AcDbEntity
  8
0
  6
CONTINUOUS
 62
           3
100
AcDbLine
 10
5272.626493853976
 20
1360.446587205122
 11
5273.399996833477
 21
1359.999999403923
  0
LINE
  5
1AE
100
AcDbEntity
  8
0
  6
CONTINUOUS
 62
           3
100
AcDbLine
 10
5283.399996609868
 20
1359.999999403923
 11
5284.173499589369
 21
1360.446587205122
  0
LINE
  5
1AD
100
AcDbEntity
  8
0
  6
CONTINUOUS
 62
           3
100
AcDbLine
 10
5284.173499589369
 20
1364.553421735916
 11
5283.399996609868
 21
1364.999994635817
  0
LINE
  5
1AC
100
AcDbEntity
  8
0
  6
CONTINUOUS
 62
           3
100
AcDbLine
 10
5273.399996833477
 20
1364.999994635817
 11
5272.626493853976
 21
1364.553421735916
  0
LINE
  5
1AB
100
AcDbEntity
  8
0
  6
CONTINUOUS
 62
           3
100
AcDbLine
 10
5284.173499589369
 20
1359.553411603023
 11
5283.399996609868
 21
1359.999999403923
  0
LINE
  5
1AA
100
AcDbEntity
  8
0
  6
CONTINUOUS
 62
           3
100
AcDbLine
 10
5273.399996833477
 20
1359.999999403923
 11
5272.626493853976
 21
1359.553411603023
  0
LINE
  5
1A9
100
AcDbEntity
  8
0
  6
CONTINUOUS
 62
           3
100
AcDbLine
 10
5283.399996609868
 20
1355.000004172323
 11
5284.173499589369
 21
1355.446577072225
  0
LINE
  5
1A8
100
AcDbEntity
  8
0
  6
CONTINUOUS
 62
           3
100
AcDbLine
 10
5272.626493853976
 20
1355.446577072225
 11
5273.399996833477
 21
1355.000004172323
  0
LINE
  5
1A7
100
AcDbEntity
  8
0
  6
CONTINUOUS
 62
           3
100
AcDbLine
 10
5232.399996632415
 20
1314.999997615958
 11
5232.399996632415
 21
1364.999994635817
  0
LINE
  5
1A6
100
AcDbEntity
  8
1
  6
CONTINUOUS
 62
           4
100
AcDbLine
 10
134.432661752784
 20
6204.730352175891
 11
117.908702762045
 21
6204.730352175891
  0
LINE
  5
1A5
100
AcDbEntity
  8
1
  6
CONTINUOUS
 62
           4
100
AcDbLine
 10
134.432661752784
 20
6319.730352175891
 11
117.908702762045
 21
6319.730352175891
  0
LINE
  5
1A4
100
AcDbEntity
  8
1
  6
CONTINUOUS
 62
           7
100
AcDbLine
 10
185.000000000001
 20
6198.730352175891
 11
144.824966598197
 21
6198.730352175891
  0
LINE
  5
1A3
100
AcDbEntity
  8
1
  6
CONTINUOUS
 62
           7
100
AcDbLine
 10
144.824966598197
 20
6325.730352175891
 11
185.000000000001
 21
6325.730352175891
  0
LINE
  5
1A2
100
AcDbEntity
  8
1
  6
CONTINUOUS
 62
           7
100
AcDbLine
 10
132.824966598197
 20
6210.730352175891
 11
132.824966598197
 21
6313.730352175891
  0
LINE
  5
1A1
100
AcDbEntity
  8
1
  6
CONTINUOUS
 62
           7
100
AcDbLine
 10
197.000000000001
 20
6313.730352175891
 11
197.000000000001
 21
6210.730352175891
  0
LINE
  5
1A0
100
AcDbEntity
  8
1
  6
DOT_CENTER
 62
           2
100
AcDbLine
 10
-365.000000000001
 20
6905.257646007505
 11
-365.000000000001
 21
6458.925758586007
  0
LINE
  5
19F
100
AcDbEntity
  8
1
  6
CONTINUOUS
 62
           7
100
AcDbLine
 10
226.0
 20
6036.23035217589
 11
226.0
 21
6522.23035217589
  0
LINE
  5
19E
100
AcDbEntity
  8
1
  6
CONTINUOUS
 62
           7
100
AcDbLine
 10
-226.0
 20
6036.23035217589
 11
260.000000000001
 21
6036.23035217589
  0
LINE
  5
19D
100
AcDbEntity
  8
1
  6
CONTINUOUS
 62
           7
100
AcDbLine
 10
226.0
 20
6488.23035217589
 11
-260.0
 21
6488.23035217589
  0
LINE
  5
19C
100
AcDbEntity
  8
1
  6
CONTINUOUS
 62
           7
100
AcDbLine
 10
-226.0
 20
6488.23035217589
 11
-226.0
 21
6002.23035217589
  0
LINE
  5
19B
100
AcDbEntity
  8
0
  6
CONTINUOUS
 62
           7
100
AcDbLine
 10
30.724756890081
 20
6709.013512191394
 11
-0.000000000002
 21
6762.23035217589
  0
LINE
  5
19A
100
AcDbEntity
  8
0
  6
CONTINUOUS
 62
           7
100
AcDbLine
 10
-730.000000000001
 20
6762.230352175891
 11
-738.000000000002
 21
6752.23035217589
  0
LINE
  5
199
100
AcDbEntity
  8
0
  6
CONTINUOUS
 62
           7
100
AcDbLine
 10
-738.000000000002
 20
6752.23035217589
 11
-738.000000000002
 21
6302.23035217589
  0
LINE
  5
198
100
AcDbEntity
  8
0
  6
CONTINUOUS
 62
           7
100
AcDbLine
 10
-730.000000000001
 20
6772.23035217589
 11
-730.000000000001
 21
6762.230352175891
  0
LINE
  5
197
100
AcDbEntity
  8
1
  6
CONTINUOUS
 62
           7
100
AcDbLine
 10
-0.000000000002
 20
6762.23035217589
 11
-0.000000000002
 21
6772.23035217589
  0
LINE
  5
196
100
AcDbEntity
  8
0
  6
CONTINUOUS
 62
           7
100
AcDbLine
 10
-0.000000000002
 20
6762.23035217589
 11
-0.000000000002
 21
6772.23035217589
  0
LINE
  5
195
100
AcDbEntity
  8
1
  6
CONTINUOUS
 62
           7
100
AcDbLine
 10
-729.116882454317
 20
6263.113469721577
 11
-220.000000000002
 21
6772.23035217589
  0
LINE
  5
194
100
AcDbEntity
  8
1
  6
CONTINUOUS
 62
           7
100
AcDbLine
 10
495.999999999998
 20
6370.230511948777
 11
181.999999999998
 21
6684.23035217589
  0
LINE
  5
193
100
AcDbEntity
  8
1
  6
CONTINUOUS
 62
           7
100
AcDbLine
 10
-729.116882454317
 20
6263.113469721577
 11
-63.022294576589
 21
5597.018881843847
  0
LINE
  5
192
100
AcDbEntity
  8
1
  6
CONTINUOUS
 62
           7
100
AcDbLine
 10
527.411867714179
 20
6187.453044134614
 11
-63.022294576589
 21
5597.018881843847
  0
LINE
  5
191
100
AcDbEntity
  8
1
  6
CONTINUOUS
 62
           7
100
AcDbLine
 10
-769.000000000002
 20
6847.23035217589
 11
-764.000000000001
 21
6852.230352175888
  0
LINE
  5
190
100
AcDbEntity
  8
1
  6
CONTINUOUS
 62
           7
100
AcDbLine
 10
40.999999999998
 20
6847.23035217589
 11
35.999999999998
 21
6852.23035217589
  0
LINE
  5
18F
100
AcDbEntity
  8
1
  6
CONTINUOUS
 62
           7
100
AcDbLine
 10
-764.000000000001
 20
6852.230352175888
 11
35.999999999998
 21
6852.23035217589
  0
LINE
  5
18E
100
AcDbEntity
  8
1
  6
CONTINUOUS
 62
           7
100
AcDbLine
 10
-769.000000000002
 20
6812.23035217589
 11
-769.000000000002
 21
6847.23035217589
  0
LINE
  5
18D
100
AcDbEntity
  8
1
  6
CONTINUOUS
 62
           7
100
AcDbLine
 10
40.999999999998
 20
6847.23035217589
 11
40.999999999998
 21
6812.23035217589
  0
LINE
  5
18C
100
AcDbEntity
  8
1
  6
CONTINUOUS
 62
           4
100
AcDbLine
 10
-769.000000000001
 20
6816.730352175888
 11
40.999999999998
 21
6816.73035217589
  0
LINE
  5
18B
100
AcDbEntity
  8
1
  6
CONTINUOUS
 62
           4
100
AcDbLine
 10
40.999999999998
 20
6807.73035217589
 11
-769.000000000001
 21
6807.73035217589
  0
LINE
  5
18A
100
AcDbEntity
  8
1
  6
CONTINUOUS
 62
           7
100
AcDbLine
 10
40.999999999998
 20
6812.23035217589
 11
40.999999999998
 21
6777.23035217589
  0
LINE
  5
189
100
AcDbEntity
  8
1
  6
CONTINUOUS
 62
           7
100
AcDbLine
 10
-769.000000000002
 20
6777.23035217589
 11
-769.000000000002
 21
6812.23035217589
  0
LINE
  5
188
100
AcDbEntity
  8
1
  6
CONTINUOUS
 62
           7
100
AcDbLine
 10
35.999999999998
 20
6772.23035217589
 11
-764.000000000001
 21
6772.23035217589
  0
LINE
  5
187
100
AcDbEntity
  8
1
  6
CONTINUOUS
 62
           7
100
AcDbLine
 10
35.999999999998
 20
6772.23035217589
 11
40.999999999998
 21
6777.23035217589
  0
LINE
  5
186
100
AcDbEntity
  8
1
  6
CONTINUOUS
 62
           7
100
AcDbLine
 10
-764.000000000001
 20
6772.23035217589
 11
-769.000000000002
 21
6777.23035217589
  0
LINE
  5
185
100
AcDbEntity
  8
1
  6
CONTINUOUS
 62
           7
100
AcDbLine
 10
-769.000000000002
 20
6812.23035217589
 11
40.999999999998
 21
6812.23035217589
  0
LINE
  5
184
100
AcDbEntity
  8
1
  6
CONTINUOUS
 62
           7
100
AcDbLine
 10
197.000000000002
 20
2887.499999999996
 11
197.000000000002
 21
2811.499999999996
  0
LINE
  5
183
100
AcDbEntity
  8
1
  6
CONTINUOUS
 62
           7
100
AcDbLine
 10
122.496396799999
 20
2811.499999999996
 11
122.496396799999
 21
2887.499999999996
  0
LINE
  5
182
100
AcDbEntity
  8
1
  6
CONTINUOUS
 62
           7
100
AcDbLine
 10
134.4963968
 20
2899.499999999996
 11
185.000000000002
 21
2899.499999999996
  0
LINE
  5
181
100
AcDbEntity
  8
1
  6
CONTINUOUS
 62
           7
100
AcDbLine
 10
185.000000000002
 20
2799.499999999996
 11
134.4963968
 21
2799.499999999996
  0
LINE
  5
180
100
AcDbEntity
  8
7
  6
CONTINUOUS
 62
           7
100
AcDbLine
 10
-93.3834176
 20
3130.483396000001
 11
-117.9774116
 21
3112.3957372
  0
LINE
  5
17F
100
AcDbEntity
  8
7
  6
CONTINUOUS
 62
           7
100
AcDbLine
 10
-125.0
 20
3040.186819199998
 11
-125.0
 21
3073.231865248044
  0
LINE
  5
17E
100
AcDbEntity
  8
7
  6
CONTINUOUS
 62
           7
100
AcDbLine
 10
125.0
 20
3040.186819199998
 11
-125.0
 21
3040.186819199998
  0
LINE
  5
17D
100
AcDbEntity
  8
7
  6
CONTINUOUS
 62
           7
100
AcDbLine
 10
121.4
 20
3106.360000000002
 11
125.0
 21
3073.231865248044
  0
LINE
  5
17C
100
AcDbEntity
  8
7
  6
CONTINUOUS
 62
           7
100
AcDbLine
 10
-120.1904276
 20
3110.200000000002
 11
117.56
 21
3110.200000000002
  0
LINE
  5
17B
100
AcDbEntity
  8
7
  6
CONTINUOUS
 62
           7
100
AcDbLine
 10
90.3834164
 20
3130.483396000001
 11
115.131240799999
 21
3110.634035200003
  0
LINE
  5
17A
100
AcDbEntity
  8
7
  6
CONTINUOUS
 62
           7
100
AcDbLine
 10
-88.52
 20
3136.000000000001
 11
85.52
 21
3136.000000000001
  0
LINE
  5
179
100
AcDbEntity
  8
2
  6
CONTINUOUS
 62
           7
100
AcDbLine
 10
122.496396799999
 20
2740.403984566909
 11
109.242370399999
 21
2708.603984566908
  0
LINE
  5
178
100
AcDbEntity
  8
2
  6
CONTINUOUS
 62
           7
100
AcDbLine
 10
122.496396799999
 20
2740.403984566909
 11
122.496396799999
 21
3026.3868192
  0
LINE
  5
177
100
AcDbEntity
  8
2
  6
CONTINUOUS
 62
           4
100
AcDbLine
 10
109.242370399999
 20
2708.603984566908
 11
-112.2423704
 21
2708.603984566908
  0
LINE
  5
176
100
AcDbEntity
  8
2
  6
CONTINUOUS
 62
           7
100
AcDbLine
 10
122.496396799999
 20
3026.3868192
 11
116.7446492
 21
3040.186819199998
  0
LINE
  5
175
100
AcDbEntity
  8
2
  6
CONTINUOUS
 62
           4
100
AcDbLine
 10
-107.06
 20
2708.603984566908
 11
-107.06
 21
2704.503984566907
  0
LINE
  5
174
100
AcDbEntity
  8
2
  6
CONTINUOUS
 62
           7
100
AcDbLine
 10
-125.4963968
 20
2740.403984566909
 11
-125.4963968
 21
3026.3868192
  0
LINE
  5
173
100
AcDbEntity
  8
2
  6
CONTINUOUS
 62
           7
100
AcDbLine
 10
-119.7446492
 20
3040.186819199998
 11
-125.4963968
 21
3026.3868192
  0
LINE
  5
172
100
AcDbEntity
  8
2
  6
CONTINUOUS
 62
           7
100
AcDbLine
 10
-112.2423704
 20
2708.603984566908
 11
-125.4963968
 21
2740.403984566909
  0
LINE
  5
171
100
AcDbEntity
  8
1
  6
CONTINUOUS
 62
           7
100
AcDbLine
 10
125.0
 20
3073.231865248044
 11
-125.0
 21
3073.231865248044
  0
LINE
  5
170
100
AcDbEntity
  8
7
  6
CONTINUOUS
 62
           7
100
AcDbLine
 10
-125.0
 20
3073.231865248044
 11
-121.4
 21
3106.133628400001
  0
LINE
  5
16F
100
AcDbEntity
  8
7
  6
CONTINUOUS
 62
           7
100
AcDbLine
 10
125.0
 20
3073.231865248044
 11
125.0
 21
3040.186819199998
  0
LINE
  5
16E
100
AcDbEntity
  8
2
  6
CONTINUOUS
 62
           4
100
AcDbLine
 10
104.06
 20
2704.503984566907
 11
104.06
 21
2708.603984566908
  0
LINE
  5
16D
100
AcDbEntity
  8
1
  6
DOT_CENTER
 62
           2
100
AcDbLine
 10
-826.409104289507
 20
2413.0
 11
576.013204171224
 21
2413.0
  0
LINE
  5
16C
100
AcDbEntity
  8
1
  6
CONTINUOUS
 62
           2
100
AcDbLine
 10
-630.593032057173
 20
2593.0
 11
-630.593032057173
 21
2233.0
  0
LINE
  5
16B
100
AcDbEntity
  8
1
  6
CONTINUOUS
 62
           2
100
AcDbLine
 10
-313.160800656589
 20
2593.0
 11
-630.593032057173
 21
2593.0
  0
LINE
  5
16A
100
AcDbEntity
  8
1
  6
CONTINUOUS
 62
           2
100
AcDbLine
 10
-313.160800656589
 20
2233.0
 11
-313.160800656589
 21
2593.0
  0
LINE
  5
169
100
AcDbEntity
  8
1
  6
CONTINUOUS
 62
           2
100
AcDbLine
 10
-630.593032057173
 20
2233.0
 11
-313.160800656589
 21
2233.0
  0
LINE
  5
168
100
AcDbEntity
  8
976
  6
CONTINUOUS
 62
           7
100
AcDbLine
 10
-731.116882454315
 20
2165.5
 11
-731.116882454315
 21
2150.699999999999
  0
LINE
  5
167
100
AcDbEntity
  8
976
  6
CONTINUOUS
 62
           7
100
AcDbLine
 10
-731.116882454315
 20
2698.503984566909
 11
-731.116882454315
 21
2660.503984566909
  0
LINE
  5
166
100
AcDbEntity
  8
1
  6
CONTINUOUS
 62
           7
100
AcDbLine
 10
-730.0
 20
2165.300000000001
 11
-730.0
 21
2660.503984566909
  0
LINE
  5
165
100
AcDbEntity
  8
1
  6
CONTINUOUS
 62
           4
100
AcDbLine
 10
-750.0
 20
2160.199999999999
 11
-770.999999999999
 21
2160.199999999999
  0
LINE
  5
164
100
AcDbEntity
  8
1
  6
CONTINUOUS
 62
           7
100
AcDbLine
 10
-750.0
 20
2164.699999999999
 11
-770.999999999999
 21
2164.699999999999
  0
LINE
  5
163
100
AcDbEntity
  8
1
  6
CONTINUOUS
 62
           2
100
AcDbLine
 10
522.58813228582
 20
2593.0
 11
483.681715763561
 21
2593.0
  0
LINE
  5
162
100
AcDbEntity
  8
1
  6
CONTINUOUS
 62
           2
100
AcDbLine
 10
483.681715763561
 20
2593.0
 11
483.681715763561
 21
2233.0
  0
LINE
  5
161
100
AcDbEntity
  8
1
  6
CONTINUOUS
 62
           2
100
AcDbLine
 10
483.681715763561
 20
2233.0
 11
522.58813228582
 21
2233.0
  0
LINE
  5
160
100
AcDbEntity
  8
976
  6
CONTINUOUS
 62
           7
100
AcDbLine
 10
530.0
 20
2698.503984566909
 11
-731.116882454315
 21
2698.503984566909
  0
LINE
  5
15F
100
AcDbEntity
  8
976
  6
CONTINUOUS
 62
           7
100
AcDbLine
 10
-63.022294576589
 20
2165.5
 11
-63.022294576589
 21
2150.699999999999
  0
LINE
  5
15E
100
AcDbEntity
  8
976
  6
CONTINUOUS
 62
           7
100
AcDbLine
 10
-63.022294576589
 20
2698.503984566909
 11
-63.022294576589
 21
2660.503984566909
  0
LINE
  5
15D
100
AcDbEntity
  8
976
  6
CONTINUOUS
 62
           7
100
AcDbLine
 10
498.58813228582
 20
2698.503984566909
 11
498.58813228582
 21
2660.503984566909
  0
LINE
  5
15C
100
AcDbEntity
  8
976
  6
CONTINUOUS
 62
           7
100
AcDbLine
 10
498.58813228582
 20
2165.5
 11
498.58813228582
 21
2150.699999999999
  0
LINE
  5
15B
100
AcDbEntity
  8
1
  6
CONTINUOUS
 62
           4
100
AcDbLine
 10
-770.999999999999
 20
2665.80398456691
 11
-750.0
 21
2665.80398456691
  0
LINE
  5
15A
100
AcDbEntity
  8
1
  6
CONTINUOUS
 62
           7
100
AcDbLine
 10
-770.999999999999
 20
2701.30398456691
 11
-750.0
 21
2701.30398456691
  0
LINE
  5
159
100
AcDbEntity
  8
1
  6
CONTINUOUS
 62
           7
100
AcDbLine
 10
-770.999999999999
 20
2661.30398456691
 11
-750.0
 21
2661.30398456691
  0
LINE
  5
158
100
AcDbEntity
  8
976
  6
CONTINUOUS
 62
           7
100
AcDbLine
 10
532.58813228582
 20
2165.5
 11
-740.0
 21
2165.5
  0
LINE
  5
157
100
AcDbEntity
  8
976
  6
CONTINUOUS
 62
           7
100
AcDbLine
 10
532.58813228582
 20
2660.503984566907
 11
-740.0
 21
2660.503984566907
  0
LINE
  5
156
100
AcDbEntity
  8
1
  6
CONTINUOUS
 62
           4
100
AcDbLine
 10
260.0
 20
2698.503984566909
 11
260.0
 21
2699.503984566909
  0
LINE
  5
155
100
AcDbEntity
  8
1
  6
CONTINUOUS
 62
           4
100
AcDbLine
 10
-260.0
 20
2698.503984566909
 11
-260.0
 21
2699.503984566909
  0
LINE
  5
154
100
AcDbEntity
  8
1
  6
CONTINUOUS
 62
           4
100
AcDbLine
 10
-260.0
 20
2699.503984566909
 11
-255.0
 21
2704.503984566909
  0
LINE
  5
153
100
AcDbEntity
  8
1
  6
CONTINUOUS
 62
           4
100
AcDbLine
 10
255.0
 20
2704.503984566909
 11
-255.0
 21
2704.503984566909
  0
LINE
  5
152
100
AcDbEntity
  8
1
  6
CONTINUOUS
 62
           4
100
AcDbLine
 10
255.0
 20
2704.503984566909
 11
260.0
 21
2699.503984566909
  0
LINE
  5
151
100
AcDbEntity
  8
976
  6
CONTINUOUS
 62
           7
100
AcDbLine
 10
530.0
 20
2698.503984566909
 11
530.0
 21
2660.503984566909
  0
LINE
  5
150
100
AcDbEntity
  8
976
  6
CONTINUOUS
 62
           7
100
AcDbLine
 10
530.0
 20
2165.5
 11
530.0
 21
2150.699999999999
  0
LINE
  5
14F
100
AcDbEntity
  8
1
  6
CONTINUOUS
 62
           7
100
AcDbLine
 10
522.58813228582
 20
2165.300000000001
 11
522.58813228582
 21
2660.503984566909
  0
LINE
  5
14E
100
AcDbEntity
  8
1
  6
CONTINUOUS
 62
           7
100
AcDbLine
 10
-770.999999999999
 20
2150.5
 11
-770.999999999999
 21
2701.30398456691
  0
LINE
  5
14D
100
AcDbEntity
  8
2
  6
CONTINUOUS
 62
           7
100
AcDbLine
 10
5984.9963968
 20
2739.600000000001
 11
5984.9963968
 21
3026.386819200001
  0
LINE
  5
14C
100
AcDbEntity
  8
7
  6
CONTINUOUS
 62
           7
100
AcDbLine
 10
5987.499999999999
 20
3073.231865248044
 11
5987.499999999999
 21
3040.186819200001
  0
LINE
  5
14B
100
AcDbEntity
  8
7
  6
CONTINUOUS
 62
           7
100
AcDbLine
 10
5737.499999999999
 20
3073.231865248044
 11
5741.100000000001
 21
3106.133628400002
  0
LINE
  5
14A
100
AcDbEntity
  8
1
  6
CONTINUOUS
 62
           7
100
AcDbLine
 10
5987.499999999999
 20
3073.231865248044
 11
5737.499999999999
 21
3073.231865248044
  0
LINE
  5
149
100
AcDbEntity
  8
2
  6
CONTINUOUS
 62
           7
100
AcDbLine
 10
5750.257629599998
 20
2707.8
 11
5737.003603199998
 21
2739.600000000001
  0
LINE
  5
148
100
AcDbEntity
  8
2
  6
CONTINUOUS
 62
           7
100
AcDbLine
 10
5737.003603199998
 20
3026.386819200001
 11
5737.003603199998
 21
2739.600000000001
  0
LINE
  5
147
100
AcDbEntity
  8
2
  6
CONTINUOUS
 62
           7
100
AcDbLine
 10
5742.755350799999
 20
3040.186819200001
 11
5737.003603199998
 21
3026.386819200001
  0
LINE
  5
146
100
AcDbEntity
  8
2
  6
CONTINUOUS
 62
           4
100
AcDbLine
 10
5755.440000000001
 20
2707.8
 11
5755.440000000001
 21
2703.7
  0
LINE
  5
145
100
AcDbEntity
  8
2
  6
CONTINUOUS
 62
           7
100
AcDbLine
 10
5984.9963968
 20
3026.386819200001
 11
5979.244649199999
 21
3040.186819200001
  0
LINE
  5
144
100
AcDbEntity
  8
2
  6
CONTINUOUS
 62
           4
100
AcDbLine
 10
5971.7423704
 20
2707.8
 11
5750.257629599998
 21
2707.8
  0
LINE
  5
143
100
AcDbEntity
  8
2
  6
CONTINUOUS
 62
           7
100
AcDbLine
 10
5984.9963968
 20
2739.600000000001
 11
5971.7423704
 21
2707.8
  0
LINE
  5
142
100
AcDbEntity
  8
7
  6
CONTINUOUS
 62
           7
100
AcDbLine
 10
5862.500000000001
 20
3136.000000000001
 11
5948.02
 21
3136.000000000001
  0
LINE
  5
141
100
AcDbEntity
  8
7
  6
CONTINUOUS
 62
           7
100
AcDbLine
 10
5952.883416400001
 20
3130.483396000001
 11
5977.6312408
 21
3110.634035200002
  0
LINE
  5
140
100
AcDbEntity
  8
7
  6
CONTINUOUS
 62
           7
100
AcDbLine
 10
5742.3095724
 20
3110.200000000002
 11
5980.06
 21
3110.200000000002
  0
LINE
  5
13F
100
AcDbEntity
  8
7
  6
CONTINUOUS
 62
           7
100
AcDbLine
 10
5983.900000000002
 20
3106.360000000002
 11
5987.499999999999
 21
3073.231865248044
  0
LINE
  5
13E
100
AcDbEntity
  8
7
  6
CONTINUOUS
 62
           7
100
AcDbLine
 10
5987.499999999999
 20
3040.186819200001
 11
5737.499999999999
 21
3040.186819200001
  0
LINE
  5
13D
100
AcDbEntity
  8
7
  6
CONTINUOUS
 62
           7
100
AcDbLine
 10
5737.499999999999
 20
3040.186819200001
 11
5737.499999999999
 21
3073.231865248044
  0
LINE
  5
13C
100
AcDbEntity
  8
7
  6
CONTINUOUS
 62
           7
100
AcDbLine
 10
5862.500000000001
 20
3136.000000000001
 11
5773.980000000001
 21
3136.000000000001
  0
LINE
  5
13B
100
AcDbEntity
  8
7
  6
CONTINUOUS
 62
           7
100
AcDbLine
 10
5769.116582399999
 20
3130.483396000001
 11
5744.522588399998
 21
3112.3957372
  0
LINE
  5
13A
100
AcDbEntity
  8
1
  6
CONTINUOUS
 62
           7
100
AcDbLine
 10
5914.000000000001
 20
2799.500000000001
 11
5811.000000000001
 21
2799.500000000001
  0
LINE
  5
139
100
AcDbEntity
  8
1
  6
CONTINUOUS
 62
           7
100
AcDbLine
 10
5811.000000000001
 20
2899.500000000001
 11
5914.000000000001
 21
2899.500000000001
  0
LINE
  5
138
100
AcDbEntity
  8
1
  6
CONTINUOUS
 62
           7
100
AcDbLine
 10
5799.000000000001
 20
2811.500000000001
 11
5799.000000000001
 21
2887.500000000001
  0
LINE
  5
137
100
AcDbEntity
  8
1
  6
CONTINUOUS
 62
           7
100
AcDbLine
 10
5926.000000000001
 20
2887.500000000001
 11
5926.000000000001
 21
2811.500000000001
  0
LINE
  5
136
100
AcDbEntity
  8
2
  6
CONTINUOUS
 62
           4
100
AcDbLine
 10
5966.56
 20
2703.7
 11
5966.56
 21
2707.8
  0
LINE
  5
135
100
AcDbEntity
  8
1
  6
CONTINUOUS
 62
           7
100
AcDbLine
 10
6452.499999999999
 20
2665.000000000001
 11
6452.499999999999
 21
2161.000000000001
  0
LINE
  5
134
100
AcDbEntity
  8
976
  6
CONTINUOUS
 62
           7
100
AcDbLine
 10
6372.499999999999
 20
2659.7
 11
5187.288529667961
 21
2659.7
  0
LINE
  5
133
100
AcDbEntity
  8
1
  6
CONTINUOUS
 62
           7
100
AcDbLine
 10
6452.499999999999
 20
2165.500000000001
 11
6412.499999999999
 21
2165.500000000001
  0
LINE
  5
132
100
AcDbEntity
  8
1
  6
CONTINUOUS
 62
           4
100
AcDbLine
 10
6417.999999999999
 20
2665.000000000001
 11
6452.499999999999
 21
2665.000000000001
  0
LINE
  5
131
100
AcDbEntity
  8
1
  6
DOT_CENTER
 62
           2
100
AcDbLine
 10
5166.271485574418
 20
2413.000000000001
 11
6507.26458776199
 21
2413.000000000001
  0
LINE
  5
130
100
AcDbEntity
  8
1
  6
DOT_CENTER
 62
           2
100
AcDbLine
 10
5862.499999999999
 20
2036.871335955672
 11
5862.499999999999
 21
3177.943017367194
  0
LINE
  5
12F
100
AcDbEntity
  8
1
  6
CONTINUOUS
 62
           2
100
AcDbLine
 10
5998.013456000907
 20
2593.000000000001
 11
5586.986543999089
 21
2593.000000000001
  0
LINE
  5
12E
100
AcDbEntity
  8
1
  6
CONTINUOUS
 62
           2
100
AcDbLine
 10
5998.013456000907
 20
2233.000000000001
 11
5998.013456000907
 21
2593.000000000001
  0
LINE
  5
12D
100
AcDbEntity
  8
1
  6
CONTINUOUS
 62
           2
100
AcDbLine
 10
5586.986543999089
 20
2233.000000000001
 11
5998.013456000907
 21
2233.000000000001
  0
LINE
  5
12C
100
AcDbEntity
  8
1
  6
CONTINUOUS
 62
           2
100
AcDbLine
 10
5586.986543999089
 20
2593.000000000001
 11
5586.986543999089
 21
2233.000000000001
  0
LINE
  5
12B
100
AcDbEntity
  8
976
  6
CONTINUOUS
 62
           7
100
AcDbLine
 10
5970.500159772887
 20
2128.300000000004
 11
6368.940677966101
 21
2128.300000000002
  0
LINE
  5
12A
100
AcDbEntity
  8
976
  6
CONTINUOUS
 62
           7
100
AcDbLine
 10
5787.722691958727
 20
2128.300000000004
 11
5787.722691958724
 21
2166.300000000004
  0
LINE
  5
129
100
AcDbEntity
  8
976
  6
CONTINUOUS
 62
           7
100
AcDbLine
 10
5970.500159772887
 20
2128.300000000004
 11
5970.500159772887
 21
2166.300000000004
  0
LINE
  5
128
100
AcDbEntity
  8
976
  6
CONTINUOUS
 62
           7
100
AcDbLine
 10
6284.500000000001
 20
2128.300000000004
 11
6284.499999999999
 21
2166.300000000004
  0
LINE
  5
127
100
AcDbEntity
  8
976
  6
CONTINUOUS
 62
           7
100
AcDbLine
 10
5787.722691958727
 20
2697.7
 11
5187.288529667961
 21
2697.7
  0
LINE
  5
126
100
AcDbEntity
  8
976
  6
CONTINUOUS
 62
           7
100
AcDbLine
 10
5787.722691958724
 20
2659.7
 11
5787.722691958727
 21
2697.7
  0
LINE
  5
125
100
AcDbEntity
  8
976
  6
CONTINUOUS
 62
           7
100
AcDbLine
 10
5970.500159772887
 20
2659.7
 11
5970.500159772887
 21
2697.7
  0
LINE
  5
124
100
AcDbEntity
  8
976
  6
CONTINUOUS
 62
           7
100
AcDbLine
 10
6284.499999999999
 20
2659.7
 11
6284.500000000001
 21
2697.7
  0
LINE
  5
123
100
AcDbEntity
  8
976
  6
CONTINUOUS
 62
           7
100
AcDbLine
 10
6372.499999999999
 20
2659.7
 11
6372.500000000001
 21
2692.7
  0
LINE
  5
122
100
AcDbEntity
  8
1
  6
CONTINUOUS
 62
           4
100
AcDbLine
 10
6406.999999999999
 20
2161.000000000001
 11
6372.499999999999
 21
2161.000000000001
  0
LINE
  5
121
100
AcDbEntity
  8
1
  6
CONTINUOUS
 62
           7
100
AcDbLine
 10
6417.999999999999
 20
2165.500000000001
 11
6452.499999999999
 21
2165.500000000001
  0
LINE
  5
120
100
AcDbEntity
  8
1
  6
CONTINUOUS
 62
           4
100
AcDbLine
 10
6407.999999999999
 20
2125.500000000001
 11
6412.499999999999
 21
2125.500000000001
  0
LINE
  5
11F
100
AcDbEntity
  8
1
  6
CONTINUOUS
 62
           4
100
AcDbLine
 10
6407.999999999999
 20
2160.000000000001
 11
6407.999999999999
 21
2125.500000000001
  0
LINE
  5
11E
100
AcDbEntity
  8
1
  6
CONTINUOUS
 62
           4
100
AcDbLine
 10
6452.499999999999
 20
2161.000000000001
 11
6417.999999999999
 21
2161.000000000001
  0
LINE
  5
11D
100
AcDbEntity
  8
1
  6
CONTINUOUS
 62
           4
100
AcDbLine
 10
6416.999999999999
 20
2125.500000000001
 11
6416.999999999999
 21
2160.000000000001
  0
LINE
  5
11C
100
AcDbEntity
  8
1
  6
CONTINUOUS
 62
           4
100
AcDbLine
 10
6412.499999999999
 20
2125.500000000001
 11
6416.999999999999
 21
2125.500000000001
  0
LINE
  5
11B
100
AcDbEntity
  8
1
  6
CONTINUOUS
 62
           4
100
AcDbLine
 10
6372.499999999999
 20
2665.000000000001
 11
6406.999999999999
 21
2665.000000000001
  0
LINE
  5
11A
100
AcDbEntity
  8
1
  6
CONTINUOUS
 62
           4
100
AcDbLine
 10
6407.999999999999
 20
2700.500000000001
 11
6407.999999999999
 21
2666.000000000001
  0
LINE
  5
119
100
AcDbEntity
  8
1
  6
CONTINUOUS
 62
           4
100
AcDbLine
 10
6412.499999999999
 20
2700.500000000001
 11
6407.999999999999
 21
2700.500000000001
  0
LINE
  5
118
100
AcDbEntity
  8
1
  6
CONTINUOUS
 62
           4
100
AcDbLine
 10
6416.999999999999
 20
2700.500000000001
 11
6412.499999999999
 21
2700.500000000001
  0
LINE
  5
117
100
AcDbEntity
  8
1
  6
CONTINUOUS
 62
           4
100
AcDbLine
 10
6416.999999999999
 20
2666.000000000001
 11
6416.999999999999
 21
2700.500000000001
  0
LINE
  5
116
100
AcDbEntity
  8
1
  6
CONTINUOUS
 62
           7
100
AcDbLine
 10
6412.499999999999
 20
2700.500000000001
 11
6412.499999999999
 21
2125.500000000001
  0
LINE
  5
115
100
AcDbEntity
  8
1
  6
CONTINUOUS
 62
           4
100
AcDbLine
 10
6416.799999999998
 20
2165.500000000001
 11
6416.799999999998
 21
2660.500000000001
  0
LINE
  5
114
100
AcDbEntity
  8
1
  6
CONTINUOUS
 62
           4
100
AcDbLine
 10
6408.199999999998
 20
2660.500000000001
 11
6408.199999999998
 21
2165.500000000001
  0
LINE
  5
113
100
AcDbEntity
  8
1
  6
CONTINUOUS
 62
           7
100
AcDbLine
 10
6412.499999999999
 20
2165.500000000001
 11
6372.499999999999
 21
2165.500000000001
  0
LINE
  5
112
100
AcDbEntity
  8
1
  6
CONTINUOUS
 62
           7
100
AcDbLine
 10
6372.499999999999
 20
2660.500000000001
 11
6412.499999999999
 21
2660.500000000001
  0
LINE
  5
111
100
AcDbEntity
  8
1
  6
CONTINUOUS
 62
           7
100
AcDbLine
 10
6372.499999999999
 20
2161.000000000001
 11
6372.499999999999
 21
2665.000000000001
  0
LINE
  5
110
100
AcDbEntity
  8
1
  6
CONTINUOUS
 62
           7
100
AcDbLine
 10
6412.499999999999
 20
2660.500000000001
 11
6452.499999999999
 21
2660.500000000001
  0
LINE
  5
10F
100
AcDbEntity
  8
1
  6
CONTINUOUS
 62
           7
100
AcDbLine
 10
5232.499999999999
 20
2659.7
 11
5232.499999999999
 21
2166.300000000002
  0
LINE
  5
10E
100
AcDbEntity
  8
1
  6
CONTINUOUS
 62
           7
100
AcDbLine
 10
6372.499999999999
 20
2165.500000000001
 11
6406.999999999999
 21
2165.500000000001
  0
LINE
  5
10D
100
AcDbEntity
  8
1
  6
CONTINUOUS
 62
           7
100
AcDbLine
 10
6406.999999999999
 20
2660.500000000001
 11
6372.499999999999
 21
2660.500000000001
  0
LINE
  5
10C
100
AcDbEntity
  8
1
  6
CONTINUOUS
 62
           7
100
AcDbLine
 10
6452.499999999999
 20
2660.500000000001
 11
6417.999999999999
 21
2660.500000000001
  0
LINE
  5
10B
100
AcDbEntity
  8
1
  6
CONTINUOUS
 62
           7
100
AcDbLine
 10
6372.499999999999
 20
2133.300000000002
 11
6368.940677966101
 21
2128.300000000002
  0
LINE
  5
10A
100
AcDbEntity
  8
1
  6
CONTINUOUS
 62
           7
100
AcDbLine
 10
6372.500000000001
 20
2692.7
 11
6368.940677966101
 21
2697.7
  0
LINE
  5
109
100
AcDbEntity
  8
976
  6
CONTINUOUS
 62
           7
100
AcDbLine
 10
5187.288529667961
 20
2128.300000000002
 11
5187.288529667961
 21
2166.300000000002
  0
LINE
  5
108
100
AcDbEntity
  8
976
  6
CONTINUOUS
 62
           7
100
AcDbLine
 10
5187.288529667961
 20
2659.7
 11
5187.288529667961
 21
2697.7
  0
LINE
  5
107
100
AcDbEntity
  8
976
  6
CONTINUOUS
 62
           7
100
AcDbLine
 10
5187.288529667961
 20
2128.300000000002
 11
5787.722691958727
 21
2128.300000000004
  0
LINE
  5
106
100
AcDbEntity
  8
976
  6
CONTINUOUS
 62
           7
100
AcDbLine
 10
6372.499999999999
 20
2166.300000000002
 11
6372.499999999999
 21
2133.300000000002
  0
LINE
  5
105
100
AcDbEntity
  8
976
  6
CONTINUOUS
 62
           7
100
AcDbLine
 10
6372.499999999999
 20
2166.300000000002
 11
5187.288529667961
 21
2166.300000000002
  0
LINE
  5
104
100
AcDbEntity
  8
976
  6
CONTINUOUS
 62
           7
100
AcDbLine
 10
6368.940677966101
 20
2697.7
 11
5970.500159772887
 21
2697.7
  0
LINE
  5
103
100
AcDbEntity
  8
1
  6
CONTINUOUS
 62
           4
100
AcDbLine
 10
5602.499999999999
 20
2698.7
 11
5607.499999999999
 21
2703.7
  0
LINE
  5
102
100
AcDbEntity
  8
1
  6
CONTINUOUS
 62
           4
100
AcDbLine
 10
6117.499999999999
 20
2703.7
 11
5607.499999999999
 21
2703.7
  0
LINE
  5
101
100
AcDbEntity
  8
1
  6
CONTINUOUS
 62
           4
100
AcDbLine
 10
6117.499999999999
 20
2703.7
 11
6122.499999999999
 21
2698.7
  0
LINE
  5
100
100
AcDbEntity
  8
1
  6
CONTINUOUS
 62
           4
100
AcDbLine
 10
6122.499999999999
 20
2698.7
 11
6122.499999999999
 21
2697.7
  0
LINE
  5
FF
100
AcDbEntity
  8
1
  6
CONTINUOUS
 62
           4
100
AcDbLine
 10
5602.499999999999
 20
2698.7
 11
5602.499999999999
 21
2697.7
  0
LINE
  5
FE
100
AcDbEntity
  8
0
  6
CONTINUOUS
 62
           7
100
AcDbLine
 10
5529.3
 20
2128.300000000002
 11
5529.299999999998
 21
2081.000000000001
  0
LINE
  5
FD
100
AcDbEntity
  8
0
  6
CONTINUOUS
 62
           7
100
AcDbLine
 10
6195.7
 20
2081.000000000001
 11
6195.7
 21
2128.300000000002
  0
LINE
  5
FC
100
AcDbEntity
  8
1
  6
CONTINUOUS
 62
           4
100
AcDbLine
 10
5489.999999999999
 20
2081.000000000001
 11
6234.999999999999
 21
2081.000000000001
  0
LINE
  5
FB
100
AcDbEntity
  8
1
  6
CONTINUOUS
 62
           7
100
AcDbLine
 10
6234.999999999999
 20
2075.000000000001
 11
5489.999999999999
 21
2075.000000000001
  0
LINE
  5
FA
100
AcDbEntity
  8
1
  6
CONTINUOUS
 62
           4
100
AcDbLine
 10
5489.999999999999
 20
2075.000000000001
 11
5489.999999999999
 21
2081.000000000001
  0
LINE
  5
F9
100
AcDbEntity
  8
1
  6
CONTINUOUS
 62
           4
100
AcDbLine
 10
6234.999999999999
 20
2081.000000000001
 11
6234.999999999999
 21
2075.000000000001
  0
LINE
  5
F8
100
AcDbEntity
  8
1
  6
CONTINUOUS
 62
           4
100
AcDbLine
 10
-519.999999999999
 20
5782.23035217589
 11
-519.999999999999
 21
5807.663875349972
  0
LINE
  5
F7
100
AcDbEntity
  8
1
  6
DOT_CENTER
 62
           2
100
AcDbLine
 10
0.0
 20
6962.230352175891
 11
0.0
 21
4655.31057623304
  0
LINE
  5
F6
100
AcDbEntity
  8
1
  6
CONTINUOUS
 62
           4
100
AcDbLine
 10
520.0
 20
6742.23035217589
 11
520.0
 21
6296.633417264984
  0
LINE
  5
F5
100
AcDbEntity
  8
1
  6
CONTINUOUS
 62
           7
100
AcDbLine
 10
2485.0
 20
40.0
 11
1015.0
 21
40.0
  0
LINE
  5
F4
100
AcDbEntity
  8
1
  6
CONTINUOUS
 62
           7
100
AcDbLine
 10
-2485.0
 20
0.0
 11
-2485.0
 21
40.0
  0
LINE
  5
F3
100
AcDbEntity
  8
1
  6
CONTINUOUS
 62
           7
100
AcDbLine
 10
2670.0
 20
5162.23035217589
 11
2670.0
 21
4862.23035217589
  0
LINE
  5
F2
100
AcDbEntity
  8
1
  6
CONTINUOUS
 62
           7
100
AcDbLine
 10
2670.0
 20
1180.0
 11
2670.0
 21
1630.0
  0
LINE
  5
F1
100
AcDbEntity
  8
1
  6
LONG_DASHED
 62
           2
100
AcDbLine
 10
6312.499999999999
 20
-450.0
 11
6312.499999999999
 21
0.0
  0
LINE
  5
F0
100
AcDbEntity
  8
1
  6
LONG_DASHED
 62
           2
100
AcDbLine
 10
4912.499999999999
 20
-450.0
 11
6312.499999999999
 21
-450.0
  0
LINE
  5
EF
100
AcDbEntity
  8
1
  6
CONTINUOUS
 62
           4
100
AcDbLine
 10
6342.499999999999
 20
20.0
 11
6342.499999999999
 21
1480.0
  0
LINE
  5
EE
100
AcDbEntity
  8
1
  6
CONTINUOUS
 62
           4
100
AcDbLine
 10
5382.499999999999
 20
20.0
 11
6342.499999999999
 21
20.0
  0
LINE
  5
ED
100
AcDbEntity
  8
1
  6
CONTINUOUS
 62
           7
100
AcDbLine
 10
4212.499999999999
 20
0.0
 11
6562.499999999999
 21
0.0
  0
LINE
  5
EC
100
AcDbEntity
  8
1
  6
CONTINUOUS
 62
           7
100
AcDbLine
 10
-2550.0
 20
4762.23035217589
 11
2550.0
 21
4762.23035217589
  0
LINE
  5
EB
100
AcDbEntity
  8
1
  6
CONTINUOUS
 62
           7
100
AcDbLine
 10
-2550.0
 20
6762.23035217589
 11
-2550.0
 21
4762.23035217589
  0
LINE
  5
EA
100
AcDbEntity
  8
1
  6
CONTINUOUS
 62
           7
100
AcDbLine
 10
-2550.0
 20
5762.23035217589
 11
-464.61064030104
 21
5762.23035217589
  0
LINE
  5
E9
100
AcDbEntity
  8
1
  6
CONTINUOUS
 62
           7
100
AcDbLine
 10
-2550.0
 20
4812.23035217589
 11
2550.0
 21
4812.23035217589
  0
LINE
  5
E8
100
AcDbEntity
  8
1
  6
CONTINUOUS
 62
           4
100
AcDbLine
 10
-2480.0
 20
5742.23035217589
 11
-2480.0
 21
4812.23035217589
  0
LINE
  5
E7
100
AcDbEntity
  8
1
  6
CONTINUOUS
 62
           7
100
AcDbLine
 10
-2500.0
 20
4812.23035217589
 11
-2500.0
 21
6762.23035217589
  0
LINE
  5
E6
100
AcDbEntity
  8
1
  6
CONTINUOUS
 62
           7
100
AcDbLine
 10
2500.0
 20
4812.23035217589
 11
2500.0
 21
6762.23035217589
  0
LINE
  5
E5
100
AcDbEntity
  8
1
  6
CONTINUOUS
 62
           4
100
AcDbLine
 10
-2480.0
 20
5782.23035217589
 11
-1020.0
 21
5782.23035217589
  0
LINE
  5
E4
100
AcDbEntity
  8
1
  6
CONTINUOUS
 62
           4
100
AcDbLine
 10
-2480.0
 20
5782.23035217589
 11
-2480.0
 21
6742.23035217589
  0
LINE
  5
E3
100
AcDbEntity
  8
1
  6
CONTINUOUS
 62
           7
100
AcDbLine
 10
2550.0
 20
5162.23035217589
 11
2670.0
 21
5162.23035217589
  0
LINE
  5
E2
100
AcDbEntity
  8
1
  6
CONTINUOUS
 62
           7
100
AcDbLine
 10
2550.0
 20
4862.23035217589
 11
2670.0
 21
4862.23035217589
  0
LINE
  5
E1
100
AcDbEntity
  8
1
  6
CONTINUOUS
 62
           7
100
AcDbLine
 10
2550.0
 20
6762.23035217589
 11
0.0
 21
6762.230352175891
  0
LINE
  5
E0
100
AcDbEntity
  8
1
  6
CONTINUOUS
 62
           7
100
AcDbLine
 10
2550.0
 20
1180.0
 11
2670.0
 21
1180.0
  0
LINE
  5
DF
100
AcDbEntity
  8
1
  6
CONTINUOUS
 62
           7
100
AcDbLine
 10
2550.0
 20
1630.0
 11
2670.0
 21
1630.0
  0
LINE
  5
DE
100
AcDbEntity
  8
1
  6
CONTINUOUS
 62
           7
100
AcDbLine
 10
2550.0
 20
0.0
 11
2550.0
 21
2150.0
  0
LINE
  5
DD
100
AcDbEntity
  8
1
  6
CONTINUOUS
 62
           7
100
AcDbLine
 10
2550.0
 20
2150.0
 11
-2550.0
 21
2150.0
  0
LINE
  5
DC
100
AcDbEntity
  8
1
  6
CONTINUOUS
 62
           7
100
AcDbLine
 10
-2550.0
 20
2150.0
 11
-2550.0
 21
0.0
  0
LINE
  5
DB
100
AcDbEntity
  8
1
  6
CONTINUOUS
 62
           7
100
AcDbLine
 10
2550.0
 20
2000.0
 11
-2550.0
 21
2000.0
  0
LINE
  5
DA
100
AcDbEntity
  8
1
  6
CONTINUOUS
 62
           7
100
AcDbLine
 10
6362.499999999999
 20
0.0
 11
6362.499999999999
 21
2075.0
  0
LINE
  5
D9
100
AcDbEntity
  8
1
  6
CONTINUOUS
 62
           7
100
AcDbLine
 10
6362.499999999999
 20
2000.0
 11
4362.5
 21
2000.0
  0
LINE
  5
D8
100
AcDbEntity
  8
1
  6
CONTINUOUS
 62
           4
100
AcDbLine
 10
4362.5
 20
2003.0
 11
6362.499999999999
 21
2003.0
  0
LINE
  5
D7
100
AcDbEntity
  8
1
  6
CONTINUOUS
 62
           7
100
AcDbLine
 10
4362.5
 20
2050.0
 11
6362.499999999999
 21
2050.0
  0
LINE
  5
D6
100
AcDbEntity
  8
1
  6
CONTINUOUS
 62
           7
100
AcDbLine
 10
5362.499999999999
 20
2075.0
 11
6362.499999999999
 21
2075.0
  0
LINE
  5
D5
100
AcDbEntity
  8
1
  6
LONG_DASHED
 62
           2
100
AcDbLine
 10
-2500.0
 20
-450.0
 11
-2500.0
 21
0.0
  0
LINE
  5
D4
100
AcDbEntity
  8
1
  6
LONG_DASHED
 62
           2
100
AcDbLine
 10
2500.0
 20
-450.0
 11
2500.0
 21
0.0
  0
LINE
  5
D3
100
AcDbEntity
  8
1
  6
CONTINUOUS
 62
           7
100
AcDbLine
 10
2500.0
 20
1400.0
 11
-2500.0
 21
1400.0
  0
LINE
  5
D2
100
AcDbEntity
  8
1
  6
LONG_DASHED
 62
           2
100
AcDbLine
 10
2500.0
 20
-450.0
 11
-2500.0
 21
-450.0
  0
LINE
  5
D1
100
AcDbEntity
  8
1
  6
CONTINUOUS
 62
           7
100
AcDbLine
 10
2485.0
 20
40.0
 11
2485.0
 21
0.0
  0
LINE
  5
D0
100
AcDbEntity
  8
1
  6
CONTINUOUS
 62
           7
100
AcDbLine
 10
-2500.0
 20
13.85332266763
 11
-2500.0
 21
72.607085651512
  0
LINE
  5
CF
100
AcDbEntity
  8
1
  6
CONTINUOUS
 62
           7
100
AcDbLine
 10
-2500.0
 20
300.0
 11
2500.0
 21
300.0
  0
LINE
  5
CE
100
AcDbEntity
  8
1
  6
CONTINUOUS
 62
           7
100
AcDbLine
 10
2550.0
 20
4762.23035217589
 11
2550.0
 21
6762.23035217589
  0
LINE
  5
CD
100
AcDbEntity
  8
1
  6
CONTINUOUS
 62
           4
100
AcDbLine
 10
2480.0
 20
6742.23035217589
 11
2480.0
 21
5782.23035217589
  0
LINE
  5
CC
100
AcDbEntity
  8
1
  6
CONTINUOUS
 62
           4
100
AcDbLine
 10
2480.0
 20
5742.23035217589
 11
2480.0
 21
4812.23035217589
  0
LINE
  5
CB
100
AcDbEntity
  8
1
  6
CONTINUOUS
 62
           4
100
AcDbLine
 10
2503.0
 20
6762.23035217589
 11
2503.0
 21
4812.23035217589
  0
LINE
  5
CA
100
AcDbEntity
  8
1
  6
CONTINUOUS
 62
           4
100
AcDbLine
 10
2480.0
 20
6742.23035217589
 11
1020.0
 21
6742.23035217589
  0
LINE
  5
C9
100
AcDbEntity
  8
1
  6
CONTINUOUS
 62
           4
100
AcDbLine
 10
2480.0
 20
5782.23035217589
 11
1020.0
 21
5782.23035217589
  0
LINE
  5
C8
100
AcDbEntity
  8
1
  6
CONTINUOUS
 62
           4
100
AcDbLine
 10
-2503.0
 20
6762.23035217589
 11
-2503.0
 21
4812.23035217589
  0
LINE
  5
C7
100
AcDbEntity
  8
1
  6
CONTINUOUS
 62
           4
100
AcDbLine
 10
-2480.0
 20
5742.23035217589
 11
-1020.0
 21
5742.23035217589
  0
LINE
  5
C6
100
AcDbEntity
  8
1
  6
CONTINUOUS
 62
           4
100
AcDbLine
 10
2480.0
 20
5742.23035217589
 11
1020.0
 21
5742.23035217589
  0
LINE
  5
C5
100
AcDbEntity
  8
1
  6
CONTINUOUS
 62
           4
100
AcDbLine
 10
4362.5
 20
2040.0
 11
6362.499999999999
 21
2040.0
  0
LINE
  5
C4
100
AcDbEntity
  8
1
  6
CONTINUOUS
 62
           4
100
AcDbLine
 10
2540.0
 20
6762.23035217589
 11
2540.0
 21
4812.23035217589
  0
LINE
  5
C3
100
AcDbEntity
  8
1
  6
CONTINUOUS
 62
           4
100
AcDbLine
 10
-2540.0
 20
6762.23035217589
 11
-2540.0
 21
4812.23035217589
  0
LINE
  5
C2
100
AcDbEntity
  8
1
  6
CONTINUOUS
 62
           4
100
AcDbLine
 10
980.0
 20
4812.23035217589
 11
980.0
 21
5742.23035217589
  0
LINE
  5
C1
100
AcDbEntity
  8
1
  6
CONTINUOUS
 62
           7
100
AcDbLine
 10
1000.0
 20
6762.23035217589
 11
1000.0
 21
4812.23035217589
  0
LINE
  5
C0
100
AcDbEntity
  8
1
  6
CONTINUOUS
 62
           4
100
AcDbLine
 10
-1020.0
 20
4812.23035217589
 11
-1020.0
 21
5742.23035217589
  0
LINE
  5
BF
100
AcDbEntity
  8
1
  6
CONTINUOUS
 62
           7
100
AcDbLine
 10
-1000.0
 20
6762.23035217589
 11
-1000.0
 21
4812.23035217589
  0
LINE
  5
BE
100
AcDbEntity
  8
1
  6
CONTINUOUS
 62
           4
100
AcDbLine
 10
-1020.0
 20
5782.23035217589
 11
-1020.0
 21
6742.23035217589
  0
LINE
  5
BD
100
AcDbEntity
  8
1
  6
CONTINUOUS
 62
           4
100
AcDbLine
 10
-980.0
 20
5742.23035217589
 11
-980.0
 21
4812.23035217589
  0
LINE
  5
BC
100
AcDbEntity
  8
1
  6
CONTINUOUS
 62
           4
100
AcDbLine
 10
-980.0
 20
5742.23035217589
 11
-435.831483154991
 21
5742.23035217589
  0
LINE
  5
BB
100
AcDbEntity
  8
1
  6
CONTINUOUS
 62
           4
100
AcDbLine
 10
-980.0
 20
5782.23035217589
 11
-519.999999999999
 21
5782.23035217589
  0
LINE
  5
BA
100
AcDbEntity
  8
1
  6
CONTINUOUS
 62
           4
100
AcDbLine
 10
980.0
 20
5782.23035217589
 11
520.0
 21
5782.23035217589
  0
LINE
  5
B9
100
AcDbEntity
  8
1
  6
CONTINUOUS
 62
           4
100
AcDbLine
 10
980.0
 20
5782.23035217589
 11
980.0
 21
6742.23035217589
  0
LINE
  5
B8
100
AcDbEntity
  8
1
  6
CONTINUOUS
 62
           4
100
AcDbLine
 10
1020.0
 20
5742.23035217589
 11
1020.0
 21
4812.23035217589
  0
LINE
  5
B7
100
AcDbEntity
  8
1
  6
CONTINUOUS
 62
           7
100
AcDbLine
 10
985.0
 20
0.0
 11
985.0
 21
40.0
  0
LINE
  5
B6
100
AcDbEntity
  8
1
  6
CONTINUOUS
 62
           7
100
AcDbLine
 10
1015.0
 20
40.0
 11
1015.0
 21
0.0
  0
LINE
  5
B5
100
AcDbEntity
  8
1
  6
CONTINUOUS
 62
           7
100
AcDbLine
 10
-1015.0
 20
0.0
 11
-1015.0
 21
40.0
  0
LINE
  5
B4
100
AcDbEntity
  8
1
  6
CONTINUOUS
 62
           7
100
AcDbLine
 10
-985.0
 20
40.0
 11
-985.0
 21
0.0
  0
LINE
  5
B3
100
AcDbEntity
  8
1
  6
CONTINUOUS
 62
           4
100
AcDbLine
 10
-1020.0
 20
6742.23035217589
 11
-2480.0
 21
6742.23035217589
  0
LINE
  5
B2
100
AcDbEntity
  8
1
  6
CONTINUOUS
 62
           4
100
AcDbLine
 10
-980.0
 20
6742.23035217589
 11
-980.0
 21
5782.23035217589
  0
LINE
  5
B1
100
AcDbEntity
  8
1
  6
CONTINUOUS
 62
           4
100
AcDbLine
 10
980.0
 20
6742.23035217589
 11
520.0
 21
6742.23035217589
  0
LINE
  5
B0
100
AcDbEntity
  8
1
  6
CONTINUOUS
 62
           4
100
AcDbLine
 10
1020.0
 20
6742.23035217589
 11
1020.0
 21
5782.23035217589
  0
LINE
  5
AF
100
AcDbEntity
  8
1
  6
CONTINUOUS
 62
           7
100
AcDbLine
 10
1000.0
 20
300.0
 11
1000.0
 21
0.0
  0
LINE
  5
AE
100
AcDbEntity
  8
1
  6
CONTINUOUS
 62
           7
100
AcDbLine
 10
985.0
 20
40.0
 11
-985.0
 21
40.0
  0
LINE
  5
AD
100
AcDbEntity
  8
1
  6
CONTINUOUS
 62
           7
100
AcDbLine
 10
-1000.0
 20
0.0
 11
-1000.0
 21
300.0
  0
LINE
  5
AC
100
AcDbEntity
  8
1
  6
CONTINUOUS
 62
           7
100
AcDbLine
 10
-1015.0
 20
40.0
 11
-2485.0
 21
40.0
  0
LINE
  5
AB
100
AcDbEntity
  8
1
  6
LONG_DASHED
 62
           2
100
AcDbLine
 10
4912.499999999999
 20
0.0
 11
4912.499999999999
 21
-450.0
  0
LINE
  5
AA
100
AcDbEntity
  8
1
  6
CONTINUOUS
 62
           4
100
AcDbLine
 10
4382.5
 20
1980.0
 11
4382.499999999999
 21
20.0
  0
LINE
  5
A9
100
AcDbEntity
  8
1
  6
CONTINUOUS
 62
           7
100
AcDbLine
 10
4362.5
 20
0.0
 11
4362.5
 21
2150.0
  0
LINE
  5
A8
100
AcDbEntity
  8
1
  6
CONTINUOUS
 62
           7
100
AcDbLine
 10
4362.5
 20
2150.0
 11
4412.500000000001
 21
2150.0
  0
LINE
  5
A7
100
AcDbEntity
  8
1
  6
CONTINUOUS
 62
           7
100
AcDbLine
 10
4412.500000000001
 20
2130.0
 11
4412.500000000001
 21
2150.0
  0
LINE
  5
A6
100
AcDbEntity
  8
1
  6
CONTINUOUS
 62
           7
100
AcDbLine
 10
4462.499999999999
 20
1180.0
 11
4762.499999999999
 21
1180.0
  0
LINE
  5
A5
100
AcDbEntity
  8
1
  6
CONTINUOUS
 62
           7
100
AcDbLine
 10
4462.499999999999
 20
1630.0
 11
4462.499999999999
 21
1180.0
  0
LINE
  5
A4
100
AcDbEntity
  8
1
  6
CONTINUOUS
 62
           7
100
AcDbLine
 10
4762.499999999999
 20
1630.0
 11
4462.499999999999
 21
1630.0
  0
LINE
  5
A3
100
AcDbEntity
  8
1
  6
CONTINUOUS
 62
           7
100
AcDbLine
 10
4762.499999999999
 20
1180.0
 11
4762.499999999999
 21
1630.0
  0
LINE
  5
A2
100
AcDbEntity
  8
1
  6
CONTINUOUS
 62
           7
100
AcDbLine
 10
4484.999999999999
 20
1112.5
 11
4484.999999999999
 21
1180.0
  0
LINE
  5
A1
100
AcDbEntity
  8
1
  6
CONTINUOUS
 62
           7
100
AcDbLine
 10
4499.999999999999
 20
1112.5
 11
4499.999999999999
 21
1180.0
  0
LINE
  5
A0
100
AcDbEntity
  8
1
  6
CONTINUOUS
 62
           7
100
AcDbLine
 10
4479.999999999998
 20
1107.5
 11
4382.499999999999
 21
1107.5
  0
LINE
  5
9F
100
AcDbEntity
  8
1
  6
CONTINUOUS
 62
           7
100
AcDbLine
 10
4479.999999999998
 20
1092.5
 11
4382.499999999999
 21
1092.5
  0
LINE
  5
9E
100
AcDbEntity
  8
1
  6
CONTINUOUS
 62
           7
100
AcDbLine
 10
4602.499999999999
 20
1865.0
 11
4602.499999999999
 21
1953.0
  0
LINE
  5
9D
100
AcDbEntity
  8
1
  6
CONTINUOUS
 62
           7
100
AcDbLine
 10
4412.499999999999
 20
1865.0
 11
4602.499999999999
 21
1865.0
  0
LINE
  5
9C
100
AcDbEntity
  8
1
  6
CONTINUOUS
 62
           7
100
AcDbLine
 10
4412.499999999999
 20
1953.0
 11
4412.499999999999
 21
1865.0
  0
LINE
  5
9B
100
AcDbEntity
  8
1
  6
CONTINUOUS
 62
           7
100
AcDbLine
 10
4602.499999999999
 20
1953.0
 11
4412.499999999999
 21
1953.0
  0
LINE
  5
9A
100
AcDbEntity
  8
1
  6
CONTINUOUS
 62
           7
100
AcDbLine
 10
5092.499999999999
 20
1350.0
 11
4912.499999999999
 21
1350.0
  0
LINE
  5
99
100
AcDbEntity
  8
1
  6
CONTINUOUS
 62
           7
100
AcDbLine
 10
4912.499999999999
 20
1589.999999999999
 11
5092.499999999999
 21
1589.999999999999
  0
LINE
  5
98
100
AcDbEntity
  8
1
  6
CONTINUOUS
 62
           7
100
AcDbLine
 10
4912.499999999999
 20
1350.0
 11
4912.499999999999
 21
1589.999999999999
  0
LINE
  5
97
100
AcDbEntity
  8
1
  6
CONTINUOUS
 62
           7
100
AcDbLine
 10
5092.499999999999
 20
1589.999999999999
 11
5092.499999999999
 21
1350.0
  0
LINE
  5
96
100
AcDbEntity
  8
1
  6
CONTINUOUS
 62
           4
100
AcDbLine
 10
5342.499999999999
 20
1980.0
 11
4382.5
 21
1980.0
  0
LINE
  5
95
100
AcDbEntity
  8
1
  6
CONTINUOUS
 62
           7
100
AcDbLine
 10
5362.499999999999
 20
2000.0
 11
5362.499999999999
 21
2075.0
  0
LINE
  5
94
100
AcDbEntity
  8
1
  6
CONTINUOUS
 62
           7
100
AcDbLine
 10
500.0
 20
5762.23035217589
 11
500.000000000001
 21
6013.065623504202
  0
LINE
  5
93
100
AcDbEntity
  8
1
  6
DOT_CENTER
 62
           2
100
AcDbLine
 10
671.568555727025
 20
6262.23035217589
 11
-894.501607203426
 21
6262.23035217589
  0
LINE
  5
92
100
AcDbEntity
  8
1
  6
CONTINUOUS
 62
           7
100
AcDbLine
 10
-730.000000000001
 20
6762.230352175891
 11
-2550.0
 21
6762.23035217589
  0
LINE
  5
91
100
AcDbEntity
  8
1
  6
CONTINUOUS
 62
           4
100
AcDbLine
 10
-738.000000000002
 20
6742.23035217589
 11
-980.0
 21
6742.23035217589
  0
LINE
  5
90
100
AcDbEntity
  8
1
  6
CONTINUOUS
 62
           7
100
AcDbLine
 10
500.0
 20
6371.395080847576
 11
500.0
 21
6762.23035217589
  0
LINE
  5
8F
100
AcDbEntity
  8
1
  6
CONTINUOUS
 62
           7
100
AcDbLine
 10
322.928563989645
 20
5762.23035217589
 11
2550.0
 21
5762.23035217589
  0
LINE
  5
8E
100
AcDbEntity
  8
1
  6
CONTINUOUS
 62
           4
100
AcDbLine
 10
296.227766016838
 20
5742.23035217589
 11
980.0
 21
5742.23035217589
  0
LINE
  5
8D
100
AcDbEntity
  8
1
  6
CONTINUOUS
 62
           4
100
AcDbLine
 10
520.0
 20
6087.827287086788
 11
520.0
 21
5782.23035217589
  0
LINE
  5
8C
100
AcDbEntity
  8
1
  6
DOT_CENTER
 62
           2
100
AcDbLine
 10
0.0
 20
3192.539993247216
 11
0.0
 21
-630.0
  0
LINE
  5
8B
100
AcDbEntity
  8
1
  6
CONTINUOUS
 62
           4
100
AcDbLine
 10
5342.499999999999
 20
20.0
 11
4382.499999999999
 21
20.0
  0
LINE
  5
8A
100
AcDbEntity
  8
1
  6
CONTINUOUS
 62
           4
100
AcDbLine
 10
6342.499999999999
 20
1520.0
 11
6342.499999999999
 21
1980.0
  0
LINE
  5
89
100
AcDbEntity
  8
1
  6
CONTINUOUS
 62
           4
100
AcDbLine
 10
6342.499999999999
 20
1980.0
 11
5382.499999999999
 21
1980.0
  0
LINE
  5
88
100
AcDbEntity
  8
1
  6
CONTINUOUS
 62
           7
100
AcDbLine
 10
2771.37744842163
 20
0.0
 11
-2787.61636554325
 21
0.0
  0
LINE
  5
87
100
AcDbEntity
  8
1
  6
CONTINUOUS
 62
           7
100
AcDbLine
 10
2500.0
 20
0.0
 11
2500.0
 21
2000.0
  0
LINE
  5
86
100
AcDbEntity
  8
1
  6
CONTINUOUS
 62
           7
100
AcDbLine
 10
-2500.0
 20
0.0
 11
-2500.0
 21
2000.0
  0
LINE
  5
85
100
AcDbEntity
  8
1
  6
CONTINUOUS
 62
           7
100
AcDbLine
 10
2500.0
 20
1500.0
 11
-2500.0
 21
1500.0
  0
LINE
  5
84
100
AcDbEntity
  8
1
  6
CONTINUOUS
 62
           7
100
AcDbLine
 10
1500.0
 20
2000.0
 11
1500.0
 21
1500.0
  0
LINE
  5
83
100
AcDbEntity
  8
1
  6
CONTINUOUS
 62
           7
100
AcDbLine
 10
500.0
 20
2000.0
 11
500.0
 21
1500.0
  0
LINE
  5
82
100
AcDbEntity
  8
1
  6
CONTINUOUS
 62
           7
100
AcDbLine
 10
-500.0
 20
2000.0
 11
-500.0
 21
1500.0
  0
LINE
  5
81
100
AcDbEntity
  8
1
  6
CONTINUOUS
 62
           7
100
AcDbLine
 10
-1500.0
 20
2000.0
 11
-1500.0
 21
1500.0
  0
LINE
  5
80
100
AcDbEntity
  8
1
  6
CONTINUOUS
 62
           7
100
AcDbLine
 10
-499.999999999999
 20
5790.10146214917
 11
-500.0
 21
5762.23035217589
  0
LINE
  5
7F
100
AcDbEntity
  8
1
  6
DOT_CENTER
 62
           2
100
AcDbLine
 10
5662.499999999999
 20
175.0
 11
5662.499999999999
 21
25.0
  0
LINE
  5
7E
100
AcDbEntity
  8
1
  6
DOT_CENTER
 62
           2
100
AcDbLine
 10
5587.5
 20
100.0
 11
5737.499999999999
 21
100.0
  0
LINE
  5
7D
100
AcDbEntity
  8
1
  6
CONTINUOUS
 62
           7
100
AcDbLine
 10
-2319.497691536609
 20
486.513526798368
 11
-1175.0
 21
486.513526798368
  0
LINE
  5
7C
100
AcDbEntity
  8
1
  6
CONTINUOUS
 62
           7
100
AcDbLine
 10
-1000.0
 20
0.0
 11
-1000.0
 21
1500.0
  0
LINE
  5
7B
100
AcDbEntity
  8
1
  6
CONTINUOUS
 62
           7
100
AcDbLine
 10
1000.0
 20
1500.0
 11
1000.0
 21
0.0
  0
LINE
  5
7A
100
AcDbEntity
  8
1
  6
CONTINUOUS
 62
           7
100
AcDbLine
 10
2500.0
 20
1263.744569986044
 11
-2500.0
 21
1263.744569986044
  0
LINE
  5
79
100
AcDbEntity
  8
___S__
  6
DOT_CENTER
 62
           3
100
AcDbLine
 10
-2325.0
 20
567.06326659646
 11
-2325.000000000001
 21
482.067556365335
  0
LINE
  5
78
100
AcDbEntity
  8
____
  6
CONTINUOUS
 62
           3
100
AcDbLine
 10
-2319.59594704488
 20
560.459504816177
 11
-2319.59594704488
 21
558.581574068055
  0
LINE
  5
77
100
AcDbEntity
  8
____
  6
CONTINUOUS
 62
           3
100
AcDbLine
 10
-2329.912775413744
 20
560.92898750321
 11
-2320.087224586255
 21
560.92898750321
  0
LINE
  5
76
100
AcDbEntity
  8
____
  6
CONTINUOUS
 62
           3
100
AcDbLine
 10
-2330.404052955118
 20
558.581574068055
 11
-2330.404052955118
 21
560.459504816177
  0
LINE
  5
75
100
AcDbEntity
  8
____
  6
CONTINUOUS
 62
           3
100
AcDbLine
 10
-2319.497691536608
 20
522.900889853721
 11
-2330.502308463385
 21
522.900889853723
  0
LINE
  5
74
100
AcDbEntity
  8
____
  6
CONTINUOUS
 62
           3
100
AcDbLine
 10
-2319.497691536607
 20
558.581574068055
 11
-2319.497691536608
 21
522.900889853721
  0
LINE
  5
73
100
AcDbEntity
  8
____
  6
CONTINUOUS
 62
           3
100
AcDbLine
 10
-2330.502308463384
 20
558.581574068055
 11
-2319.497691536607
 21
558.581574068055
  0
LINE
  5
72
100
AcDbEntity
  8
____
  6
CONTINUOUS
 62
           3
100
AcDbLine
 10
-2330.502308463385
 20
522.900889853723
 11
-2330.502308463384
 21
558.581574068055
  0
LINE
  5
71
100
AcDbEntity
  8
____
  6
CONTINUOUS
 62
           3
100
AcDbLine
 10
-2330.40405295512
 20
484.403309517207
 11
-2330.40405295512
 21
486.281240265329
  0
LINE
  5
70
100
AcDbEntity
  8
____
  6
CONTINUOUS
 62
           3
100
AcDbLine
 10
-2320.087224586257
 20
483.933826830174
 11
-2329.912775413746
 21
483.933826830174
  0
LINE
  5
6F
100
AcDbEntity
  8
____
  6
CONTINUOUS
 62
           3
100
AcDbLine
 10
-2319.595947044882
 20
486.281240265329
 11
-2319.595947044882
 21
484.403309517207
  0
LINE
  5
6E
100
AcDbEntity
  8
____
  6
CONTINUOUS
 62
           3
100
AcDbLine
 10
-2330.158414184432
 20
522.900889853723
 11
-2330.158414184432
 21
521.961924479661
  0
LINE
  5
6D
100
AcDbEntity
  8
____
  6
CONTINUOUS
 62
           3
100
AcDbLine
 10
-2319.841585815569
 20
522.900889853721
 11
-2330.158414184432
 21
522.900889853723
  0
LINE
  5
6C
100
AcDbEntity
  8
____
  6
CONTINUOUS
 62
           3
100
AcDbLine
 10
-2319.841585815569
 20
521.961924479661
 11
-2319.841585815569
 21
522.900889853721
  0
LINE
  5
6B
100
AcDbEntity
  8
____
  6
CONTINUOUS
 62
           3
100
AcDbLine
 10
-2330.404052955118
 20
560.459504816177
 11
-2319.59594704488
 21
560.459504816177
  0
LINE
  5
6A
100
AcDbEntity
  8
____
  6
CONTINUOUS
 62
           3
100
AcDbLine
 10
-2330.502308463385
 20
521.961924479661
 11
-2319.497691536608
 21
521.961924479661
  0
LINE
  5
69
100
AcDbEntity
  8
____
  6
CONTINUOUS
 62
           3
100
AcDbLine
 10
-2330.502308463385
 20
486.281240265329
 11
-2330.502308463385
 21
521.961924479661
  0
LINE
  5
68
100
AcDbEntity
  8
____
  6
CONTINUOUS
 62
           3
100
AcDbLine
 10
-2319.497691536609
 20
486.281240265329
 11
-2330.502308463385
 21
486.281240265329
  0
LINE
  5
67
100
AcDbEntity
  8
____
  6
CONTINUOUS
 62
           3
100
AcDbLine
 10
-2319.497691536608
 20
521.961924479661
 11
-2319.497691536609
 21
486.281240265329
  0
LINE
  5
66
100
AcDbEntity
  8
____
  6
CONTINUOUS
 62
           3
100
AcDbLine
 10
-2330.404052955118
 20
560.459504816177
 11
-2329.912775413744
 21
560.92898750321
  0
LINE
  5
65
100
AcDbEntity
  8
____
  6
CONTINUOUS
 62
           3
100
AcDbLine
 10
-2320.087224586255
 20
560.92898750321
 11
-2319.59594704488
 21
560.459504816177
  0
LINE
  5
64
100
AcDbEntity
  8
____
  6
CONTINUOUS
 62
           3
100
AcDbLine
 10
-2329.912775413746
 20
483.933826830174
 11
-2330.40405295512
 21
484.403309517207
  0
LINE
  5
63
100
AcDbEntity
  8
____
  6
CONTINUOUS
 62
           3
100
AcDbLine
 10
-2319.595947044882
 20
484.403309517207
 11
-2320.087224586257
 21
483.933826830174
  0
LINE
  5
62
100
AcDbEntity
  8
____
  6
CONTINUOUS
 62
           3
100
AcDbLine
 10
-2330.40405295512
 20
484.403309517207
 11
-2319.595947044882
 21
484.403309517207
  0
LINE
  5
61
100
AcDbEntity
  8
____
  6
CONTINUOUS
 62
           3
100
AcDbLine
 10
-2330.404052955096
 20
1038.392880207259
 11
-2319.595947044858
 21
1038.392880207259
  0
LINE
  5
60
100
AcDbEntity
  8
____
  6
CONTINUOUS
 62
           3
100
AcDbLine
 10
-2319.595947044858
 20
1038.392880207259
 11
-2320.087224586232
 21
1037.92339752023
  0
LINE
  5
5F
100
AcDbEntity
  8
____
  6
CONTINUOUS
 62
           3
100
AcDbLine
 10
-2329.912775413721
 20
1037.92339752023
 11
-2330.404052955096
 21
1038.392880207259
  0
LINE
  5
5E
100
AcDbEntity
  8
____
  6
CONTINUOUS
 62
           3
100
AcDbLine
 10
-2320.087224586232
 20
1114.918558193263
 11
-2319.595947044857
 21
1114.449075506231
  0
LINE
  5
5D
100
AcDbEntity
  8
____
  6
CONTINUOUS
 62
           3
100
AcDbLine
 10
-2330.404052955095
 20
1114.449075506231
 11
-2329.91277541372
 21
1114.918558193263
  0
LINE
  5
5C
100
AcDbEntity
  8
____
  6
CONTINUOUS
 62
           3
100
AcDbLine
 10
-2319.497691536592
 20
1075.951495169715
 11
-2319.497691536592
 21
1040.270810955382
  0
LINE
  5
5B
100
AcDbEntity
  8
____
  6
CONTINUOUS
 62
           3
100
AcDbLine
 10
-2319.497691536592
 20
1040.270810955382
 11
-2330.502308463369
 21
1040.270810955382
  0
LINE
  5
5A
100
AcDbEntity
  8
____
  6
CONTINUOUS
 62
           3
100
AcDbLine
 10
-2330.502308463369
 20
1040.270810955382
 11
-2330.502308463369
 21
1075.951495169715
  0
LINE
  5
59
100
AcDbEntity
  8
____
  6
CONTINUOUS
 62
           3
100
AcDbLine
 10
-2330.502308463369
 20
1075.951495169715
 11
-2319.497691536592
 21
1075.951495169715
  0
LINE
  5
58
100
AcDbEntity
  8
____
  6
CONTINUOUS
 62
           3
100
AcDbLine
 10
-2330.404052955095
 20
1114.449075506231
 11
-2319.595947044857
 21
1114.449075506231
  0
LINE
  5
57
100
AcDbEntity
  8
____
  6
CONTINUOUS
 62
           3
100
AcDbLine
 10
-2319.841585815545
 20
1075.951495169715
 11
-2319.841585815545
 21
1076.890460543777
  0
LINE
  5
56
100
AcDbEntity
  8
____
  6
CONTINUOUS
 62
           3
100
AcDbLine
 10
-2319.841585815545
 20
1076.890460543777
 11
-2330.158414184408
 21
1076.890460543777
  0
LINE
  5
55
100
AcDbEntity
  8
____
  6
CONTINUOUS
 62
           3
100
AcDbLine
 10
-2330.158414184408
 20
1076.890460543777
 11
-2330.158414184408
 21
1075.951495169715
  0
LINE
  5
54
100
AcDbEntity
  8
____
  6
CONTINUOUS
 62
           3
100
AcDbLine
 10
-2319.595947044858
 20
1040.270810955382
 11
-2319.595947044858
 21
1038.392880207259
  0
LINE
  5
53
100
AcDbEntity
  8
____
  6
CONTINUOUS
 62
           3
100
AcDbLine
 10
-2320.087224586232
 20
1037.92339752023
 11
-2329.912775413721
 21
1037.92339752023
  0
LINE
  5
52
100
AcDbEntity
  8
____
  6
CONTINUOUS
 62
           3
100
AcDbLine
 10
-2330.404052955096
 20
1038.392880207259
 11
-2330.404052955096
 21
1040.270810955382
  0
LINE
  5
51
100
AcDbEntity
  8
____
  6
CONTINUOUS
 62
           3
100
AcDbLine
 10
-2330.502308463369
 20
1076.890460543777
 11
-2330.502308463368
 21
1112.571144758109
  0
LINE
  5
50
100
AcDbEntity
  8
____
  6
CONTINUOUS
 62
           3
100
AcDbLine
 10
-2330.502308463368
 20
1112.571144758109
 11
-2319.497691536591
 21
1112.571144758107
  0
LINE
  5
4F
100
AcDbEntity
  8
____
  6
CONTINUOUS
 62
           3
100
AcDbLine
 10
-2319.497691536591
 20
1112.571144758107
 11
-2319.497691536592
 21
1076.890460543777
  0
LINE
  5
4E
100
AcDbEntity
  8
____
  6
CONTINUOUS
 62
           3
100
AcDbLine
 10
-2319.497691536592
 20
1076.890460543777
 11
-2330.502308463369
 21
1076.890460543777
  0
LINE
  5
4D
100
AcDbEntity
  8
____
  6
CONTINUOUS
 62
           3
100
AcDbLine
 10
-2330.404052955095
 20
1112.571144758109
 11
-2330.404052955095
 21
1114.449075506231
  0
LINE
  5
4C
100
AcDbEntity
  8
____
  6
CONTINUOUS
 62
           3
100
AcDbLine
 10
-2329.91277541372
 20
1114.918558193263
 11
-2320.087224586232
 21
1114.918558193263
  0
LINE
  5
4B
100
AcDbEntity
  8
____
  6
CONTINUOUS
 62
           3
100
AcDbLine
 10
-2319.595947044857
 20
1114.449075506231
 11
-2319.595947044857
 21
1112.571144758107
  0
LINE
  5
4A
100
AcDbEntity
  8
___S__
  6
DOT_CENTER
 62
           3
100
AcDbLine
 10
-2324.999999999976
 20
1121.052837286497
 11
-2324.999999999977
 21
1036.057127055388
  0
LINE
  5
49
100
AcDbEntity
  8
1
  6
CONTINUOUS
 62
           7
100
AcDbLine
 10
-2325.0
 20
441.513526798366
 11
-1175.0
 21
441.513526798366
  0
LINE
  5
48
100
AcDbEntity
  8
1
  6
CONTINUOUS
 62
           7
100
AcDbLine
 10
-1175.0
 20
441.513526798366
 11
-1175.0
 21
1146.282992387802
  0
LINE
  5
47
100
AcDbEntity
  8
1
  6
CONTINUOUS
 62
           7
100
AcDbLine
 10
-2325.0
 20
441.513526798366
 11
-2325.0
 21
1146.282992387802
  0
LINE
  5
46
100
AcDbEntity
  8
1
  6
CONTINUOUS
 62
           7
100
AcDbLine
 10
-1175.0
 20
1146.282992387802
 11
-2325.0
 21
1146.282992387802
  0
LINE
  5
45
100
AcDbEntity
  8
1
  6
CONTINUOUS
 62
           3
100
AcDbLine
 10
-1235.604203678126
 20
794.32810932706
 11
-1237.992149678107
 21
767.070985327058
  0
LINE
  5
44
100
AcDbEntity
  8
1
  6
CONTINUOUS
 62
           3
100
AcDbLine
 10
-1237.992149678107
 20
823.33071132706
 11
-1235.604203678126
 21
796.073587327061
  0
LINE
  5
43
100
AcDbEntity
  8
1
  6
CONTINUOUS
 62
           3
100
AcDbLine
 10
-1247.451285678126
 20
794.32810932706
 11
-1245.063339678116
 21
767.070985327058
  0
LINE
  5
42
100
AcDbEntity
  8
1
  6
CONTINUOUS
 62
           3
100
AcDbLine
 10
-1245.063339678116
 20
823.33071132706
 11
-1247.451285678126
 21
796.073587327061
  0
LINE
  5
41
100
AcDbEntity
  8
1
  6
DOT_CENTER
 62
           3
100
AcDbLine
 10
-1196.527744678122
 20
795.200848327049
 11
-1286.525199678127
 21
795.200848327049
  0
LINE
  5
40
100
AcDbEntity
  8
1
  6
DOT_CENTER
 62
           3
100
AcDbLine
 10
-1241.527744678122
 20
840.200848327049
 11
-1241.527744678122
 21
750.202277327049
  0
LINE
  5
3F
100
AcDbEntity
  8
1
  6
CONTINUOUS
 62
           4
100
AcDbLine
 10
5382.499999999998
 20
1480.0
 11
5382.499999999999
 21
20.0
  0
LINE
  5
3E
100
AcDbEntity
  8
1
  6
CONTINUOUS
 62
           4
100
AcDbLine
 10
6342.499999999999
 20
1480.0
 11
5734.140300526799
 21
1480.0
  0
LINE
  5
3D
100
AcDbEntity
  8
1
  6
CONTINUOUS
 62
           4
100
AcDbLine
 10
5342.499999999999
 20
20.0
 11
5342.499999999998
 21
1669.243743197743
  0
LINE
  5
3C
100
AcDbEntity
  8
1
  6
CONTINUOUS
 62
           7
100
AcDbLine
 10
5362.499999999999
 20
0.0
 11
5362.499999999998
 21
1684.980139870122
  0
LINE
  5
3B
100
AcDbEntity
  8
1
  6
CONTINUOUS
 62
           7
100
AcDbLine
 10
6362.499999999998
 20
1500.0
 11
5713.320421940537
 21
1500.0
  0
LINE
  5
3A
100
AcDbEntity
  8
1
  6
CONTINUOUS
 62
           4
100
AcDbLine
 10
5382.499999999999
 20
1980.0
 11
5382.499999999998
 21
1697.110868296099
  0
LINE
  5
39
100
AcDbEntity
  8
1
  6
CONTINUOUS
 62
           4
100
AcDbLine
 10
5382.499999999998
 20
1520.0
 11
5682.006713441553
 21
1520.0
  0
LINE
  5
38
100
AcDbEntity
  8
1
  6
CONTINUOUS
 62
           4
100
AcDbLine
 10
5342.499999999998
 20
1681.205882899818
 11
5342.499999999999
 21
1980.0
  0
LINE
  5
37
100
AcDbEntity
  8
1
  6
CONTINUOUS
 62
           7
100
AcDbLine
 10
5362.499999999998
 20
1693.590131570531
 11
5362.499999999999
 21
2000.0
  0
LINE
  5
36
100
AcDbEntity
  8
1
  6
CONTINUOUS
 62
           4
100
AcDbLine
 10
5382.499999999998
 20
1689.110868296101
 11
5382.499999999998
 21
1520.0
  0
LINE
  5
35
100
AcDbEntity
  8
1
  6
CONTINUOUS
 62
           4
100
AcDbLine
 10
5693.320421940537
 20
1520.0
 11
6342.499999999999
 21
1520.0
  0
LINE
  5
34
100
AcDbEntity
  8
1
  6
CONTINUOUS
 62
           7
100
AcDbLine
 10
5702.006713441553
 20
1500.0
 11
5362.499999999998
 21
1500.0
  0
LINE
  5
33
100
AcDbEntity
  8
1
  6
CONTINUOUS
 62
           4
100
AcDbLine
 10
5722.006713441553
 20
1480.0
 11
5382.499999999998
 21
1480.0
  0
LINE
  5
32
100
AcDbEntity
  8
1
  6
CONTINUOUS
 62
           7
100
AcDbLine
 10
5092.5
 20
1640.0
 11
4912.499999999999
 21
1640.0
  0
LINE
  5
31
100
AcDbEntity
  8
1
  6
CONTINUOUS
 62
           7
100
AcDbLine
 10
4912.5
 20
1753.0
 11
5092.5
 21
1753.0
  0
LINE
  5
30
100
AcDbEntity
  8
1
  6
CONTINUOUS
 62
           7
100
AcDbLine
 10
5092.5
 20
1753.0
 11
5092.5
 21
1640.0
  0
LINE
  5
2F
100
AcDbEntity
  8
1
  6
CONTINUOUS
 62
           7
100
AcDbLine
 10
4912.499999999999
 20
1640.0
 11
4912.5
 21
1753.0
  0
POINT
  5
2E
100
AcDbEntity
  8
0
 62
           3
100
AcDbPoint
 10
5195.899996721736
 20
1365.000000000118
  0
ENDSEC
  0
SECTION
  2
OBJECTS
  0
DICTIONARY
  5
19
100
AcDbDictionary
  3
ACAD_GROUP
350
1A
  3
ACAD_MLINESTYLE
350
1B
  0
DICTIONARY
  5
1A
102
{ACAD_REACTORS
330
19
102
}
100
AcDbDictionary
  0
DICTIONARY
  5
1B
102
{ACAD_REACTORS
330
19
102
}
100
AcDbDictionary
  3
STANDARD
350
1C
  0
MLINESTYLE
  5
1C
102
{ACAD_REACTORS
330
1B
102
}
100
AcDbMlineStyle
  2
STANDARD
 70
           0
  3

 62
           0
 51
90.0
 52
90.0
 71
           2
 49
0.5
 62
         256
  6
BYLAYER
 49
-0.5
 62
         256
  6
BYLAYER
  0
ENDSEC
  0
EOF
