  0
SECTION
  2
HEADER
  9
$ACADVER
  1
AC1014
  9
$ACADMAINTVER
 70
           0
  9
$DWGCODEPAGE
  3
DOS932
  9
$INSBASE
 10
0.0
 20
0.0
 30
0.0
  9
$EXTMIN
 10
1.000000000000E+20
 20
1.000000000000E+20
 30
1.000000000000E+20
  9
$EXTMAX
 10
-1.000000000000E+20
 20
-1.000000000000E+20
 30
-1.000000000000E+20
  9
$LIMMIN
 10
0.0
 20
0.0
  9
$LIMMAX
 10
0.0
 20
0.0
  9
$ORTHOMODE
 70
           0
  9
$REGENMODE
 70
           1
  9
$FILLMODE
 70
           1
  9
$QTEXTMODE
 70
           0
  9
$MIRRTEXT
 70
           1
  9
$DRAGMODE
 70
           2
  9
$LTSCALE
 40
1.0
  9
$OSMODE
 70
           0
  9
$ATTMODE
 70
           1
  9
$TEXTSIZE
 40
0.2
  9
$TRACEWID
 40
0.05
  9
$TEXTSTYLE
  7
STANDARD
  9
$CLAYER
  8
0
  9
$CELTYPE
  6
CONTINUOUS
  9
$CECOLOR
 62
         256
  9
$CELTSCALE
 40
1.0
  9
$DELOBJ
 70
           1
  9
$DISPSILH
 70
           0
  9
$DIMSCALE
 40
1.0
  9
$DIMASZ
 40
0.18
  9
$DIMEXO
 40
0.0625
  9
$DIMDLI
 40
0.38
  9
$DIMRND
 40
0.0
  9
$DIMDLE
 40
0.0
  9
$DIMEXE
 40
0.18
  9
$DIMTP
 40
0.0
  9
$DIMTM
 40
0.0
  9
$DIMTXT
 40
0.18
  9
$DIMCEN
 40
0.09
  9
$DIMTSZ
 40
0.0
  9
$DIMTOL
 70
           0
  9
$DIMLIM
 70
           0
  9
$DIMTIH
 70
           1
  9
$DIMTOH
 70
           1
  9
$DIMSE1
 70
           0
  9
$DIMSE2
 70
           0
  9
$DIMTAD
 70
           0
  9
$DIMZIN
 70
           0
  9
$DIMBLK
  1

  9
$DIMASO
 70
           1
  9
$DIMSHO
 70
           1
  9
$DIMPOST
  1

  9
$DIMAPOST
  1

  9
$DIMALT
 70
           0
  9
$DIMALTD
 70
           2
  9
$DIMALTF
 40
25.4
  9
$DIMLFAC
 40
1.0
  9
$DIMTOFL
 70
           0
  9
$DIMTVP
 40
0.0
  9
$DIMTIX
 70
           0
  9
$DIMSOXD
 70
           0
  9
$DIMSAH
 70
           0
  9
$DIMBLK1
  1

  9
$DIMBLK2
  1

  9
$DIMSTYLE
  2
STANDARD
  9
$DIMCLRD
 70
           0
  9
$DIMCLRE
 70
           0
  9
$DIMCLRT
 70
           0
  9
$DIMTFAC
 40
1.0
  9
$DIMGAP
 40
0.09
  9
$DIMJUST
 70
           0
  9
$DIMSD1
 70
           0
  9
$DIMSD2
 70
           0
  9
$DIMTOLJ
 70
           1
  9
$DIMTZIN
 70
           0
  9
$DIMALTZ
 70
           0
  9
$DIMALTTZ
 70
           0
  9
$DIMFIT
 70
           3
  9
$DIMUPT
 70
           0
  9
$DIMUNIT
 70
           2
  9
$DIMDEC
 70
           4
  9
$DIMTDEC
 70
           4
  9
$DIMALTU
 70
           2
  9
$DIMALTTD
 70
           2
  9
$DIMTXSTY
  7
STANDARD
  9
$DIMAUNIT
 70
           0
  9
$LUNITS
 70
           2
  9
$LUPREC
 70
           4
  9
$SKETCHINC
 40
0.1
  9
$FILLETRAD
 40
0.0
  9
$AUNITS
 70
           0
  9
$AUPREC
 70
           0
  9
$MENU
  1
acad
  9
$ELEVATION
 40
0.0
  9
$PELEVATION
 40
0.0
  9
$THICKNESS
 40
0.0
  9
$LIMCHECK
 70
           0
  9
$BLIPMODE
 70
           1
  9
$CHAMFERA
 40
0.0
  9
$CHAMFERB
 40
0.0
  9
$CHAMFERC
 40
0.0
  9
$CHAMFERD
 40
0.0
  9
$SKPOLY
 70
           0
  9
$TDCREATE
 40
0.000000000
  9
$TDUPDATE
 40
0.000000000
  9
$TDINDWG
 40
0.0000000000
  9
$TDUSRTIMER
 40
0.0000000000
  9
$USRTIMER
 70
           1
  9
$ANGBASE
 50
0.0
  9
$ANGDIR
 70
           0
  9
$PDMODE
 70
           0
  9
$PDSIZE
 40
0.0
  9
$PLINEWID
 40
0.0
  9
$COORDS
 70
           0
  9
$SPLFRAME
 70
           0
  9
$SPLINETYPE
 70
           6
  9
$SPLINESEGS
 70
           8
  9
$ATTDIA
 70
           0
  9
$ATTREQ
 70
           1
  9
$HANDLING
 70
           1
  9
$HANDSEED
  5
371
  9
$SURFTAB1
 70
           6
  9
$SURFTAB2
 70
           6
  9
$SURFTYPE
 70
           6
  9
$SURFU
 70
           6
  9
$SURFV
 70
           6
  9
$UCSNAME
  2

  9
$UCSORG
 10
0.0
 20
0.0
 30
0.0
  9
$UCSXDIR
 10
1.0
 20
0.0
 30
0.0
  9
$UCSYDIR
 10
0.0
 20
1.0
 30
0.0
  9
$PUCSNAME
  2

  9
$PUCSORG
 10
0.0
 20
0.0
 30
0.0
  9
$PUCSXDIR
 10
1.0
 20
0.0
 30
0.0
  9
$PUCSYDIR
 10
0.0
 20
1.0
 30
0.0
  9
$USERI1
 70
           0
  9
$USERI2
 70
           0
  9
$USERI3
 70
           0
  9
$USERI4
 70
           0
  9
$USERI5
 70
           0
  9
$USERR1
 40
0.0
  9
$USERR2
 40
0.0
  9
$USERR3
 40
0.0
  9
$USERR4
 40
0.0
  9
$USERR5
 40
0.0
  9
$WORLDVIEW
 70
           1
  9
$SHADEDGE
 70
           3
  9
$SHADEDIF
 70
          70
  9
$TILEMODE
 70
           1
  9
$MAXACTVP
 70
          16
  9
$PINSBASE
 10
0.0
 20
0.0
 30
0.0
  9
$PLIMCHECK
 70
           0
  9
$PEXTMIN
 10
1.000000000000E+20
 20
1.000000000000E+20
 30
1.000000000000E+20
  9
$PEXTMAX
 10
-1.000000000000E+20
 20
-1.000000000000E+20
 30
-1.000000000000E+20
  9
$PLIMMIN
 10
0.0
 20
0.0
  9
$PLIMMAX
 10
12.0
 20
9.0
  9
$UNITMODE
 70
           0
  9
$VISRETAIN
 70
           0
  9
$PLINEGEN
 70
           1
  9
$PSLTSCALE
 70
           0
  9
$TREEDEPTH
 70
        3020
  9
$PICKSTYLE
 70
           1
  9
$CMLSTYLE
  2
STANDARD
  9
$CMLJUST
 70
           0
  9
$CMLSCALE
 40
1.0
  9
$PROXYGRAPHICS
 70
           0
  9
$MEASUREMENT
 70
           0
  0
ENDSEC
  0
SECTION
  2
CLASSES
  0
CLASS
  1
LWPOLYLINE
  2
AcDbPolyline
  3
"AutoCAD"
 90
        0
280
           0
281
           1
  0
CLASS
  1
IMAGE
  2
AcDbRasterImage
  3
ISM
 90
      127
280
           0
281
           1
  0
CLASS
  1
OLE2FRAME
  2
AcDbOle2Frame
  3
""
 90
        0
280
           0
281
           1
  0
CLASS
  1
HATCH
  2
AcDbHatch
  3
"ACAD_SEDONA"
 90
        0
280
           0
281
           1
  0
CLASS
  1
DICTIONARYVAR
  2
AcDbDictionaryVar
  3
"AutoCAD"
 90
        0
280
           0
281
           0
  0
CLASS
  1
RASTERVARIABLES
  2
AcDbRasterVariables
  3
ISM
 90
        0
280
           0
281
           0
  0
CLASS
  1
IMAGEDEF
  2
AcDbRasterImageDef
  3
ISM
 90
        0
280
           0
281
           0
  0
CLASS
  1
IMAGEDEF_REACTOR
  2
AcDbRasterImageDefReactor
  3
ISM
 90
        1
280
           0
281
           0
  0
CLASS
  1
IDBUFFER
  2
AcDbIdBuffer
  3
"Acad"
 90
        0
280
           0
281
           0
  0
CLASS
  1
SPATIAL_FILTER
  2
AcDbSpatialFilter
  3
"Acad"
 90
        0
280
           0
281
           0
  0
CLASS
  1
XRECORD
  2
AcDbXrecord
  3
"<Built In>"
 90
        0
280
           0
281
           0
  0
CLASS
  1
SORTENTSTABLE
  2
AcDbSortentsTable
  3
"AutoCAD"
 90
        0
280
           0
281
           0
  0
CLASS
  1
LAYER_INDEX
  2
AcDbLayerIndex
  3
"Acad"
 90
        0
280
           0
281
           0
  0
CLASS
  1
SPATIAL_INDEX
  2
AcDbSpatialIndex
  3
"Acad"
 90
        0
280
           0
281
           0
  0
CLASS
  1
OBJECT_PTR
  2
CAseDLPNTableRecord
  3
"ASE-LPNTableRecord"
 90
        1
280
           0
281
           0
  0
CLASS
  1
LAYOUT
  2
AcDbLayout
  3
"AutoCAD 2000"
 90
        1
280
           0
281
           0
  0
CLASS
  1
PLOTSETTINGS
  2
AcDbPlotSettings
  3
"AutoCAD 2000"
 90
        1
280
           0
281
           0
  0
CLASS
  1
ACDBDICTIONARYWDFLT
  2
AcDbDictionaryWithDefault
  3
"AutoCAD 2000"
 90
        1
280
           0
281
           0
  0
CLASS
  1
ACDBPLACEHOLDER
  2
AcDbPlaceHolder
  3
"AutoCAD 2000"
 90
        1
280
           0
281
           0
  0
CLASS
  1
VBA_PROJECT
  2
AcDbVbaProject
  3
"acadvba"
 90
        1
280
           0
281
           0
  0
CLASS
  1
WIPEOUT
  2
AcDbWipeout
  3
WipeOut|AutoCAD Express Tool|expresstools@autodesk.com
 90
      127
280
           0
281
           1
  0
CLASS
  1
WIPEOUTVARIABLES
  2
AcDbWipeoutVariables
  3
WipeOut|AutoCAD Express Tool|expresstools@autodesk.com
 90
        0
280
           0
281
           0
  0
CLASS
  1
RTEXT
  2
RText
  3
RText|AutoCAD Express Tool|expresstools@autodesk.com
 90
        0
280
           0
281
           1
  0
CLASS
  1
ARCALIGNEDTEXT
  2
AcDbArcAlignedText
  3
ATEXT|AutoCAD Express Tool|expresstools@autodesk.com
 90
        0
280
           0
281
           1
  0
ENDSEC
  0
SECTION
  2
TABLES
  0
TABLE
  2
VPORT
  5
7
100
AcDbSymbolTable
 70
           1
  0
VPORT
  5
15
100
AcDbSymbolTableRecord
100
AcDbViewportTableRecord
  2
*ACTIVE
 70
           0
 10
0.0
 20
0.0
 11
1.0
 21
1.0
 12
6.591288
 22
4.579184
 13
0.0
 23
0.0
 14
1.0
 24
1.0
 15
0.0
 25
0.0
 16
0.0
 26
0.0
 36
1.0
 17
0.0
 27
0.0
 37
0.0
 40
9.158369
 41
0.688564
 42
50.0
 43
0.0
 44
0.0
 50
0.0
 51
0.0
 71
           0
 72
         100
 73
           1
 74
           1
 75
           0
 76
           0
 77
           0
 78
           0
  0
ENDTAB
  0
TABLE
  2
LTYPE
  5
4
100
AcDbSymbolTable
 70
          10
  0
LTYPE
  5
11
100
AcDbSymbolTableRecord
100
AcDbLinetypeTableRecord
  2
BYBLOCK
 70
          64
  3

 72
          65
 73
           0
 40
0.0
  0
LTYPE
  5
12
100
AcDbSymbolTableRecord
100
AcDbLinetypeTableRecord
  2
BYLAYER
 70
          64
  3

 72
          65
 73
           0
 40
0.0
  0
LTYPE
  5
13
100
AcDbSymbolTableRecord
100
AcDbLinetypeTableRecord
  2
CONTINUOUS
 70
          64
  3
Solid line
 72
          65
 73
           0
 40
0.0
  0
LTYPE
  5
1D
100
AcDbSymbolTableRecord
100
AcDbLinetypeTableRecord
  2
DASHED
 70
          64
  3
Dashed
 72
          65
 73
           2
 40
15.0
 49
12.0
 74
           0
 49
-3.0
 74
           0
  0
LTYPE
  5
1E
100
AcDbSymbolTableRecord
100
AcDbLinetypeTableRecord
  2
DOTTED
 70
          64
  3
Dotted
 72
          65
 73
           2
 40
3.5
 49
0.5
 74
           0
 49
-3.0
 74
           0
  0
LTYPE
  5
1F
100
AcDbSymbolTableRecord
100
AcDbLinetypeTableRecord
  2
DOT_CENTER
 70
          64
  3
Dot_Center
 72
          65
 73
           4
 40
2.0
 49
1.25
 74
           0
 49
-0.25
 74
           0
 49
0.25
 74
           0
 49
-0.25
 74
           0
  0
LTYPE
  5
20
100
AcDbSymbolTableRecord
100
AcDbLinetypeTableRecord
  2
LONG_DASHED
 70
          64
  3
Long_Dashed
 72
          65
 73
           2
 40
2.0
 49
1.5
 74
           0
 49
-0.5
 74
           0
  0
LTYPE
  5
21
100
AcDbSymbolTableRecord
100
AcDbLinetypeTableRecord
  2
DASH_CENTER
 70
          64
  3
Dash_Center
 72
          65
 73
           4
 40
36.0
 49
24.0
 74
           0
 49
-3.0
 74
           0
 49
6.0
 74
           0
 49
-3.0
 74
           0
  0
LTYPE
  5
22
100
AcDbSymbolTableRecord
100
AcDbLinetypeTableRecord
  2
PHANTOM
 70
          64
  3
Phantom
 72
          65
 73
           6
 40
2.5
 49
1.25
 74
           0
 49
-0.25
 74
           0
 49
0.25
 74
           0
 49
-0.25
 74
           0
 49
0.25
 74
           0
 49
-0.25
 74
           0
  0
LTYPE
  5
23
100
AcDbSymbolTableRecord
100
AcDbLinetypeTableRecord
  2
CENTER_DASH_DASH
 70
          64
  3
Center_Dash_Dash
 72
          65
 73
           6
 40
22.0
 49
12.0
 74
           0
 49
-3.0
 74
           0
 49
0.5
 74
           0
 49
-3.0
 74
           0
 49
0.5
 74
           0
 49
-3.0
 74
           0
  0
ENDTAB
  0
TABLE
  2
LAYER
  5
2
100
AcDbSymbolTable
 70
           7
  0
LAYER
  5
14
100
AcDbSymbolTableRecord
100
AcDbLayerTableRecord
  2
0
 70
           0
 62
           7
  6
CONTINUOUS
  0
LAYER
  5
24
100
AcDbSymbolTableRecord
100
AcDbLayerTableRecord
  2
___S__
 70
           0
 62
           7
  6
CONTINUOUS
  0
LAYER
  5
25
100
AcDbSymbolTableRecord
100
AcDbLayerTableRecord
  2
FORMAT
 70
           0
 62
           7
  6
CONTINUOUS
  0
LAYER
  5
26
100
AcDbSymbolTableRecord
100
AcDbLayerTableRecord
  2
1
 70
           0
 62
           7
  6
CONTINUOUS
  0
LAYER
  5
27
100
AcDbSymbolTableRecord
100
AcDbLayerTableRecord
  2
2
 70
           0
 62
           7
  6
CONTINUOUS
  0
LAYER
  5
28
100
AcDbSymbolTableRecord
100
AcDbLayerTableRecord
  2
7
 70
           0
 62
           7
  6
CONTINUOUS
  0
LAYER
  5
29
100
AcDbSymbolTableRecord
100
AcDbLayerTableRecord
  2
____
 70
           0
 62
           7
  6
CONTINUOUS
  0
ENDTAB
  0
TABLE
  2
STYLE
  5
3
100
AcDbSymbolTable
 70
           1
  0
STYLE
  5
17
100
AcDbSymbolTableRecord
100
AcDbTextStyleTableRecord
  2
STANDARD
 70
           0
 40
0.0
 41
1.0
 50
0.0
 71
           0
 42
0.0
  3
txt
  4

  0
ENDTAB
  0
TABLE
  2
VIEW
  5
5
100
AcDbSymbolTable
 70
           0
  0
ENDTAB
  0
TABLE
  2
UCS
  5
6
100
AcDbSymbolTable
 70
           0
  0
ENDTAB
  0
TABLE
  2
APPID
  5
8
100
AcDbSymbolTable
 70
           1
  0
APPID
  5
16
100
AcDbSymbolTableRecord
100
AcDbRegAppTableRecord
  2
ACAD
 70
           0
  0
ENDTAB
  0
TABLE
  2
DIMSTYLE
  5
9
100
AcDbSymbolTable
 70
           1
  0
DIMSTYLE
105
18
100
AcDbSymbolTableRecord
100
AcDbDimStyleTableRecord
  2
STANDARD
 70
           0
  3

  4

  5

  6

  7

 40
1.0
 41
0.18
 42
0.0625
 43
0.38
 44
0.18
 45
0.0
 46
0.0
 47
0.0
 48
0.0
 71
           0
 72
           0
 73
           1
 74
           1
 75
           0
 76
           0
 77
           0
 78
           0
140
0.18
141
0.09
142
0.0
143
25.4
144
1.0
145
0.0
146
1.0
147
0.09
170
           0
171
           2
172
           0
173
           0
174
           0
175
           0
176
           0
177
           0
178
           0
270
           2
271
           4
272
           4
273
           2
274
           2
275
           0
280
           0
281
           0
282
           0
283
           1
284
           0
285
           0
286
           0
287
           0
288
           0
340
17
  0
ENDTAB
  0
TABLE
  2
BLOCK_RECORD
  5
1
100
AcDbSymbolTable
 70
           0
  0
BLOCK_RECORD
  5
A
100
AcDbSymbolTableRecord
100
AcDbBlockTableRecord
  2
*MODEL_SPACE
  0
BLOCK_RECORD
  5
B
100
AcDbSymbolTableRecord
100
AcDbBlockTableRecord
  2
*PAPER_SPACE
  0
ENDTAB
  0
ENDSEC
  0
SECTION
  2
BLOCKS
  0
BLOCK
  5
D
100
AcDbEntity
  8
0
100
AcDbBlockBegin
  2
*MODEL_SPACE
 70
           0
 10
0.0
 20
0.0
 30
0.0
  3
*MODEL_SPACE
  1

  0
ENDBLK
  5
E
100
AcDbEntity
  8
0
100
AcDbBlockEnd
  0
BLOCK
  5
F
100
AcDbEntity
 67
           1
  8
0
100
AcDbBlockBegin
  2
*PAPER_SPACE
 70
           0
 10
0.0
 20
0.0
 30
0.0
  3
*PAPER_SPACE
  1

  0
ENDBLK
  5
10
100
AcDbEntity
 67
           1
  8
0
100
AcDbBlockEnd
  0
ENDSEC
  0
SECTION
  2
ENTITIES
  0
HATCH
  5
36F
100
AcDbEntity
  8
0
  6
CONTINUOUS
 62
           2
100
AcDbHatch
 10
0.0
 20
0.0
 30
0.0
210
0.0
220
0.0
230
1.0
  2
USER
 70
           0
 71
           1
 91
        1
 92
        1
 93
        8
 72
           1
 10
3590.6729551872272
 20
1219.750000000003
 11
3590.6729551872272
 21
1239.750000000003
 72
           1
 10
3512.6729551872299
 20
1219.750000000003
 11
3590.6729551872272
 21
1219.750000000003
 72
           2
 10
3512.6729551872299
 20
1256.750000000003
 40
37.0
 50
180.0
 51
-90.0
 73
           1
 72
           1
 10
3475.6729551872299
 20
1270.000000000003
 11
3475.6729551872299
 21
1256.750000000003
 72
           1
 10
3495.6729551872299
 20
1256.750000000003
 11
3495.6729551872299
 21
1270.000000000003
 72
           1
 10
3495.6729551872299
 20
1270.000000000003
 11
3475.6729551872299
 21
1270.000000000003
 72
           2
 10
3512.6729551872299
 20
1256.750000000003
 40
17.0
 50
180.0
 51
-90.0
 73
           1
 72
           1
 10
3512.6729551872299
 20
1239.750000000003
 11
3590.6729551872272
 21
1239.750000000003
 97
        7
330
358
330
42
330
2EB
330
40
330
357
330
2EC
330
41
 75
           1
 76
           0
 52
45.0
 41
10.0
 77
           0
 78
           1
 53
45.0
 43
0.0
 44
0.0
 45
-7.0710678118654746
 46
7.0710678118654755
 79
           0
 98
        1
 10
0.0
 20
0.0
  0
ARC
  5
36E
100
AcDbEntity
  8
1
  6
CONTINUOUS
 62
           7
100
AcDbCircle
 10
4686.922955187227
 20
2740.804518154823
 40
10.0
100
AcDbArc
 50
90.0
 51
180.0
  0
ARC
  5
36D
100
AcDbEntity
  8
1
  6
CONTINUOUS
 62
           7
100
AcDbCircle
 10
4754.422955187227
 20
2740.804518154823
 40
10.0
100
AcDbArc
 50
0.0
 51
90.0
  0
ARC
  5
36C
100
AcDbEntity
  8
1
  6
CONTINUOUS
 62
           7
100
AcDbCircle
 10
4686.922955187227
 20
2680.804518154823
 40
10.0
100
AcDbArc
 50
180.0
 51
-90.0
  0
ARC
  5
36B
100
AcDbEntity
  8
1
  6
CONTINUOUS
 62
           7
100
AcDbCircle
 10
4754.422955187227
 20
2680.804518154823
 40
10.0
100
AcDbArc
 50
-90.0
 51
0.0
  0
ARC
  5
36A
100
AcDbEntity
  8
1
  6
CONTINUOUS
 62
           4
100
AcDbCircle
 10
5155.172955187229
 20
2160.0
 40
1.0
100
AcDbArc
 50
0.0
 51
90.0
  0
ARC
  5
369
100
AcDbEntity
  8
1
  6
CONTINUOUS
 62
           4
100
AcDbCircle
 10
5166.172955187229
 20
2160.0
 40
1.0
100
AcDbArc
 50
90.0
 51
180.0
  0
ARC
  5
368
100
AcDbEntity
  8
1
  6
CONTINUOUS
 62
           4
100
AcDbCircle
 10
5155.172955187229
 20
2556.0
 40
1.0
100
AcDbArc
 50
-90.0
 51
0.0
  0
ARC
  5
367
100
AcDbEntity
  8
1
  6
CONTINUOUS
 62
           4
100
AcDbCircle
 10
5166.172955187229
 20
2556.0
 40
1.0
100
AcDbArc
 50
179.999999999947
 51
-90.0
  0
ARC
  5
366
100
AcDbEntity
  8
1
  6
CONTINUOUS
 62
           7
100
AcDbCircle
 10
118.613664
 20
2681.300000000003
 40
10.0
100
AcDbArc
 50
180.0
 51
-90.0
  0
ARC
  5
365
100
AcDbEntity
  8
1
  6
CONTINUOUS
 62
           7
100
AcDbCircle
 10
118.613664
 20
2741.300000000002
 40
10.0
100
AcDbArc
 50
90.0
 51
180.0
  0
ARC
  5
364
100
AcDbEntity
  8
1
  6
CONTINUOUS
 62
           7
100
AcDbCircle
 10
156.5
 20
2681.300000000003
 40
10.0
100
AcDbArc
 50
-90.0
 51
0.0
  0
ARC
  5
363
100
AcDbEntity
  8
1
  6
CONTINUOUS
 62
           7
100
AcDbCircle
 10
156.5
 20
2741.300000000002
 40
10.0
100
AcDbArc
 50
0.0
 51
90.0
  0
ARC
  5
362
100
AcDbEntity
  8
1
  6
CONTINUOUS
 62
           7
100
AcDbCircle
 10
156.5
 20
5288.418221991704
 40
10.0
100
AcDbArc
 50
0.0
 51
90.0
  0
ARC
  5
361
100
AcDbEntity
  8
1
  6
CONTINUOUS
 62
           7
100
AcDbCircle
 10
156.5
 20
5220.918221991704
 40
10.0
100
AcDbArc
 50
-90.0
 51
0.0
  0
ARC
  5
360
100
AcDbEntity
  8
1
  6
CONTINUOUS
 62
           7
100
AcDbCircle
 10
123.946258446662
 20
5288.418221991704
 40
10.0
100
AcDbArc
 50
90.0
 51
180.0
  0
ARC
  5
35F
100
AcDbEntity
  8
1
  6
CONTINUOUS
 62
           7
100
AcDbCircle
 10
123.946258446662
 20
5220.918221991704
 40
10.0
100
AcDbArc
 50
180.0
 51
-90.0
  0
ARC
  5
35E
100
AcDbEntity
  8
1
  6
CONTINUOUS
 62
           4
100
AcDbCircle
 10
109.265668111722
 20
5225.918221991704
 40
10.0
100
AcDbArc
 50
-120.430594205705
 51
-90.0
  0
ARC
  5
35D
100
AcDbEntity
  8
1
  6
CONTINUOUS
 62
           4
100
AcDbCircle
 10
109.265668111722
 20
5283.418221991704
 40
10.0
100
AcDbArc
 50
90.0
 51
120.430594205715
  0
ARC
  5
35C
100
AcDbEntity
  8
1
  6
CONTINUOUS
 62
           3
100
AcDbCircle
 10
4508.836522878268
 20
1917.80625341996
 40
0.5
100
AcDbArc
 50
180.0
 51
-90.0
  0
ARC
  5
35B
100
AcDbEntity
  8
1
  6
CONTINUOUS
 62
           3
100
AcDbCircle
 10
4508.836522878268
 20
1932.19374658004
 40
0.5
100
AcDbArc
 50
90.0
 51
180.0
  0
ARC
  5
35A
100
AcDbEntity
  8
1
  6
CONTINUOUS
 62
           3
100
AcDbCircle
 10
4360.572953309555
 20
1641.000000000001
 40
280.0
100
AcDbArc
 50
90.0
 51
180.0
  0
ARC
  5
359
100
AcDbEntity
  8
1
  6
CONTINUOUS
 62
           3
100
AcDbCircle
 10
4360.57295199816
 20
1641.0
 40
288.0
100
AcDbArc
 50
90.0
 51
180.0
  0
LWPOLYLINE
  5
358
100
AcDbEntity
  8
1
  6
CONTINUOUS
 62
           7
 60
           1
100
AcDbPolyline
 90
        2
 70
           0
 10
3590.672955187227
 20
1219.750000000003
 10
3590.672955187227
 20
1239.750000000003
  0
LWPOLYLINE
  5
357
100
AcDbEntity
  8
1
  6
CONTINUOUS
 62
           7
 60
           1
100
AcDbPolyline
 90
        3
 70
           0
 10
3495.67295518723
 20
1256.750000000003
 10
3495.67295518723
 20
1270.000000000003
 10
3475.67295518723
 20
1270.000000000003
  0
SPLINE
  5
356
100
AcDbEntity
  8
0
  6
CONTINUOUS
 62
           3
100
AcDbSpline
210
0.0
220
0.0
230
1.0
 70
           0
 71
           3
 72
           8
 73
           5
 74
           7
 42
0.00000000001
 43
0.00000000001
 44
0.00000000001
 40
0.0
 40
0.0
 40
0.0
 40
0.2989651950314283
 40
0.4296296276529574
 40
0.4465803504019732
 40
0.4465803504019732
 40
0.4465803504019732
 10
4031.5729517970931
 20
1384.6465796233019
 30
0.0
 10
4031.572951797139
 20
1384.4669365634261
 30
0.0
 10
4031.572951797139
 20
1384.2282922931149
 30
0.0
 10
4031.572951797139
 20
1384.205607698183
 30
0.0
 10
4031.572951797139
 20
1384.1999992729
 30
0.0
 11
4031.5729517970931
 21
1384.6465796233019
 31
0.0
 11
4031.5729517971272
 21
1384.4703311443234
 31
0.0
 11
4031.5729517971386
 21
1384.3008718271403
 31
0.0
 11
4031.572951797139
 21
1384.2414172487579
 31
0.0
 11
4031.5729517971386
 21
1384.2082125816614
 31
0.0
 11
4031.5729517971395
 21
1384.2048568127318
 31
0.0
 11
4031.572951797139
 21
1384.1999992729
 31
0.0
  0
SPLINE
  5
355
100
AcDbEntity
  8
0
  6
CONTINUOUS
 62
           3
100
AcDbSpline
210
0.0
220
0.0
230
1.0
 70
           0
 71
           3
 72
           8
 73
           5
 74
           7
 42
0.00000000001
 43
0.00000000001
 44
0.00000000001
 40
0.0
 40
0.0
 40
0.0
 40
0.0169507227490158
 40
0.1476151553705449
 40
0.4465803504019732
 40
0.4465803504019732
 40
0.4465803504019732
 10
4021.5729520206651
 20
1384.1999992729
 30
0.0
 10
4021.5729520206651
 20
1384.205607698183
 30
0.0
 10
4021.5729520206651
 20
1384.2282922931149
 30
0.0
 10
4021.5729520206651
 20
1384.4669365634261
 30
0.0
 10
4021.5729520207019
 20
1384.6465796233019
 30
0.0
 11
4021.5729520206651
 21
1384.1999992729
 31
0.0
 11
4021.5729520206646
 21
1384.2048568127318
 31
0.0
 11
4021.5729520206651
 21
1384.2082125816612
 31
0.0
 11
4021.5729520206651
 21
1384.2414172487579
 31
0.0
 11
4021.5729520206651
 21
1384.3008718271403
 31
0.0
 11
4021.5729520206746
 21
1384.4703311443236
 31
0.0
 11
4021.5729520207019
 21
1384.6465796233019
 31
0.0
  0
SPLINE
  5
354
100
AcDbEntity
  8
0
  6
CONTINUOUS
 62
           3
100
AcDbSpline
210
0.0
220
0.0
230
1.0
 70
           0
 71
           3
 72
           8
 73
           5
 74
           7
 42
0.00000000001
 43
0.00000000001
 44
0.00000000001
 40
0.0
 40
0.0
 40
0.0
 40
0.4813883392801353
 40
1.3325653926399017
 40
2.5594910488278835
 40
2.5594910488278835
 40
2.5594910488278835
 10
4029.0729518529929
 20
1384.1999992729
 30
0.0
 10
4029.1322166591722
 20
1384.2004449713099
 30
0.0
 10
4029.976436500519
 20
1384.2067938900659
 30
0.0
 10
4030.8037325200089
 20
1384.4346858415561
 30
0.0
 10
4031.5729517970931
 20
1384.6465796233019
 30
0.0
 11
4029.0729518529929
 21
1384.1999992729
 31
0.0
 11
4029.1936439181095
 21
1384.2009069323501
 31
0.0
 11
4029.4371905010998
 21
1384.2027385138806
 31
0.0
 11
4029.9263387379706
 21
1384.2291158030616
 31
0.0
 11
4030.3152914497427
 21
1384.3001369182343
 31
0.0
 11
4030.8739270717133
 21
1384.4540220561621
 31
0.0
 11
4031.5729517970931
 21
1384.6465796233019
 31
0.0
  0
SPLINE
  5
353
100
AcDbEntity
  8
0
  6
CONTINUOUS
 62
           3
100
AcDbSpline
210
0.0
220
0.0
230
1.0
 70
           0
 71
           3
 72
           8
 73
           5
 74
           7
 42
0.00000000001
 43
0.00000000001
 44
0.00000000001
 40
0.0
 40
0.0
 40
0.0
 40
0.4813884775022151
 40
1.3325655942391101
 40
2.5594910572499723
 40
2.5594910572499723
 40
2.5594910572499723
 10
4024.072951964783
 20
1384.1999992729
 30
0.0
 10
4024.1322167716162
 20
1384.2004449715539
 30
0.0
 10
4024.9764368880619
 20
1384.206793895828
 30
0.0
 10
4025.803732755187
 20
1384.4346858417271
 30
0.0
 10
4026.5729519089
 20
1384.646579623296
 30
0.0
 11
4024.072951964783
 21
1384.1999992729
 31
0.0
 11
4024.1936440655918
 21
1384.2009069331093
 31
0.0
 11
4024.4371907543527
 21
1384.2027385164295
 31
0.0
 11
4024.9263390879378
 21
1384.2291158106432
 31
0.0
 11
4025.3152918212736
 21
1384.3001369344865
 31
0.0
 11
4025.8739273101369
 21
1384.4540220603092
 31
0.0
 11
4026.5729519089
 21
1384.646579623296
 31
0.0
  0
SPLINE
  5
352
100
AcDbEntity
  8
0
  6
CONTINUOUS
 62
           3
100
AcDbSpline
210
0.0
220
0.0
230
1.0
 70
           0
 71
           3
 72
           8
 73
           5
 74
           7
 42
0.00000000001
 43
0.00000000001
 44
0.00000000001
 40
0.0
 40
0.0
 40
0.0
 40
0.2779454797525598
 40
0.7862825386945511
 40
1.5429638907265533
 40
1.5429638907265533
 40
1.5429638907265533
 10
4022.2428248745682
 20
1367.5999939442561
 30
0.0
 10
4022.2770414191482
 20
1367.6004396365131
 30
0.0
 10
4022.7644521372631
 20
1367.606788471174
 30
0.0
 10
4023.2420916044171
 20
1367.834684325677
 30
0.0
 10
4023.6862004750701
 20
1368.046581745235
 30
0.0
 11
4022.2428248745682
 21
1367.5999939442561
 31
0.0
 11
4022.3115613687219
 21
1367.6008892808161
 31
0.0
 11
4022.4493377620224
 21
1367.6026839059823
 31
0.0
 11
4022.7336573988387
 21
1367.6286568402281
 31
0.0
 11
4022.9563875588042
 21
1367.6983665125829
 31
0.0
 11
4023.2816928106777
 21
1367.853579227293
 31
0.0
 11
4023.6862004750701
 21
1368.046581745235
 31
0.0
  0
SPLINE
  5
351
100
AcDbEntity
  8
0
  6
CONTINUOUS
 62
           3
100
AcDbSpline
210
0.0
220
0.0
230
1.0
 70
           0
 71
           3
 72
           8
 73
           5
 74
           7
 42
0.00000000001
 43
0.00000000001
 44
0.00000000001
 40
0.0
 40
0.0
 40
0.0
 40
0.2779464854281287
 40
0.7862840843646641
 40
1.5429642658506173
 40
1.5429642658506173
 40
1.5429642658506173
 10
4022.2428248745682
 20
1372.6000040770409
 30
0.0
 10
4022.2086083252102
 20
1372.5995583816691
 30
0.0
 10
4021.7211956061169
 20
1372.59320947744
 30
0.0
 10
4021.2435571265751
 20
1372.365313693474
 30
0.0
 10
4020.7994490412011
 20
1372.1534162761091
 30
0.0
 11
4022.2428248745682
 21
1372.6000040770409
 31
0.0
 11
4022.1740881288201
 21
1372.5991087310695
 31
0.0
 11
4022.0363109902919
 21
1372.5973140838996
 31
0.0
 11
4021.751990621101
 21
1372.5713410900564
 31
0.0
 11
4021.5292602818809
 21
1372.5016313214473
 31
0.0
 11
4021.2039558940578
 21
1372.3464187461261
 31
0.0
 11
4020.7994490412011
 21
1372.1534162761091
 31
0.0
  0
SPLINE
  5
350
100
AcDbEntity
  8
0
  6
CONTINUOUS
 62
           3
100
AcDbSpline
210
0.0
220
0.0
230
1.0
 70
           0
 71
           3
 72
           8
 73
           5
 74
           7
 42
0.00000000001
 43
0.00000000001
 44
0.00000000001
 40
0.0
 40
0.0
 40
0.0
 40
0.277946485426629
 40
0.7862840843621471
 40
1.5429642658926159
 40
1.5429642658926159
 40
1.5429642658926159
 10
4030.903078943235
 20
1367.5999939442561
 30
0.0
 10
4030.937295492593
 20
1367.6004396396349
 30
0.0
 10
4031.4247082116831
 20
1367.606788543864
 30
0.0
 10
4031.902346691229
 20
1367.8346843278241
 30
0.0
 10
4032.346454776593
 20
1368.0465817453121
 30
0.0
 11
4030.903078943235
 21
1367.5999939442561
 31
0.0
 11
4030.9718156889826
 21
1367.6008892902325
 31
0.0
 11
4031.1095928275099
 21
1367.6026839374044
 31
0.0
 11
4031.3939131966977
 21
1367.628656931246
 31
0.0
 11
4031.6166435359141
 21
1367.698366699851
 31
0.0
 11
4031.9419479237408
 21
1367.8535792752027
 31
0.0
 11
4032.346454776593
 21
1368.0465817453121
 31
0.0
  0
SPLINE
  5
34F
100
AcDbEntity
  8
0
  6
CONTINUOUS
 62
           3
100
AcDbSpline
210
0.0
220
0.0
230
1.0
 70
           0
 71
           3
 72
           8
 73
           5
 74
           7
 42
0.00000000001
 43
0.00000000001
 44
0.00000000001
 40
0.0
 40
0.0
 40
0.0
 40
0.2779454797520785
 40
0.7862825386963166
 40
1.5429638907273531
 40
1.5429638907273531
 40
1.5429638907273531
 10
4030.903078943235
 20
1372.6000040770409
 30
0.0
 10
4030.868862398655
 20
1372.5995583847839
 30
0.0
 10
4030.381451680541
 20
1372.5932095501271
 30
0.0
 10
4029.9038122133829
 20
1372.36531369562
 30
0.0
 10
4029.459703342734
 20
1372.153416276062
 30
0.0
 11
4030.903078943235
 21
1372.6000040770409
 31
0.0
 11
4030.8343424490818
 21
1372.5991087404811
 31
0.0
 11
4030.6965660557817
 21
1372.5973141153163
 31
0.0
 11
4030.412246418965
 21
1372.5713411810716
 31
0.0
 11
4030.1895162589972
 21
1372.5016315087164
 31
0.0
 11
4029.8642110071246
 21
1372.3464187940046
 31
0.0
 11
4029.459703342734
 21
1372.153416276062
 31
0.0
  0
SPLINE
  5
34E
100
AcDbEntity
  8
0
  6
CONTINUOUS
 62
           3
100
AcDbSpline
210
0.0
220
0.0
230
1.0
 70
           0
 71
           3
 72
           8
 73
           5
 74
           7
 42
0.00000000001
 43
0.00000000001
 44
0.00000000001
 40
0.0
 40
0.0
 40
0.0
 40
0.7097107189162077
 40
1.6878556121222703
 40
2.9354150974105431
 40
2.9354150974105431
 40
2.9354150974105431
 10
4023.6862004750701
 20
1368.046581745235
 30
0.0
 10
4023.8995570567231
 20
1367.986940602696
 30
0.0
 10
4024.8398597376922
 20
1367.724090842953
 30
0.0
 10
4025.8172970789142
 20
1367.654102099867
 30
0.0
 10
4026.5729519089
 20
1367.5999939442561
 30
0.0
 11
4023.6862004750701
 21
1368.046581745235
 31
0.0
 11
4023.9450626950274
 21
1367.9742200752125
 31
0.0
 11
4024.2949361915948
 21
1367.8764173502245
 31
0.0
 11
4024.8110190500847
 21
1367.754482866842
 31
0.0
 11
4025.2694205333592
 21
1367.6933324312372
 31
0.0
 11
4025.8692416500216
 21
1367.6503826438068
 31
0.0
 11
4026.5729519089
 21
1367.5999939442561
 31
0.0
  0
SPLINE
  5
34D
100
AcDbEntity
  8
0
  6
CONTINUOUS
 62
           3
100
AcDbSpline
210
0.0
220
0.0
230
1.0
 70
           0
 71
           3
 72
           8
 73
           5
 74
           7
 42
0.00000000001
 43
0.00000000001
 44
0.00000000001
 40
0.0
 40
0.0
 40
0.0
 40
0.7273681394938723
 40
1.7065914567915834
 40
2.9387223240351803
 40
2.9387223240351803
 40
2.9387223240351803
 10
4026.5729519089
 20
1367.5999939442561
 30
0.0
 10
4026.811674688262
 20
1367.6054734833269
 30
0.0
 10
4027.788582334209
 20
1367.6278969974519
 30
0.0
 10
4028.740444043473
 20
1367.8663776207211
 30
0.0
 10
4029.4597033425939
 20
1368.0465817453121
 30
0.0
 11
4026.5729519089
 21
1367.5999939442561
 31
0.0
 11
4026.8560862022014
 21
1367.6064928859432
 31
0.0
 11
4027.228043523382
 21
1367.6150306328632
 31
0.0
 11
4027.7538225627395
 21
1367.6510811733847
 31
0.0
 11
4028.2100820591604
 21
1367.7335000657715
 31
0.0
 11
4028.7876683721747
 21
1367.8782092631313
 31
0.0
 11
4029.4597033425939
 21
1368.0465817453121
 31
0.0
  0
SPLINE
  5
34C
100
AcDbEntity
  8
0
  6
CONTINUOUS
 62
           3
100
AcDbSpline
210
0.0
220
0.0
230
1.0
 70
           0
 71
           3
 72
           8
 73
           5
 74
           7
 42
0.00000000001
 43
0.00000000001
 44
0.00000000001
 40
0.0
 40
0.0
 40
0.0
 40
1.2321308673615841
 40
2.2113541846593336
 40
2.9387223241531615
 40
2.9387223241531615
 40
2.9387223241531615
 10
4029.459703342734
 20
1372.153416276062
 30
0.0
 10
4028.740444043473
 20
1372.3336204005791
 30
0.0
 10
4027.788582334209
 20
1372.572101023849
 30
0.0
 10
4026.811674688262
 20
1372.5945245379701
 30
0.0
 10
4026.5729519089
 20
1372.6000040770409
 30
0.0
 11
4029.459703342734
 21
1372.153416276062
 31
0.0
 11
4028.7876683722047
 21
1372.3217887581886
 31
0.0
 11
4028.2100820591377
 21
1372.4664979555348
 31
0.0
 11
4027.7538225627341
 21
1372.5489168479171
 31
0.0
 11
4027.2280435233815
 21
1372.5849673884354
 31
0.0
 11
4026.8560862022014
 21
1372.593505135354
 31
0.0
 11
4026.5729519089
 21
1372.6000040770409
 31
0.0
  0
SPLINE
  5
34B
100
AcDbEntity
  8
0
  6
CONTINUOUS
 62
           3
100
AcDbSpline
210
0.0
220
0.0
230
1.0
 70
           0
 71
           3
 72
           8
 73
           5
 74
           7
 42
0.00000000001
 43
0.00000000001
 44
0.00000000001
 40
0.0
 40
0.0
 40
0.0
 40
1.2475616964928578
 40
2.2257084622395169
 40
2.9354211178787057
 40
2.9354211178787057
 40
2.9354211178787057
 10
4026.5729519089
 20
1372.6000040770409
 30
0.0
 10
4025.8172952514769
 20
1372.5459088094731
 30
0.0
 10
4024.839854099811
 20
1372.475936633469
 30
0.0
 10
4023.8995568909909
 20
1372.2130631111611
 30
0.0
 10
4023.6862004750701
 20
1372.153416276062
 30
0.0
 11
4026.5729519089
 21
1372.6000040770409
 31
0.0
 11
4025.8692397540281
 21
1372.5496273656936
 31
0.0
 11
4025.2694166042584
 21
1372.5066877667875
 31
0.0
 11
4024.811014678859
 21
1372.445539360308
 31
0.0
 11
4024.2949339115576
 21
1372.323596407507
 31
0.0
 11
4023.9450620421521
 21
1372.225784726473
 31
0.0
 11
4023.6862004750701
 21
1372.153416276062
 31
0.0
  0
SPLINE
  5
34A
100
AcDbEntity
  8
0
  6
CONTINUOUS
 62
           3
100
AcDbSpline
210
0.0
220
0.0
230
1.0
 70
           0
 71
           3
 72
           8
 73
           5
 74
           7
 42
0.00000000001
 43
0.00000000001
 44
0.00000000001
 40
0.0
 40
0.0
 40
0.0
 40
0.2779452695568832
 40
0.7862805426591408
 40
1.5429573555012195
 40
1.5429573555012195
 40
1.5429573555012195
 10
4022.2428248745682
 20
1372.6000040770409
 30
0.0
 10
4022.2770414180991
 20
1372.6004497818101
 30
0.0
 10
4022.7644517153071
 20
1372.6067987893659
 30
0.0
 10
4023.2420914155882
 20
1372.834686833085
 30
0.0
 10
4023.6862004750701
 20
1373.04657697686
 30
0.0
 11
4022.2428248745682
 21
1372.6000040770409
 31
0.0
 11
4022.3115614075095
 21
1372.6008994392644
 31
0.0
 11
4022.4493379192745
 21
1372.6026941163966
 31
0.0
 11
4022.7336572164495
 21
1372.628666380841
 31
0.0
 11
4022.9563875159092
 21
1372.6983738282354
 31
0.0
 11
4023.2816927055392
 21
1372.8535811178162
 31
0.0
 11
4023.6862004750701
 21
1373.04657697686
 31
0.0
  0
SPLINE
  5
349
100
AcDbEntity
  8
0
  6
CONTINUOUS
 62
           3
100
AcDbSpline
210
0.0
220
0.0
230
1.0
 70
           0
 71
           3
 72
           8
 73
           5
 74
           7
 42
0.00000000001
 43
0.00000000001
 44
0.00000000001
 40
0.0
 40
0.0
 40
0.0
 40
0.2779463803285158
 40
0.7862830863354053
 40
1.5429609982549572
 40
1.5429609982549572
 40
1.5429609982549572
 10
4022.2428248745682
 20
1377.5999993086671
 30
0.0
 10
4022.2086083257341
 20
1377.599553607037
 30
0.0
 10
4021.7211958170992
 20
1377.593204616358
 30
0.0
 10
4021.243557220992
 20
1377.3653127377879
 30
0.0
 10
4020.7994490412011
 20
1377.1534189582051
 30
0.0
 11
4022.2428248745682
 21
1377.5999993086671
 31
0.0
 11
4022.1740881094252
 21
1377.5991039498622
 31
0.0
 11
4022.0363109116652
 21
1377.5973092767078
 31
0.0
 11
4021.7519907123001
 21
1377.5713366177661
 31
0.0
 11
4021.5292603033381
 21
1377.5016279616409
 31
0.0
 11
4021.2039559466311
 21
1377.3464180988553
 31
0.0
 11
4020.7994490412011
 21
1377.1534189582051
 31
0.0
  0
SPLINE
  5
348
100
AcDbEntity
  8
0
  6
CONTINUOUS
 62
           3
100
AcDbSpline
210
0.0
220
0.0
230
1.0
 70
           0
 71
           3
 72
           8
 73
           5
 74
           7
 42
0.00000000001
 43
0.00000000001
 44
0.00000000001
 40
0.0
 40
0.0
 40
0.0
 40
0.2779462752334179
 40
0.7862820883241974
 40
1.5429577306479336
 40
1.5429577306479336
 40
1.5429577306479336
 10
4030.903078943235
 20
1372.6000040770409
 30
0.0
 10
4030.937295491548
 20
1372.6004497849281
 30
0.0
 10
4031.424707789728
 20
1372.606798862053
 30
0.0
 10
4031.9023465023961
 20
1372.8346868352351
 30
0.0
 10
4032.346454776593
 20
1373.046576976911
 30
0.0
 11
4030.903078943235
 21
1372.6000040770409
 31
0.0
 11
4030.9718157277748
 21
1372.6008994486783
 31
0.0
 11
4031.1095929847679
 21
1372.6026941478156
 31
0.0
 11
4031.3939130143108
 21
1372.6286664718552
 31
0.0
 11
4031.6166434930201
 21
1372.6983740154994
 31
0.0
 11
4031.9419478186014
 21
1372.8535811657202
 31
0.0
 11
4032.346454776593
 21
1373.046576976911
 31
0.0
  0
SPLINE
  5
347
100
AcDbEntity
  8
0
  6
CONTINUOUS
 62
           3
100
AcDbSpline
210
0.0
220
0.0
230
1.0
 70
           0
 71
           3
 72
           8
 73
           5
 74
           7
 42
0.00000000001
 43
0.00000000001
 44
0.00000000001
 40
0.0
 40
0.0
 40
0.0
 40
0.2779453746545132
 40
0.7862815406698562
 40
1.5429606230896287
 40
1.5429606230896287
 40
1.5429606230896287
 10
4030.903078943235
 20
1377.5999993086671
 30
0.0
 10
4030.8688623991811
 20
1377.5995536101509
 30
0.0
 10
4030.3814518915169
 20
1377.593204689045
 30
0.0
 10
4029.9038123078021
 20
1377.365312739938
 30
0.0
 10
4029.459703342734
 20
1377.153418958268
 30
0.0
 11
4030.903078943235
 21
1377.5999993086671
 31
0.0
 11
4030.8343424296877
 21
1377.5991039592732
 31
0.0
 11
4030.696565977154
 21
1377.5973093081238
 31
0.0
 11
4030.4122465101582
 21
1377.5713367087799
 31
0.0
 11
4030.1895162804458
 21
1377.5016281489061
 31
0.0
 11
4029.8642110596961
 21
1377.3464181467625
 31
0.0
 11
4029.459703342734
 21
1377.153418958268
 31
0.0
  0
SPLINE
  5
346
100
AcDbEntity
  8
0
  6
CONTINUOUS
 62
           3
100
AcDbSpline
210
0.0
220
0.0
230
1.0
 70
           0
 71
           3
 72
           8
 73
           5
 74
           7
 42
0.00000000001
 43
0.00000000001
 44
0.00000000001
 40
0.0
 40
0.0
 40
0.0
 40
0.7097104926820577
 40
1.6878550560196297
 40
2.9354142011741118
 40
2.9354142011741118
 40
2.9354142011741118
 10
4023.6862004750701
 20
1373.04657697686
 30
0.0
 10
4023.8995570361831
 20
1372.9869356693489
 30
0.0
 10
4024.839859038877
 20
1372.7240853468579
 30
0.0
 10
4025.8172968524009
 20
1372.654105412621
 30
0.0
 10
4026.5729519089
 20
1372.6000040770409
 30
0.0
 11
4023.6862004750701
 21
1373.04657697686
 31
0.0
 11
4023.9450626093803
 21
1372.9742151236567
 31
0.0
 11
4024.2949358900851
 21
1372.8764121790696
 31
0.0
 11
4024.8110184985985
 21
1372.7544784200811
 31
0.0
 11
4025.2694200265551
 21
1372.6933308075384
 31
0.0
 11
4025.8692414100642
 21
1372.650386427455
 31
0.0
 11
4026.5729519089
 21
1372.6000040770409
 31
0.0
  0
SPLINE
  5
345
100
AcDbEntity
  8
0
  6
CONTINUOUS
 62
           3
100
AcDbSpline
210
0.0
220
0.0
230
1.0
 70
           0
 71
           3
 72
           8
 73
           5
 74
           7
 42
0.00000000001
 43
0.00000000001
 44
0.00000000001
 40
0.0
 40
0.0
 40
0.0
 40
0.7273675739584639
 40
1.7065896374661835
 40
2.9387184666067911
 40
2.9387184666067911
 40
2.9387184666067911
 10
4026.5729519089
 20
1372.6000040770409
 30
0.0
 10
4026.8116746523801
 20
1372.6054838012651
 30
0.0
 10
4027.788581213325
 20
1372.6279080515201
 30
0.0
 10
4028.740443688278
 20
1372.866379694286
 30
0.0
 10
4029.4597033425939
 20
1373.046576976911
 30
0.0
 11
4026.5729519089
 21
1372.6000040770409
 31
0.0
 11
4026.8560860897155
 21
1372.6065032367192
 31
0.0
 11
4027.2280431452027
 21
1372.615041267306
 31
0.0
 11
4027.7538217342403
 21
1372.651091133866
 31
0.0
 11
4028.2100813651095
 21
1372.7335071651178
 31
0.0
 11
4028.7876680210647
 21
1372.8782108826504
 31
0.0
 11
4029.4597033425939
 21
1373.046576976911
 31
0.0
  0
SPLINE
  5
344
100
AcDbEntity
  8
0
  6
CONTINUOUS
 62
           3
100
AcDbSpline
210
0.0
220
0.0
230
1.0
 70
           0
 71
           3
 72
           8
 73
           5
 74
           7
 42
0.00000000001
 43
0.00000000001
 44
0.00000000001
 40
0.0
 40
0.0
 40
0.0
 40
1.2321298483036238
 40
2.211352538700734
 40
2.9387203954241521
 40
2.9387203954241521
 40
2.9387203954241521
 10
4029.459703342734
 20
1377.153418958268
 30
0.0
 10
4028.7404438658732
 20
1377.333619661815
 30
0.0
 10
4027.7885817737629
 20
1377.5720957948331
 30
0.0
 10
4026.8116746703199
 20
1377.5945196770231
 30
0.0
 10
4026.5729519089
 20
1377.5999993086671
 30
0.0
 11
4029.459703342734
 21
1377.153418958268
 31
0.0
 11
4028.7876681966472
 21
1377.3217882464444
 31
0.0
 11
4028.2100817121091
 21
1377.4664947038796
 31
0.0
 11
4027.753822148481
 21
1377.5489121656951
 31
0.0
 11
4027.2280433342903
 21
1377.5849623692345
 31
0.0
 11
4026.8560861459573
 21
1377.593500257987
 31
0.0
 11
4026.5729519089
 21
1377.5999993086671
 31
0.0
  0
SPLINE
  5
343
100
AcDbEntity
  8
0
  6
CONTINUOUS
 62
           3
100
AcDbSpline
210
0.0
220
0.0
230
1.0
 70
           0
 71
           3
 72
           8
 73
           5
 74
           7
 42
0.00000000001
 43
0.00000000001
 44
0.00000000001
 40
0.0
 40
0.0
 40
0.0
 40
1.2475604207805735
 40
2.2257060852927171
 40
2.935417659429477
 40
2.935417659429477
 40
2.935417659429477
 10
4026.5729519089
 20
1377.5999993086671
 30
0.0
 10
4025.8172960519541
 20
1377.5459010071061
 30
0.0
 10
4024.839856569391
 20
1377.4759249520071
 30
0.0
 10
4023.899556963589
 20
1377.2130630295719
 30
0.0
 10
4023.6862004750701
 20
1377.153418958268
 30
0.0
 11
4026.5729519089
 21
1377.5999993086671
 31
0.0
 11
4025.8692405820625
 21
1377.5496197777991
 31
0.0
 11
4025.2694183154408
 21
1377.5066777883169
 31
0.0
 11
4024.8110165887656
 21
1377.4455297788072
 31
0.0
 11
4024.2949349008413
 21
1377.3235914228981
 31
0.0
 11
4023.9450623257726
 21
1377.2257841100775
 31
0.0
 11
4023.6862004750701
 21
1377.153418958268
 31
0.0
  0
SPLINE
  5
342
100
AcDbEntity
  8
0
  6
CONTINUOUS
 62
           3
100
AcDbSpline
210
0.0
220
0.0
230
1.0
 70
           0
 71
           3
 72
           8
 73
           5
 74
           7
 42
0.00000000001
 43
0.00000000001
 44
0.00000000001
 40
0.0
 40
0.0
 40
0.0
 40
0.2779454797525346
 40
0.7862825386953332
 40
1.5429638907268945
 40
1.5429638907268945
 40
1.5429638907268945
 10
4022.2428248745682
 20
1359.999999404049
 30
0.0
 10
4022.2770414191482
 20
1360.0004450963061
 30
0.0
 10
4022.7644521372631
 20
1360.0067939309631
 30
0.0
 10
4023.2420916044171
 20
1360.23468978547
 30
0.0
 10
4023.6862004750701
 20
1360.446587205025
 30
0.0
 11
4022.2428248745682
 21
1359.999999404049
 31
0.0
 11
4022.3115613687219
 21
1360.0008947406088
 31
0.0
 11
4022.449337762022
 21
1360.0026893657739
 31
0.0
 11
4022.7336573988387
 21
1360.0286623000186
 31
0.0
 11
4022.9563875588046
 21
1360.0983719723736
 31
0.0
 11
4023.2816928106777
 21
1360.2535846870849
 31
0.0
 11
4023.6862004750701
 21
1360.446587205025
 31
0.0
  0
SPLINE
  5
341
100
AcDbEntity
  8
0
  6
CONTINUOUS
 62
           3
100
AcDbSpline
210
0.0
220
0.0
230
1.0
 70
           0
 71
           3
 72
           8
 73
           5
 74
           7
 42
0.00000000001
 43
0.00000000001
 44
0.00000000001
 40
0.0
 40
0.0
 40
0.0
 40
0.277946275232473
 40
0.7862820883225878
 40
1.542957730607867
 40
1.542957730607867
 40
1.542957730607867
 10
4022.2428248745682
 20
1364.9999946356729
 30
0.0
 10
4022.2086083262561
 20
1364.9995489277901
 30
0.0
 10
4021.7211960280761
 20
1364.993199850662
 30
0.0
 10
4021.243557315408
 20
1364.7653118774831
 30
0.0
 10
4020.7994490412011
 20
1364.5534217359159
 30
0.0
 11
4022.2428248745682
 21
1364.9999946356729
 31
0.0
 11
4022.1740880900297
 21
1364.9990992640385
 31
0.0
 11
4022.0363108330366
 21
1364.9973045649017
 31
0.0
 11
4021.751990803491
 21
1364.9713322408597
 31
0.0
 11
4021.5292603247781
 21
1364.9016246972142
 31
0.0
 11
4021.203955999199
 21
1364.7464175470241
 31
0.0
 11
4020.7994490412011
 21
1364.5534217359159
 31
0.0
  0
SPLINE
  5
340
100
AcDbEntity
  8
0
  6
CONTINUOUS
 62
           3
100
AcDbSpline
210
0.0
220
0.0
230
1.0
 70
           0
 71
           3
 72
           8
 73
           5
 74
           7
 42
0.00000000001
 43
0.00000000001
 44
0.00000000001
 40
0.0
 40
0.0
 40
0.0
 40
0.2779464854691698
 40
0.7862840844052754
 40
1.5429642659440668
 40
1.5429642659440668
 40
1.5429642659440668
 10
4030.903078943194
 20
1359.999999403921
 30
0.0
 10
4030.937295492593
 20
1360.000445099424
 30
0.0
 10
4031.4247082116831
 20
1360.0067940036531
 30
0.0
 10
4031.902346691229
 20
1360.2346897876159
 30
0.0
 10
4032.346454776593
 20
1360.4465872051219
 30
0.0
 11
4030.903078943194
 21
1359.999999403921
 31
0.0
 11
4030.9718156889767
 21
1360.0008947499909
 31
0.0
 11
4031.1095928275272
 21
1360.0026893971938
 31
0.0
 11
4031.3939131967018
 21
1360.0286623910351
 31
0.0
 11
4031.6166435359128
 21
1360.0983721596408
 31
0.0
 11
4031.9419479237408
 21
1360.2535847349986
 31
0.0
 11
4032.346454776593
 21
1360.4465872051219
 31
0.0
  0
SPLINE
  5
33F
100
AcDbEntity
  8
0
  6
CONTINUOUS
 62
           3
100
AcDbSpline
210
0.0
220
0.0
230
1.0
 70
           0
 71
           3
 72
           8
 73
           5
 74
           7
 42
0.00000000001
 43
0.00000000001
 44
0.00000000001
 40
0.0
 40
0.0
 40
0.0
 40
0.2779452695568491
 40
0.7862805426587727
 40
1.5429573555001472
 40
1.5429573555001472
 40
1.5429573555001472
 10
4030.903078943235
 20
1364.9999946356729
 30
0.0
 10
4030.8688623997032
 20
1364.999548930904
 30
0.0
 10
4030.381452102497
 20
1364.9931999233529
 30
0.0
 10
4029.903812402215
 20
1364.7653118796329
 30
0.0
 10
4029.459703342734
 20
1364.553421735859
 30
0.0
 11
4030.903078943235
 21
1364.9999946356729
 31
0.0
 11
4030.8343424102918
 21
1364.9990992734499
 31
0.0
 11
4030.6965658985287
 21
1364.9973045963193
 31
0.0
 11
4030.4122466013546
 21
1364.971332331877
 31
0.0
 11
4030.1895163018944
 21
1364.901624884483
 31
0.0
 11
4029.8642111122649
 21
1364.7464175949019
 31
0.0
 11
4029.459703342734
 21
1364.553421735859
 31
0.0
  0
SPLINE
  5
33E
100
AcDbEntity
  8
0
  6
CONTINUOUS
 62
           3
100
AcDbSpline
210
0.0
220
0.0
230
1.0
 70
           0
 71
           3
 72
           8
 73
           5
 74
           7
 42
0.00000000001
 43
0.00000000001
 44
0.00000000001
 40
0.0
 40
0.0
 40
0.0
 40
0.7097126556384845
 40
1.6878594213852645
 40
2.9354211178780893
 40
2.9354211178780893
 40
2.9354211178780893
 10
4023.6862004750701
 20
1360.446587205025
 30
0.0
 10
4023.8995568909909
 20
1360.3869403699291
 30
0.0
 10
4024.839854099811
 20
1360.12406684762
 30
0.0
 10
4025.8172952514769
 20
1360.0540946716169
 30
0.0
 10
4026.5729519089
 20
1359.999999404049
 30
0.0
 11
4023.6862004750701
 21
1360.446587205025
 31
0.0
 11
4023.9450620421521
 21
1360.3742187546163
 31
0.0
 11
4024.2949339115567
 21
1360.2764070735827
 31
0.0
 11
4024.811014678859
 21
1360.1544641207811
 31
0.0
 11
4025.2694166042588
 21
1360.0933157143018
 31
0.0
 11
4025.8692397540281
 21
1360.0503761153961
 31
0.0
 11
4026.5729519089
 21
1359.999999404049
 31
0.0
  0
SPLINE
  5
33D
100
AcDbEntity
  8
0
  6
CONTINUOUS
 62
           3
100
AcDbSpline
210
0.0
220
0.0
230
1.0
 70
           0
 71
           3
 72
           8
 73
           5
 74
           7
 42
0.00000000001
 43
0.00000000001
 44
0.00000000001
 40
0.0
 40
0.0
 40
0.0
 40
0.7273681394937837
 40
1.7065914567916054
 40
2.9387223240401208
 40
2.9387223240401208
 40
2.9387223240401208
 10
4026.5729519089
 20
1359.999999404049
 30
0.0
 10
4026.811674688262
 20
1360.005478943116
 30
0.0
 10
4027.788582334209
 20
1360.027902457241
 30
0.0
 10
4028.740444043473
 20
1360.2663830805111
 30
0.0
 10
4029.4597033425939
 20
1360.4465872051219
 30
0.0
 11
4026.5729519089
 21
1359.999999404049
 31
0.0
 11
4026.8560862022014
 21
1360.0064983457335
 31
0.0
 11
4027.2280435233815
 21
1360.0150360926523
 31
0.0
 11
4027.7538225627391
 21
1360.0510866331738
 31
0.0
 11
4028.2100820591595
 21
1360.1335055255608
 31
0.0
 11
4028.7876683721747
 21
1360.2782147229261
 31
0.0
 11
4029.4597033425939
 21
1360.4465872051219
 31
0.0
  0
SPLINE
  5
33C
100
AcDbEntity
  8
0
  6
CONTINUOUS
 62
           3
100
AcDbSpline
210
0.0
220
0.0
230
1.0
 70
           0
 71
           3
 72
           8
 73
           5
 74
           7
 42
0.00000000001
 43
0.00000000001
 44
0.00000000001
 40
0.0
 40
0.0
 40
0.0
 40
1.2321288292634858
 40
2.2113508927716028
 40
2.9387184667299575
 40
2.9387184667299575
 40
2.9387184667299575
 10
4029.459703342734
 20
1364.553421735859
 30
0.0
 10
4028.740443688278
 20
1364.733619018429
 30
0.0
 10
4027.788581213325
 20
1364.9720906611981
 30
0.0
 10
4026.8116746523801
 20
1364.994514911454
 30
0.0
 10
4026.5729519089
 20
1364.9999946356729
 30
0.0
 11
4029.459703342734
 21
1364.553421735859
 31
0.0
 11
4028.7876680210939
 21
1364.7217878300805
 31
0.0
 11
4028.2100813650859
 21
1364.8664915476047
 31
0.0
 11
4027.7538217342349
 21
1364.9489075788533
 31
0.0
 11
4027.2280431452027
 21
1364.9849574454124
 31
0.0
 11
4026.8560860897155
 21
1364.9934954759983
 31
0.0
 11
4026.5729519089
 21
1364.9999946356729
 31
0.0
  0
SPLINE
  5
33B
100
AcDbEntity
  8
0
  6
CONTINUOUS
 62
           3
100
AcDbSpline
210
0.0
220
0.0
230
1.0
 70
           0
 71
           3
 72
           8
 73
           5
 74
           7
 42
0.00000000001
 43
0.00000000001
 44
0.00000000001
 40
0.0
 40
0.0
 40
0.0
 40
1.2475591451548866
 40
2.2257037084924418
 40
2.9354142011729598
 40
2.9354142011729598
 40
2.9354142011729598
 10
4026.5729519089
 20
1364.9999946356729
 30
0.0
 10
4025.8172968524009
 20
1364.9458933000931
 30
0.0
 10
4024.8398590388761
 20
1364.8759133658571
 30
0.0
 10
4023.8995570361831
 20
1364.6130630433661
 30
0.0
 10
4023.6862004750701
 20
1364.553421735859
 30
0.0
 11
4026.5729519089
 21
1364.9999946356729
 31
0.0
 11
4025.8692414100642
 21
1364.9496122852588
 31
0.0
 11
4025.2694200265551
 21
1364.9066679051762
 31
0.0
 11
4024.8110184985976
 21
1364.8455202926339
 31
0.0
 11
4024.2949358900842
 21
1364.7235865336452
 31
0.0
 11
4023.9450626093803
 21
1364.6257835890592
 31
0.0
 11
4023.6862004750701
 21
1364.553421735859
 31
0.0
  0
SPLINE
  5
33A
100
AcDbEntity
  8
0
  6
CONTINUOUS
 62
           3
100
AcDbSpline
210
0.0
220
0.0
230
1.0
 70
           0
 71
           3
 72
           8
 73
           5
 74
           7
 42
0.00000000001
 43
0.00000000001
 44
0.00000000001
 40
0.0
 40
0.0
 40
0.0
 40
0.2779464854658293
 40
0.7862840844020164
 40
1.5429642659205887
 40
1.5429642659205887
 40
1.5429642659205887
 10
4030.903078943194
 20
1359.999999403921
 30
0.0
 10
4030.937295492593
 20
1359.999553708677
 30
0.0
 10
4031.4247082116831
 20
1359.9932048044429
 30
0.0
 10
4031.902346691229
 20
1359.7653090204799
 30
0.0
 10
4032.346454776593
 20
1359.553411603021
 30
0.0
 11
4030.903078943194
 21
1359.999999403921
 31
0.0
 11
4030.9718156889767
 21
1359.9991040580451
 31
0.0
 11
4031.1095928275254
 21
1359.9973094109055
 31
0.0
 11
4031.3939131967018
 21
1359.9713364170614
 31
0.0
 11
4031.616643535916
 21
1359.9016266484539
 31
0.0
 11
4031.9419479237413
 21
1359.7464140731086
 31
0.0
 11
4032.346454776593
 21
1359.553411603021
 31
0.0
  0
SPLINE
  5
339
100
AcDbEntity
  8
0
  6
CONTINUOUS
 62
           3
100
AcDbSpline
210
0.0
220
0.0
230
1.0
 70
           0
 71
           3
 72
           8
 73
           5
 74
           7
 42
0.00000000001
 43
0.00000000001
 44
0.00000000001
 40
0.0
 40
0.0
 40
0.0
 40
0.3778155284991409
 40
0.8942062233993962
 40
1.5357514174613205
 40
1.5357514174613205
 40
1.5357514174613205
 10
4020.7994490412011
 20
1359.553411603021
 30
0.0
 10
4020.8939670842601
 20
1359.6064716909059
 30
0.0
 10
4021.3638369821342
 20
1359.8702450113749
 30
0.0
 10
4021.8524779215322
 20
1359.9423771861991
 30
0.0
 10
4022.2428248745682
 20
1359.999999404049
 30
0.0
 11
4020.7994490412011
 21
1359.553411603021
 31
0.0
 11
4020.919969341634
 21
1359.6210687140281
 31
0.0
 11
4021.0924941568137
 21
1359.7179198712799
 31
0.0
 11
4021.35047960156
 21
1359.8402057052374
 31
0.0
 11
4021.5817502851569
 21
1359.9024129269194
 31
0.0
 11
4021.8823827506976
 21
1359.946791675842
 31
0.0
 11
4022.2428248745682
 21
1359.999999404049
 31
0.0
  0
SPLINE
  5
338
100
AcDbEntity
  8
0
  6
CONTINUOUS
 62
           3
100
AcDbSpline
210
0.0
220
0.0
230
1.0
 70
           0
 71
           3
 72
           8
 73
           5
 74
           7
 42
0.00000000001
 43
0.00000000001
 44
0.00000000001
 40
0.0
 40
0.0
 40
0.0
 40
0.6415450374701563
 40
1.157930368602738
 40
1.5357381749002281
 40
1.5357381749002281
 40
1.5357381749002281
 10
4022.2428248745682
 20
1355.0000041724199
 30
0.0
 10
4021.8524788958412
 20
1355.0576336938759
 30
0.0
 10
4021.3638398165899
 20
1355.1297749168839
 30
0.0
 10
4020.893967149344
 20
1355.3935224482559
 30
0.0
 10
4020.7994490412011
 20
1355.446577072224
 30
0.0
 11
4022.2428248745682
 21
1355.0000041724199
 31
0.0
 11
4021.8823834329314
 21
1355.0532186767994
 31
0.0
 11
4021.5817510654742
 21
1355.097603147025
 31
0.0
 11
4021.35048123455
 21
1355.1598096979619
 31
0.0
 11
4021.092494239545
 21
1355.2820858110542
 31
0.0
 11
4020.9199693948585
 21
1355.3789269449476
 31
0.0
 11
4020.7994490412011
 21
1355.446577072224
 31
0.0
  0
SPLINE
  5
337
100
AcDbEntity
  8
0
  6
CONTINUOUS
 62
           3
100
AcDbSpline
210
0.0
220
0.0
230
1.0
 70
           0
 71
           3
 72
           8
 73
           5
 74
           7
 42
0.00000000001
 43
0.00000000001
 44
0.00000000001
 40
0.0
 40
0.0
 40
0.0
 40
0.3539460334987811
 40
0.8643414136629051
 40
1.5431068114047584
 40
1.5431068114047584
 40
1.5431068114047584
 10
4022.2428248745682
 20
1359.999999404049
 30
0.0
 10
4022.3522790296511
 20
1359.9953935078311
 30
0.0
 10
4022.8406368582682
 20
1359.97484311874
 30
0.0
 10
4023.3167765356729
 20
1359.7375336343539
 30
0.0
 10
4023.6862004751979
 20
1359.553411603021
 30
0.0
 11
4022.2428248745682
 21
1359.999999404049
 31
0.0
 11
4022.374910872808
 21
1359.9944411463553
 31
0.0
 11
4022.5522605573606
 21
1359.9869781657096
 31
0.0
 11
4022.8196333286123
 21
1359.9524131949256
 31
0.0
 11
4023.0449990405527
 21
1359.8729883765131
 31
0.0
 11
4023.3411881467746
 21
1359.7253668120607
 31
0.0
 11
4023.6862004751979
 21
1359.553411603021
 31
0.0
  0
SPLINE
  5
336
100
AcDbEntity
  8
0
  6
CONTINUOUS
 62
           3
100
AcDbSpline
210
0.0
220
0.0
230
1.0
 70
           0
 71
           3
 72
           8
 73
           5
 74
           7
 42
0.00000000001
 43
0.00000000001
 44
0.00000000001
 40
0.0
 40
0.0
 40
0.0
 40
0.6787700534896848
 40
1.1891668948804988
 40
1.5431123743501056
 40
1.5431123743501056
 40
1.5431123743501056
 10
4023.6862004750701
 20
1355.446577072242
 30
0.0
 10
4023.316776661633
 20
1355.2624483716061
 30
0.0
 10
4022.8406372378531
 20
1355.0251303367841
 30
0.0
 10
4022.3522790398119
 20
1355.0046045512611
 30
0.0
 10
4022.2428248745682
 20
1355.0000041724199
 30
0.0
 11
4023.6862004750701
 21
1355.446577072242
 31
0.0
 11
4023.3411881608663
 21
1355.2746155830071
 31
0.0
 11
4023.0449988451305
 21
1355.1269885165734
 31
0.0
 11
4022.8196333791775
 21
1355.0475647466087
 31
0.0
 11
4022.5522601958737
 21
1355.0130097962933
 31
0.0
 11
4022.3749107875165
 21
1355.0055557678088
 31
0.0
 11
4022.2428248745682
 21
1355.0000041724199
 31
0.0
  0
SPLINE
  5
335
100
AcDbEntity
  8
0
  6
CONTINUOUS
 62
           3
100
AcDbSpline
210
0.0
220
0.0
230
1.0
 70
           0
 71
           3
 72
           8
 73
           5
 74
           7
 42
0.00000000001
 43
0.00000000001
 44
0.00000000001
 40
0.0
 40
0.0
 40
0.0
 40
0.2779452695568772
 40
0.7862805426594623
 40
1.5429573556206393
 40
1.5429573556206393
 40
1.5429573556206393
 10
4030.903078943235
 20
1355.0000041724199
 30
0.0
 10
4030.8688623997032
 20
1355.0004498771891
 30
0.0
 10
4030.381452102497
 20
1355.0067988847441
 30
0.0
 10
4029.903812402215
 20
1355.234686928467
 30
0.0
 10
4029.4597033425939
 20
1355.446577072224
 30
0.0
 11
4030.903078943235
 21
1355.0000041724199
 31
0.0
 11
4030.8343424102923
 21
1355.0008995346432
 31
0.0
 11
4030.6965658985282
 21
1355.0026942117752
 31
0.0
 11
4030.4122466013591
 21
1355.0286664762175
 31
0.0
 11
4030.1895163019126
 21
1355.0983739236065
 31
0.0
 11
4029.8642111122344
 21
1355.2535812131912
 31
0.0
 11
4029.4597033425939
 21
1355.446577072224
 31
0.0
  0
SPLINE
  5
334
100
AcDbEntity
  8
0
  6
CONTINUOUS
 62
           3
100
AcDbSpline
210
0.0
220
0.0
230
1.0
 70
           0
 71
           3
 72
           8
 73
           5
 74
           7
 42
0.00000000001
 43
0.00000000001
 44
0.00000000001
 40
0.0
 40
0.0
 40
0.0
 40
0.5558558490601253
 40
1.5343195421983014
 40
2.9385037456585978
 40
2.9385037456585978
 40
2.9385037456585978
 10
4026.5729519088959
 20
1355.000004172322
 30
0.0
 10
4026.5045188235231
 20
1355.0004498783021
 30
0.0
 10
4025.5296968744692
 20
1355.0067989106681
 30
0.0
 10
4024.5744181034911
 20
1355.234686929231
 30
0.0
 10
4023.6862004750701
 20
1355.446577072242
 30
0.0
 11
4026.5729519088959
 21
1355.000004172322
 31
0.0
 11
4026.4333370634763
 21
1355.0009134863224
 31
0.0
 11
4026.1513586979618
 21
1355.0027500163628
 31
0.0
 11
4025.5870380832457
 21
1355.0291829422188
 31
0.0
 11
4025.1373998860799
 21
1355.1003839311754
 31
0.0
 11
4024.4931091420331
 21
1355.2540837154697
 31
0.0
 11
4023.6862004750701
 21
1355.446577072242
 31
0.0
  0
SPLINE
  5
333
100
AcDbEntity
  8
0
  6
CONTINUOUS
 62
           3
100
AcDbSpline
210
0.0
220
0.0
230
1.0
 70
           0
 71
           3
 72
           8
 73
           5
 74
           7
 42
0.00000000001
 43
0.00000000001
 44
0.00000000001
 40
0.0
 40
0.0
 40
0.0
 40
0.5558562714167636
 40
1.5343210643718503
 40
2.9385072682991953
 40
2.9385072682991953
 40
2.9385072682991953
 10
4026.5729519089
 20
1359.999999404049
 30
0.0
 10
4026.6413849963751
 20
1359.999553710677
 30
0.0
 10
4027.6162077872459
 20
1359.993204851213
 30
0.0
 10
4028.5714860919729
 20
1359.765309021863
 30
0.0
 10
4029.459703342734
 20
1359.553411603069
 30
0.0
 11
4026.5729519089
 21
1359.999999404049
 31
0.0
 11
4026.712566811635
 21
1359.9990901152983
 31
0.0
 11
4026.994545344889
 21
1359.9972536357895
 31
0.0
 11
4027.5588663585104
 21
1359.9708199944766
 31
0.0
 11
4028.0085045146607
 21
1359.8996166396905
 31
0.0
 11
4028.6527950103355
 21
1359.7459115716215
 31
0.0
 11
4029.459703342734
 21
1359.553411603069
 31
0.0
  0
CIRCLE
  5
332
100
AcDbEntity
  8
1
  6
CONTINUOUS
 62
           4
100
AcDbCircle
 10
0.0
 20
5254.668221991704
 40
110.700000000001
  0
CIRCLE
  5
331
100
AcDbEntity
  8
1
  6
CONTINUOUS
 62
           4
100
AcDbCircle
 10
0.0
 20
5254.668221991704
 40
84.123
  0
CIRCLE
  5
330
100
AcDbEntity
  8
1
  6
CONTINUOUS
 62
           7
100
AcDbCircle
 10
0.000000000003
 20
5254.668221991704
 40
317.5
  0
CIRCLE
  5
32F
100
AcDbEntity
  8
1
  6
CONTINUOUS
 62
           3
100
AcDbCircle
 10
508.472255321878
 20
1295.200848327053
 40
40.0
  0
CIRCLE
  5
32E
100
AcDbEntity
  8
1
  6
CONTINUOUS
 62
           7
100
AcDbCircle
 10
4410.672955187229
 20
600.0
 40
15.0
  0
CIRCLE
  5
32D
100
AcDbEntity
  8
1
  6
CONTINUOUS
 62
           2
100
AcDbCircle
 10
4410.672955187229
 20
600.0
 40
8.350000000002
  0
CIRCLE
  5
32C
100
AcDbEntity
  8
1
  6
CONTINUOUS
 62
           7
100
AcDbCircle
 10
4410.672955187229
 20
600.0
 40
7.5
  0
ARC
  5
32B
100
AcDbEntity
  8
7
  6
CONTINUOUS
 62
           7
100
AcDbCircle
 10
4611.872955187226
 20
2887.299999999997
 40
3.200000000002
100
AcDbArc
 50
90.0
 51
180.0
  0
ARC
  5
32A
100
AcDbEntity
  8
7
  6
CONTINUOUS
 62
           7
100
AcDbCircle
 10
4612.749768187226
 20
2892.499999999999
 40
2.0
100
AcDbArc
 50
-90.0
 51
-55.000000000065
  0
ARC
  5
329
100
AcDbEntity
  8
7
  6
CONTINUOUS
 62
           7
100
AcDbCircle
 10
4633.372955187226
 20
2909.041133999996
 40
1.999999999999
100
AcDbArc
 50
-54.999999999933
 51
0.0
  0
ARC
  5
328
100
AcDbEntity
  8
7
  6
CONTINUOUS
 62
           7
100
AcDbCircle
 10
4638.572955187226
 20
2908.799999999997
 40
3.200000000002
100
AcDbArc
 50
90.0
 51
180.0
  0
ARC
  5
327
100
AcDbEntity
  8
7
  6
CONTINUOUS
 62
           7
100
AcDbCircle
 10
4810.472955187226
 20
2909.041133999996
 40
2.0
100
AcDbArc
 50
180.0
 51
-124.999999999938
  0
ARC
  5
326
100
AcDbEntity
  8
7
  6
CONTINUOUS
 62
           7
100
AcDbCircle
 10
4805.272955187227
 20
2908.799999999997
 40
3.199999999999
100
AcDbArc
 50
0.0
 51
90.0
  0
ARC
  5
325
100
AcDbEntity
  8
7
  6
CONTINUOUS
 62
           7
100
AcDbCircle
 10
4826.472955187226
 20
2887.111356999997
 40
6.200000000003
100
AcDbArc
 50
0.0
 51
57.318085000007
  0
ARC
  5
324
100
AcDbEntity
  8
7
  6
CONTINUOUS
 62
           7
100
AcDbCircle
 10
108.800000000001
 20
2887.299999999998
 40
3.199999999999
100
AcDbArc
 50
0.0
 51
90.0
  0
ARC
  5
323
100
AcDbEntity
  8
7
  6
CONTINUOUS
 62
           7
100
AcDbCircle
 10
107.923187
 20
2892.499999999999
 40
2.0
100
AcDbArc
 50
-124.999999999983
 51
-90.0
  0
ARC
  5
322
100
AcDbEntity
  8
7
  6
CONTINUOUS
 62
           7
100
AcDbCircle
 10
87.300000000001
 20
2909.041133999999
 40
2.0
100
AcDbArc
 50
180.0
 51
-124.999999999986
  0
ARC
  5
321
100
AcDbEntity
  8
7
  6
CONTINUOUS
 62
           7
100
AcDbCircle
 10
82.100000000002
 20
2908.799999999998
 40
3.199999999999
100
AcDbArc
 50
0.0
 51
90.0
  0
ARC
  5
320
100
AcDbEntity
  8
7
  6
CONTINUOUS
 62
           7
100
AcDbCircle
 10
-89.8
 20
2909.041133999999
 40
2.0
100
AcDbArc
 50
-55.000000000013
 51
0.0
  0
ARC
  5
31F
100
AcDbEntity
  8
7
  6
CONTINUOUS
 62
           7
100
AcDbCircle
 10
-84.599999999999
 20
2908.799999999998
 40
3.200000000001
100
AcDbArc
 50
90.0
 51
180.0
  0
ARC
  5
31E
100
AcDbEntity
  8
7
  6
CONTINUOUS
 62
           7
100
AcDbCircle
 10
-105.8
 20
2887.111356999998
 40
6.200000000001
100
AcDbArc
 50
122.681914999995
 51
180.0
  0
ARC
  5
31D
100
AcDbEntity
  8
1
  6
CONTINUOUS
 62
           7
100
AcDbCircle
 10
-39.999999999997
 20
5219.668221991702
 40
454.999999999998
100
AcDbArc
 50
-4.148070782362
 51
1.333022116547
  0
ARC
  5
31C
100
AcDbEntity
  8
1
  6
CONTINUOUS
 62
           7
100
AcDbCircle
 10
55.000000000001
 20
5239.668221991702
 40
360.0
100
AcDbArc
 50
73.746287853067
 51
93.901683355293
  0
ARC
  5
31B
100
AcDbEntity
  8
1
  6
CONTINUOUS
 62
           7
100
AcDbCircle
 10
-39.999999999997
 20
5304.668221991702
 40
540.000000000002
100
AcDbArc
 50
-174.156706922602
 51
-90.0
  0
ARC
  5
31A
100
AcDbEntity
  8
1
  6
CONTINUOUS
 62
           7
100
AcDbCircle
 10
-577.680202350801
 20
5254.668221991704
 40
5.0
100
AcDbArc
 50
90.0
 51
95.047515519197
  0
ARC
  5
319
100
AcDbEntity
  8
1
  6
CONTINUOUS
 62
           7
100
AcDbCircle
 10
-577.680202350801
 20
5254.668221991704
 40
5.000000000001
100
AcDbArc
 50
-84.421966108667
 51
90.0
  0
ARC
  5
318
100
AcDbEntity
  8
1
  6
CONTINUOUS
 62
           7
100
AcDbCircle
 10
-39.999999999997
 20
5304.668221991702
 40
540.000000000002
100
AcDbArc
 50
180.0
 51
-175.217743666855
  0
ARC
  5
317
100
AcDbEntity
  8
1
  6
CONTINUOUS
 62
           7
100
AcDbCircle
 10
-39.999999999997
 20
5219.668221991702
 40
455.0
100
AcDbArc
 50
-90.0
 51
-5.407325019864
  0
ARC
  5
316
100
AcDbEntity
  8
1
  6
CONTINUOUS
 62
           7
100
AcDbCircle
 10
413.419036500112
 20
5181.771291518237
 40
4.999999999999
100
AcDbArc
 50
85.53711565825
 51
90.0
  0
ARC
  5
315
100
AcDbEntity
  8
1
  6
CONTINUOUS
 62
           7
100
AcDbCircle
 10
413.419036500112
 20
5181.771291518237
 40
5.0
100
AcDbArc
 50
90.0
 51
-95.092511460494
  0
ARC
  5
314
100
AcDbEntity
  8
1
  6
CONTINUOUS
 62
           7
100
AcDbCircle
 10
398.715224597903
 20
5346.718884668842
 40
5.000000000003
100
AcDbArc
 50
107.697175098905
 51
-73.098606012767
  0
ARC
  5
313
100
AcDbEntity
  8
1
  6
CONTINUOUS
 62
           7
100
AcDbCircle
 10
55.000000000001
 20
5239.668221991702
 40
360.000000000002
100
AcDbArc
 50
0.0
 51
16.503503431389
  0
ARC
  5
312
100
AcDbEntity
  8
1
  6
CONTINUOUS
 62
           7
100
AcDbCircle
 10
55.000000000001
 20
5239.668221991702
 40
360.000000000001
100
AcDbArc
 50
18.095065654746
 51
72.15472562971
  0
ARC
  5
311
100
AcDbEntity
  8
1
  6
CONTINUOUS
 62
           7
100
AcDbCircle
 10
160.551161566789
 20
5583.846885322104
 40
5.0
100
AcDbArc
 50
163.348397297227
 51
-17.447383814436
  0
ARC
  5
310
100
AcDbEntity
  8
1
  6
CONTINUOUS
 62
           7
100
AcDbCircle
 10
55.000000000001
 20
5239.668221991702
 40
359.999999999999
100
AcDbArc
 50
-1.498629881627
 51
0.0
  0
ARC
  5
30F
100
AcDbEntity
  8
1
  6
CONTINUOUS
 62
           7
100
AcDbCircle
 10
0.0
 20
5254.668221991704
 40
125.0
100
AcDbArc
 50
90.0
 51
-19.47546158221
  0
ARC
  5
30E
100
AcDbEntity
  8
1
  6
CONTINUOUS
 62
           7
100
AcDbCircle
 10
0.0
 20
5254.668221991704
 40
125.0
100
AcDbArc
 50
19.47546158221
 51
90.0
  0
ARC
  5
30D
100
AcDbEntity
  8
1
  6
CONTINUOUS
 62
           3
100
AcDbCircle
 10
4530.836522878268
 20
1925.0
 40
9.499999999999
100
AcDbArc
 50
-124.797812779177
 51
0.0
  0
ARC
  5
30C
100
AcDbEntity
  8
1
  6
CONTINUOUS
 62
           3
100
AcDbCircle
 10
4530.836522878268
 20
1925.0
 40
9.5
100
AcDbArc
 50
0.0
 51
125.916957371428
  0
ARC
  5
30B
100
AcDbEntity
  8
1
  6
CONTINUOUS
 62
           3
100
AcDbCircle
 10
4530.836522878268
 20
1925.0
 40
5.871834995068
100
AcDbArc
 50
0.0
 51
38.599713917935
  0
ARC
  5
30A
100
AcDbEntity
  8
1
  6
CONTINUOUS
 62
           3
100
AcDbCircle
 10
4530.836522878268
 20
1925.0
 40
5.871834995067
100
AcDbArc
 50
38.599713917935
 51
90.0
  0
ARC
  5
309
100
AcDbEntity
  8
1
  6
CONTINUOUS
 62
           3
100
AcDbCircle
 10
4530.836522878268
 20
1925.0
 40
5.871834995066
100
AcDbArc
 50
-90.0
 51
0.0
  0
ARC
  5
308
100
AcDbEntity
  8
0
  6
CONTINUOUS
 62
           3
100
AcDbCircle
 10
4089.072951908745
 20
1368.000000000113
 40
2.499999999998
100
AcDbArc
 50
0.0
 51
180.0
  0
ARC
  5
307
100
AcDbEntity
  8
0
  6
CONTINUOUS
 62
           3
100
AcDbCircle
 10
4089.072951908745
 20
1631.999999999899
 40
2.499999999997
100
AcDbArc
 50
180.0
 51
0.0
  0
ARC
  5
306
100
AcDbEntity
  8
0
  6
CONTINUOUS
 62
           3
100
AcDbCircle
 10
3964.072951909047
 20
1631.999999999899
 40
2.499999999996
100
AcDbArc
 50
180.0
 51
0.0
  0
ARC
  5
305
100
AcDbEntity
  8
0
  6
CONTINUOUS
 62
           3
100
AcDbCircle
 10
3964.072951909047
 20
1368.000000000113
 40
2.499999999998
100
AcDbArc
 50
0.0
 51
180.0
  0
ARC
  5
304
100
AcDbEntity
  8
0
  6
CONTINUOUS
 62
           3
100
AcDbCircle
 10
3968.572951909045
 20
1508.999999999996
 40
0.999999999996
100
AcDbArc
 50
-90.0
 51
90.0
  0
ARC
  5
303
100
AcDbEntity
  8
0
  6
CONTINUOUS
 62
           3
100
AcDbCircle
 10
3968.572951909045
 20
1431.000000000062
 40
1.0
100
AcDbArc
 50
-90.0
 51
90.0
  0
ARC
  5
302
100
AcDbEntity
  8
0
  6
CONTINUOUS
 62
           3
100
AcDbCircle
 10
3968.572951909045
 20
1409.000000000178
 40
0.999999999996
100
AcDbArc
 50
-90.0
 51
90.0
  0
ARC
  5
301
100
AcDbEntity
  8
0
  6
CONTINUOUS
 62
           3
100
AcDbCircle
 10
4084.57295190875
 20
1409.000000000178
 40
1.0
100
AcDbArc
 50
90.0
 51
-90.0
  0
ARC
  5
300
100
AcDbEntity
  8
0
  6
CONTINUOUS
 62
           3
100
AcDbCircle
 10
4084.57295190875
 20
1431.000000000062
 40
0.999999999997
100
AcDbArc
 50
90.0
 51
-90.0
  0
ARC
  5
2FF
100
AcDbEntity
  8
0
  6
CONTINUOUS
 62
           3
100
AcDbCircle
 10
4084.57295190875
 20
1508.999999999996
 40
1.0
100
AcDbArc
 50
90.0
 51
-90.0
  0
ARC
  5
2FE
100
AcDbEntity
  8
0
  6
CONTINUOUS
 62
           3
100
AcDbCircle
 10
4084.57295190875
 20
1530.99999999988
 40
1.0
100
AcDbArc
 50
90.0
 51
-90.0
  0
ARC
  5
2FD
100
AcDbEntity
  8
0
  6
CONTINUOUS
 62
           3
100
AcDbCircle
 10
3968.572951909045
 20
1530.99999999988
 40
0.999999999996
100
AcDbArc
 50
-90.0
 51
90.0
  0
ARC
  5
2FC
100
AcDbEntity
  8
0
  6
CONTINUOUS
 62
           3
100
AcDbCircle
 10
4033.046454600692
 20
1389.999999999996
 40
0.900000000001
100
AcDbArc
 50
-90.0
 51
-62.73395554943
  0
ARC
  5
2FB
100
AcDbEntity
  8
0
  6
CONTINUOUS
 62
           3
100
AcDbCircle
 10
4020.099449217102
 20
1389.999999999996
 40
0.900000000001
100
AcDbArc
 50
-117.26604445057
 51
-90.0
  0
ARC
  5
2FA
100
AcDbEntity
  8
0
  6
CONTINUOUS
 62
           3
100
AcDbCircle
 10
4026.572951908896
 20
1315.000000000059
 40
53.999999999955
100
AcDbArc
 50
180.0
 51
0.0
  0
ARC
  5
2F9
100
AcDbEntity
  8
0
  6
CONTINUOUS
 62
           3
100
AcDbCircle
 10
4026.572951908896
 20
1315.000000000059
 40
45.99999999996
100
AcDbArc
 50
180.0
 51
0.0
  0
ARC
  5
2F8
100
AcDbEntity
  8
0
  6
CONTINUOUS
 62
           3
100
AcDbCircle
 10
4026.572951908896
 20
1355.000000000222
 40
3.999999999996
100
AcDbArc
 50
180.0
 51
0.0
  0
ARC
  5
2F7
100
AcDbEntity
  8
1
  6
CONTINUOUS
 62
           3
100
AcDbCircle
 10
511.509758321877
 20
1267.114622327062
 40
0.500000000002
100
AcDbArc
 50
-83.827497998172
 51
-5.006793000224
  0
ARC
  5
2F6
100
AcDbEntity
  8
1
  6
CONTINUOUS
 62
           3
100
AcDbCircle
 10
505.434752321878
 20
1267.114622327062
 40
0.499999999996
100
AcDbArc
 50
-174.993206999703
 51
-96.172501999341
  0
ARC
  5
2F5
100
AcDbEntity
  8
1
  6
CONTINUOUS
 62
           3
100
AcDbCircle
 10
511.509758321877
 20
1323.287074327053
 40
0.500000000004
100
AcDbArc
 50
5.006793001366
 51
83.827497998172
  0
ARC
  5
2F4
100
AcDbEntity
  8
1
  6
CONTINUOUS
 62
           3
100
AcDbCircle
 10
505.434752321878
 20
1323.287074327053
 40
0.5
100
AcDbArc
 50
96.172501999341
 51
174.993206998561
  0
ARC
  5
2F3
100
AcDbEntity
  8
1
  6
CONTINUOUS
 62
           3
100
AcDbCircle
 10
504.433952321884
 20
1295.200848327053
 40
9.999999999999
100
AcDbArc
 50
-5.006792999978
 51
5.006793000023
  0
ARC
  5
2F2
100
AcDbEntity
  8
1
  6
CONTINUOUS
 62
           3
100
AcDbCircle
 10
512.510557321878
 20
1295.200848327053
 40
10.0
100
AcDbArc
 50
174.993206999977
 51
-174.993207000021
  0
ARC
  5
2F1
100
AcDbEntity
  8
1
  6
CONTINUOUS
 62
           3
100
AcDbCircle
 10
508.472255321878
 20
1295.200848327053
 40
10.749999999989
100
AcDbArc
 50
118.77350699997
 51
-118.773506999949
  0
ARC
  5
2F0
100
AcDbEntity
  8
1
  6
CONTINUOUS
 62
           3
100
AcDbCircle
 10
508.472255321878
 20
1295.200848327053
 40
10.75
100
AcDbArc
 50
-61.226493000017
 51
0.0
  0
ARC
  5
2EF
100
AcDbEntity
  8
1
  6
CONTINUOUS
 62
           3
100
AcDbCircle
 10
508.472255321878
 20
1295.200848327053
 40
10.75
100
AcDbArc
 50
0.0
 51
61.226492999996
  0
ARC
  5
2EE
100
AcDbEntity
  8
1
  6
CONTINUOUS
 62
           3
100
AcDbCircle
 10
508.472255321878
 20
1295.200848327053
 40
28.749999999988
100
AcDbArc
 50
-96.172501999992
 51
-83.827497999993
  0
ARC
  5
2ED
100
AcDbEntity
  8
1
  6
CONTINUOUS
 62
           3
100
AcDbCircle
 10
508.472255321878
 20
1295.200848327053
 40
28.750000000009
100
AcDbArc
 50
83.827497999997
 51
96.172501999988
  0
ARC
  5
2EC
100
AcDbEntity
  8
1
  6
CONTINUOUS
 62
           7
100
AcDbCircle
 10
3512.67295518723
 20
1256.750000000003
 40
17.0
100
AcDbArc
 50
180.0
 51
-90.0
  0
ARC
  5
2EB
100
AcDbEntity
  8
1
  6
CONTINUOUS
 62
           7
100
AcDbCircle
 10
3512.67295518723
 20
1256.750000000003
 40
37.0
100
AcDbArc
 50
180.0
 51
-90.0
  0
LINE
  5
2EA
100
AcDbEntity
  8
1
  6
CONTINUOUS
 62
           7
100
AcDbLine
 10
5045.672955187229
 20
2550.00451815482
 11
5045.672955187229
 21
2588.00451815482
  0
LINE
  5
2E9
100
AcDbEntity
  8
1
  6
CONTINUOUS
 62
           7
100
AcDbLine
 10
5045.672955187229
 20
2127.500000000003
 11
5045.672955187229
 21
2165.5
  0
LINE
  5
2E8
100
AcDbEntity
  8
1
  6
CONTINUOUS
 62
           7
100
AcDbLine
 10
4812.672955187225
 20
2127.500000000007
 11
5117.128312330089
 21
2127.500000000003
  0
LINE
  5
2E7
100
AcDbEntity
  8
1
  6
CONTINUOUS
 62
           7
100
AcDbLine
 10
4812.672955187225
 20
2165.500000000007
 11
4812.672955187225
 21
2127.500000000007
  0
LINE
  5
2E6
100
AcDbEntity
  8
1
  6
CONTINUOUS
 62
           7
100
AcDbLine
 10
4647.542867899238
 20
2165.500000000007
 11
4647.542867899238
 21
2127.500000000007
  0
LINE
  5
2E5
100
AcDbEntity
  8
1
  6
CONTINUOUS
 62
           7
100
AcDbLine
 10
4647.542867899238
 20
2588.00451815482
 11
4193.828582184955
 21
2588.00451815482
  0
LINE
  5
2E4
100
AcDbEntity
  8
1
  6
CONTINUOUS
 62
           7
100
AcDbLine
 10
4647.542867899238
 20
2588.00451815482
 11
4647.542867899238
 21
2550.00451815482
  0
LINE
  5
2E3
100
AcDbEntity
  8
1
  6
CONTINUOUS
 62
           7
100
AcDbLine
 10
4812.672955187225
 20
2588.00451815482
 11
4812.672955187225
 21
2550.00451815482
  0
LINE
  5
2E2
100
AcDbEntity
  8
1
  6
CONTINUOUS
 62
           7
100
AcDbLine
 10
4676.922955187227
 20
2680.804518154823
 11
4676.922955187227
 21
2740.804518154823
  0
LINE
  5
2E1
100
AcDbEntity
  8
1
  6
CONTINUOUS
 62
           7
100
AcDbLine
 10
4764.422955187227
 20
2740.804518154823
 11
4764.422955187227
 21
2680.804518154823
  0
LINE
  5
2E0
100
AcDbEntity
  8
1
  6
CONTINUOUS
 62
           7
100
AcDbLine
 10
4686.922955187227
 20
2750.804518154823
 11
4754.422955187227
 21
2750.804518154823
  0
LINE
  5
2DF
100
AcDbEntity
  8
1
  6
CONTINUOUS
 62
           7
100
AcDbLine
 10
4754.422955187227
 20
2670.804518154823
 11
4686.922955187227
 21
2670.804518154823
  0
LINE
  5
2DE
100
AcDbEntity
  8
1
  6
CONTINUOUS
 62
           7
100
AcDbLine
 10
5200.672955187229
 20
2165.5
 11
5120.672955187223
 21
2165.5
  0
LINE
  5
2DD
100
AcDbEntity
  8
1
  6
CONTINUOUS
 62
           7
100
AcDbLine
 10
5120.672955187223
 20
2550.5
 11
5200.672955187229
 21
2550.5
  0
LINE
  5
2DC
100
AcDbEntity
  8
1
  6
CONTINUOUS
 62
           7
100
AcDbLine
 10
5160.672955187229
 20
2590.5
 11
5160.672955187229
 21
2125.5
  0
LINE
  5
2DB
100
AcDbEntity
  8
7
  6
CONTINUOUS
 62
           4
100
AcDbLine
 10
4611.872955187226
 20
2890.499999999999
 11
4831.664978187228
 21
2890.499999999999
  0
LINE
  5
2DA
100
AcDbEntity
  8
1
  6
CONTINUOUS
 62
           4
100
AcDbLine
 10
4835.672955187229
 20
2852.537538373365
 11
4605.672955187227
 21
2852.537538373365
  0
LINE
  5
2D9
100
AcDbEntity
  8
1
  6
CONTINUOUS
 62
           7
100
AcDbLine
 10
5120.672955187229
 20
2165.5
 11
4193.828582184955
 21
2165.5
  0
LINE
  5
2D8
100
AcDbEntity
  8
1
  6
CONTINUOUS
 62
           7
100
AcDbLine
 10
5018.172955187229
 20
2075.0
 11
4720.672955187227
 21
2075.0
  0
LINE
  5
2D7
100
AcDbEntity
  8
1
  6
CONTINUOUS
 62
           7
100
AcDbLine
 10
4720.672955187227
 20
2075.0
 11
4423.172955187227
 21
2075.0
  0
LINE
  5
2D6
100
AcDbEntity
  8
1
  6
CONTINUOUS
 62
           4
100
AcDbLine
 10
5018.172955187229
 20
2081.0
 11
4423.172955187227
 21
2081.0
  0
LINE
  5
2D5
100
AcDbEntity
  8
1
  6
CONTINUOUS
 62
           4
100
AcDbLine
 10
5018.172955187229
 20
2081.0
 11
5018.172955187229
 21
2075.0
  0
LINE
  5
2D4
100
AcDbEntity
  8
1
  6
CONTINUOUS
 62
           4
100
AcDbLine
 10
4423.172955187227
 20
2081.0
 11
4423.172955187227
 21
2075.0
  0
LINE
  5
2D3
100
AcDbEntity
  8
1
  6
CONTINUOUS
 62
           4
100
AcDbLine
 10
5156.172955187229
 20
2125.5
 11
5165.172955187229
 21
2125.5
  0
LINE
  5
2D2
100
AcDbEntity
  8
1
  6
CONTINUOUS
 62
           4
100
AcDbLine
 10
5165.172955187229
 20
2165.5
 11
5165.172955187229
 21
2550.5
  0
LINE
  5
2D1
100
AcDbEntity
  8
1
  6
CONTINUOUS
 62
           4
100
AcDbLine
 10
5156.172955187229
 20
2550.5
 11
5156.172955187229
 21
2165.5
  0
LINE
  5
2D0
100
AcDbEntity
  8
1
  6
CONTINUOUS
 62
           4
100
AcDbLine
 10
5156.172955187229
 20
2125.5
 11
5156.172955187229
 21
2160.0
  0
LINE
  5
2CF
100
AcDbEntity
  8
1
  6
CONTINUOUS
 62
           4
100
AcDbLine
 10
5120.672955187223
 20
2161.0
 11
5155.172955187229
 21
2161.0
  0
LINE
  5
2CE
100
AcDbEntity
  8
1
  6
CONTINUOUS
 62
           4
100
AcDbLine
 10
5165.172955187229
 20
2160.0
 11
5165.172955187229
 21
2125.5
  0
LINE
  5
2CD
100
AcDbEntity
  8
1
  6
CONTINUOUS
 62
           4
100
AcDbLine
 10
5166.172955187229
 20
2161.0
 11
5200.672955187229
 21
2161.0
  0
LINE
  5
2CC
100
AcDbEntity
  8
1
  6
CONTINUOUS
 62
           4
100
AcDbLine
 10
5155.172955187229
 20
2555.0
 11
5120.672955187223
 21
2555.0
  0
LINE
  5
2CB
100
AcDbEntity
  8
1
  6
CONTINUOUS
 62
           4
100
AcDbLine
 10
5156.172955187229
 20
2556.0
 11
5156.172955187229
 21
2590.5
  0
LINE
  5
2CA
100
AcDbEntity
  8
1
  6
CONTINUOUS
 62
           4
100
AcDbLine
 10
5165.172955187229
 20
2590.5
 11
5156.172955187229
 21
2590.5
  0
LINE
  5
2C9
100
AcDbEntity
  8
1
  6
CONTINUOUS
 62
           4
100
AcDbLine
 10
5165.172955187229
 20
2590.5
 11
5165.172955187229
 21
2556.000000000001
  0
LINE
  5
2C8
100
AcDbEntity
  8
1
  6
CONTINUOUS
 62
           4
100
AcDbLine
 10
5200.672955187229
 20
2555.0
 11
5166.172955187229
 21
2555.0
  0
LINE
  5
2C7
100
AcDbEntity
  8
1
  6
CONTINUOUS
 62
           7
100
AcDbLine
 10
5200.672955187229
 20
2555.0
 11
5200.672955187229
 21
2161.0
  0
LINE
  5
2C6
100
AcDbEntity
  8
1
  6
CONTINUOUS
 62
           7
100
AcDbLine
 10
5120.672955187229
 20
2165.5
 11
5120.672955187229
 21
2550.5
  0
LINE
  5
2C5
100
AcDbEntity
  8
1
  6
CONTINUOUS
 62
           7
100
AcDbLine
 10
4978.872955187226
 20
2081.0
 11
4978.872955187226
 21
2127.500000000003
  0
LINE
  5
2C4
100
AcDbEntity
  8
1
  6
CONTINUOUS
 62
           7
100
AcDbLine
 10
4240.67295518722
 20
2550.500000000001
 11
4240.67295518722
 21
2165.5
  0
LINE
  5
2C3
100
AcDbEntity
  8
1
  6
CONTINUOUS
 62
           7
100
AcDbLine
 10
4193.828582184955
 20
2127.500000000003
 11
4647.542867899238
 21
2127.500000000007
  0
LINE
  5
2C2
100
AcDbEntity
  8
1
  6
CONTINUOUS
 62
           7
100
AcDbLine
 10
4462.472955187228
 20
2127.500000000003
 11
4462.472955187228
 21
2081.0
  0
LINE
  5
2C1
100
AcDbEntity
  8
2
  6
CONTINUOUS
 62
           4
100
AcDbLine
 10
4627.422955187227
 20
2596.00451815482
 11
4627.422955187227
 21
2594.00451815482
  0
LINE
  5
2C0
100
AcDbEntity
  8
7
  6
CONTINUOUS
 62
           7
100
AcDbLine
 10
4605.672955187227
 20
2824.999999999999
 11
4605.672955187227
 21
2852.537538373365
  0
LINE
  5
2BF
100
AcDbEntity
  8
7
  6
CONTINUOUS
 62
           7
100
AcDbLine
 10
4832.672955187229
 20
2887.111356999997
 11
4835.672955187229
 21
2852.537538373365
  0
LINE
  5
2BE
100
AcDbEntity
  8
2
  6
CONTINUOUS
 62
           7
100
AcDbLine
 10
4829.286619187225
 20
2622.50451815482
 11
4818.241597187227
 21
2596.00451815482
  0
LINE
  5
2BD
100
AcDbEntity
  8
2
  6
CONTINUOUS
 62
           4
100
AcDbLine
 10
4818.241597187227
 20
2596.00451815482
 11
4623.104313187227
 21
2596.00451815482
  0
LINE
  5
2BC
100
AcDbEntity
  8
2
  6
CONTINUOUS
 62
           7
100
AcDbLine
 10
4829.286619187225
 20
2813.499999999999
 11
4824.493496187226
 21
2824.999999999999
  0
LINE
  5
2BB
100
AcDbEntity
  8
2
  6
CONTINUOUS
 62
           7
100
AcDbLine
 10
4829.286619187225
 20
2813.499999999999
 11
4829.286619187225
 21
2622.50451815482
  0
LINE
  5
2BA
100
AcDbEntity
  8
2
  6
CONTINUOUS
 62
           4
100
AcDbLine
 10
4813.922955187229
 20
2594.00451815482
 11
4813.922955187229
 21
2596.00451815482
  0
LINE
  5
2B9
100
AcDbEntity
  8
2
  6
CONTINUOUS
 62
           7
100
AcDbLine
 10
4616.852414187226
 20
2824.999999999999
 11
4612.059291187226
 21
2813.499999999999
  0
LINE
  5
2B8
100
AcDbEntity
  8
2
  6
CONTINUOUS
 62
           7
100
AcDbLine
 10
4612.059291187226
 20
2813.499999999999
 11
4612.059291187226
 21
2622.50451815482
  0
LINE
  5
2B7
100
AcDbEntity
  8
2
  6
CONTINUOUS
 62
           7
100
AcDbLine
 10
4623.104313187227
 20
2596.00451815482
 11
4612.059291187226
 21
2622.50451815482
  0
LINE
  5
2B6
100
AcDbEntity
  8
7
  6
CONTINUOUS
 62
           7
100
AcDbLine
 10
4638.572955187226
 20
2911.999999999999
 11
4720.672955187227
 21
2911.999999999999
  0
LINE
  5
2B5
100
AcDbEntity
  8
7
  6
CONTINUOUS
 62
           7
100
AcDbLine
 10
4613.896921187226
 20
2890.861695999999
 11
4634.520108187227
 21
2907.402829999999
  0
LINE
  5
2B4
100
AcDbEntity
  8
7
  6
CONTINUOUS
 62
           7
100
AcDbLine
 10
4605.672955187227
 20
2852.537538373365
 11
4608.672955187227
 21
2887.299999999997
  0
LINE
  5
2B3
100
AcDbEntity
  8
7
  6
CONTINUOUS
 62
           7
100
AcDbLine
 10
4720.672955187227
 20
2824.999999999999
 11
4605.672955187227
 21
2824.999999999999
  0
LINE
  5
2B2
100
AcDbEntity
  8
7
  6
CONTINUOUS
 62
           7
100
AcDbLine
 10
4835.672955187229
 20
2852.537538373365
 11
4835.672955187229
 21
2824.999999999999
  0
LINE
  5
2B1
100
AcDbEntity
  8
7
  6
CONTINUOUS
 62
           7
100
AcDbLine
 10
4805.272955187227
 20
2911.999999999999
 11
4720.672955187227
 21
2911.999999999999
  0
LINE
  5
2B0
100
AcDbEntity
  8
7
  6
CONTINUOUS
 62
           7
100
AcDbLine
 10
4829.820798187227
 20
2892.329780999997
 11
4809.325803187227
 21
2907.402829999999
  0
LINE
  5
2AF
100
AcDbEntity
  8
7
  6
CONTINUOUS
 62
           7
100
AcDbLine
 10
4835.672955187229
 20
2824.999999999999
 11
4720.672955187227
 21
2824.999999999999
  0
LINE
  5
2AE
100
AcDbEntity
  8
1
  6
DOT_CENTER
 62
           2
100
AcDbLine
 10
5253.129782682287
 20
2358.0
 11
4163.453453950715
 21
2358.0
  0
LINE
  5
2AD
100
AcDbEntity
  8
1
  6
CONTINUOUS
 62
           4
100
AcDbLine
 10
4510.672955187227
 20
2589.00451815482
 11
4510.672955187227
 21
2588.00451815482
  0
LINE
  5
2AC
100
AcDbEntity
  8
1
  6
CONTINUOUS
 62
           7
100
AcDbLine
 10
5120.672955187223
 20
2550.504518154824
 11
4193.828582184951
 21
2550.5
  0
LINE
  5
2AB
100
AcDbEntity
  8
1
  6
CONTINUOUS
 62
           7
100
AcDbLine
 10
4193.828582184955
 20
2588.00451815482
 11
4193.828582184951
 21
2550.5
  0
LINE
  5
2AA
100
AcDbEntity
  8
1
  6
CONTINUOUS
 62
           7
100
AcDbLine
 10
5117.128312330084
 20
2588.00451815482
 11
4812.672955187225
 21
2588.00451815482
  0
LINE
  5
2A9
100
AcDbEntity
  8
1
  6
CONTINUOUS
 62
           7
100
AcDbLine
 10
4193.828582184955
 20
2165.5
 11
4193.828582184955
 21
2127.500000000003
  0
LINE
  5
2A8
100
AcDbEntity
  8
1
  6
CONTINUOUS
 62
           7
100
AcDbLine
 10
5120.672955187229
 20
2132.500000000003
 11
5120.672955187229
 21
2166.299999999999
  0
LINE
  5
2A7
100
AcDbEntity
  8
1
  6
CONTINUOUS
 62
           7
100
AcDbLine
 10
5117.128312330084
 20
2588.00451815482
 11
5120.672955187229
 21
2583.00451815482
  0
LINE
  5
2A6
100
AcDbEntity
  8
1
  6
CONTINUOUS
 62
           7
100
AcDbLine
 10
5120.672955187229
 20
2549.700000000001
 11
5120.672955187229
 21
2583.00451815482
  0
LINE
  5
2A5
100
AcDbEntity
  8
1
  6
CONTINUOUS
 62
           7
100
AcDbLine
 10
5120.672955187229
 20
2132.500000000003
 11
5117.128312330089
 21
2127.500000000003
  0
LINE
  5
2A4
100
AcDbEntity
  8
1
  6
DOT_CENTER
 62
           2
100
AcDbLine
 10
4720.672955187227
 20
2049.379684115578
 11
4720.672955187227
 21
2945.483879124645
  0
LINE
  5
2A3
100
AcDbEntity
  8
1
  6
CONTINUOUS
 62
           4
100
AcDbLine
 10
4925.666018922835
 20
2594.00451815482
 11
4515.672955187227
 21
2594.00451815482
  0
LINE
  5
2A2
100
AcDbEntity
  8
1
  6
CONTINUOUS
 62
           4
100
AcDbLine
 10
4515.672955187227
 20
2594.00451815482
 11
4510.672955187227
 21
2589.00451815482
  0
LINE
  5
2A1
100
AcDbEntity
  8
1
  6
CONTINUOUS
 62
           4
100
AcDbLine
 10
4930.672955187229
 20
2589.00451815482
 11
4925.666018922835
 21
2594.00451815482
  0
LINE
  5
2A0
100
AcDbEntity
  8
1
  6
CONTINUOUS
 62
           4
100
AcDbLine
 10
4930.672955187229
 20
2588.00451815482
 11
4930.672955187229
 21
2589.00451815482
  0
LINE
  5
29F
100
AcDbEntity
  8
1
  6
CONTINUOUS
 62
           2
100
AcDbLine
 10
4491.826904477875
 20
2537.0
 11
4491.826904477875
 21
2176.999999999996
  0
LINE
  5
29E
100
AcDbEntity
  8
1
  6
CONTINUOUS
 62
           2
100
AcDbLine
 10
4491.826904477875
 20
2176.999999999996
 11
4896.763544721225
 21
2176.999999999996
  0
LINE
  5
29D
100
AcDbEntity
  8
1
  6
CONTINUOUS
 62
           2
100
AcDbLine
 10
4896.763544721225
 20
2176.999999999996
 11
4896.763544721225
 21
2537.0
  0
LINE
  5
29C
100
AcDbEntity
  8
1
  6
CONTINUOUS
 62
           2
100
AcDbLine
 10
4896.763544721225
 20
2537.0
 11
4491.826904477875
 21
2537.0
  0
LINE
  5
29B
100
AcDbEntity
  8
1
  6
CONTINUOUS
 62
           7
100
AcDbLine
 10
5058.672955187229
 20
2550.00451815482
 11
5058.672955187229
 21
2165.5
  0
LINE
  5
29A
100
AcDbEntity
  8
2
  6
CONTINUOUS
 62
           7
100
AcDbLine
 10
108.613664
 20
2650.0
 11
108.613664
 21
2813.5
  0
LINE
  5
299
100
AcDbEntity
  8
2
  6
CONTINUOUS
 62
           7
100
AcDbLine
 10
-108.613663999999
 20
2650.0
 11
-108.613663999999
 21
2813.5
  0
LINE
  5
298
100
AcDbEntity
  8
1
  6
CONTINUOUS
 62
           7
100
AcDbLine
 10
156.5
 20
2671.300000000003
 11
118.613664
 21
2671.300000000003
  0
LINE
  5
297
100
AcDbEntity
  8
1
  6
CONTINUOUS
 62
           7
100
AcDbLine
 10
118.613664
 20
2751.300000000002
 11
156.5
 21
2751.300000000002
  0
LINE
  5
296
100
AcDbEntity
  8
1
  6
CONTINUOUS
 62
           7
100
AcDbLine
 10
108.613664
 20
2681.300000000003
 11
108.613664
 21
2741.300000000002
  0
LINE
  5
295
100
AcDbEntity
  8
1
  6
CONTINUOUS
 62
           7
100
AcDbLine
 10
166.5
 20
2741.300000000002
 11
166.5
 21
2681.300000000003
  0
LINE
  5
294
100
AcDbEntity
  8
7
  6
CONTINUOUS
 62
           7
100
AcDbLine
 10
115.0
 20
2852.537538373368
 11
115.0
 21
2824.999999999999
  0
LINE
  5
293
100
AcDbEntity
  8
7
  6
CONTINUOUS
 62
           7
100
AcDbLine
 10
-115.000000000001
 20
2852.537538373368
 11
-112.000000000001
 21
2887.111356999998
  0
LINE
  5
292
100
AcDbEntity
  8
1
  6
CONTINUOUS
 62
           4
100
AcDbLine
 10
115.0
 20
2852.537538373368
 11
-115.000000000001
 21
2852.537538373368
  0
LINE
  5
291
100
AcDbEntity
  8
2
  6
CONTINUOUS
 62
           7
100
AcDbLine
 10
-103.820541
 20
2824.999999999999
 11
-108.613663999999
 21
2813.5
  0
LINE
  5
290
100
AcDbEntity
  8
2
  6
CONTINUOUS
 62
           7
100
AcDbLine
 10
108.613664
 20
2813.5
 11
103.820541000001
 21
2824.999999999999
  0
LINE
  5
28F
100
AcDbEntity
  8
7
  6
CONTINUOUS
 62
           7
100
AcDbLine
 10
0.000000000001
 20
2911.999999999999
 11
82.100000000002
 21
2911.999999999999
  0
LINE
  5
28E
100
AcDbEntity
  8
7
  6
CONTINUOUS
 62
           7
100
AcDbLine
 10
86.152847000001
 20
2907.402829999999
 11
106.776034
 21
2890.861695999999
  0
LINE
  5
28D
100
AcDbEntity
  8
7
  6
CONTINUOUS
 62
           4
100
AcDbLine
 10
-110.992022999999
 20
2890.499999999999
 11
108.800000000001
 21
2890.499999999999
  0
LINE
  5
28C
100
AcDbEntity
  8
7
  6
CONTINUOUS
 62
           7
100
AcDbLine
 10
112.0
 20
2887.299999999998
 11
115.0
 21
2852.537538373368
  0
LINE
  5
28B
100
AcDbEntity
  8
7
  6
CONTINUOUS
 62
           7
100
AcDbLine
 10
115.0
 20
2824.999999999999
 11
0.000000000001
 21
2824.999999999999
  0
LINE
  5
28A
100
AcDbEntity
  8
7
  6
CONTINUOUS
 62
           7
100
AcDbLine
 10
-115.000000000001
 20
2824.999999999999
 11
-115.000000000001
 21
2852.537538373368
  0
LINE
  5
289
100
AcDbEntity
  8
7
  6
CONTINUOUS
 62
           7
100
AcDbLine
 10
0.000000000001
 20
2911.999999999999
 11
-84.599999999999
 21
2911.999999999999
  0
LINE
  5
288
100
AcDbEntity
  8
7
  6
CONTINUOUS
 62
           7
100
AcDbLine
 10
-88.652847999998
 20
2907.402829999999
 11
-109.147842999999
 21
2892.329780999999
  0
LINE
  5
287
100
AcDbEntity
  8
7
  6
CONTINUOUS
 62
           7
100
AcDbLine
 10
0.000000000001
 20
2824.999999999999
 11
-115.000000000001
 21
2824.999999999999
  0
LINE
  5
286
100
AcDbEntity
  8
1
  6
CONTINUOUS
 62
           7
100
AcDbLine
 10
-185.999999999997
 20
5440.668221991697
 11
-185.999999999997
 21
5044.668221991704
  0
LINE
  5
285
100
AcDbEntity
  8
1
  6
CONTINUOUS
 62
           7
100
AcDbLine
 10
185.999999999994
 20
5440.668221991697
 11
-209.999999999997
 21
5440.668221991697
  0
LINE
  5
284
100
AcDbEntity
  8
1
  6
CONTINUOUS
 62
           7
100
AcDbLine
 10
185.999999999994
 20
5068.668221991704
 11
185.999999999994
 21
5464.668221991704
  0
LINE
  5
283
100
AcDbEntity
  8
1
  6
CONTINUOUS
 62
           7
100
AcDbLine
 10
-185.999999999997
 20
5068.668221991704
 11
210.000000000003
 21
5068.668221991704
  0
LINE
  5
282
100
AcDbEntity
  8
1
  6
CONTINUOUS
 62
           7
100
AcDbLine
 10
30.503943030833
 20
5598.833842831118
 11
0.000000000003
 21
5654.668221991704
  0
LINE
  5
281
100
AcDbEntity
  8
1
  6
CONTINUOUS
 62
           7
100
AcDbLine
 10
-580.0
 20
5631.668221991704
 11
-579.999999999999
 21
5304.668221991702
  0
LINE
  5
280
100
AcDbEntity
  8
1
  6
CONTINUOUS
 62
           7
100
AcDbLine
 10
-580.0
 20
5631.668221991704
 11
-569.999999999999
 21
5641.668221991704
  0
LINE
  5
27F
100
AcDbEntity
  8
1
  6
CONTINUOUS
 62
           7
100
AcDbLine
 10
-569.999999999999
 20
5654.668221991704
 11
-569.999999999999
 21
5641.668221991704
  0
LINE
  5
27E
100
AcDbEntity
  8
1
  6
CONTINUOUS
 62
           7
100
AcDbLine
 10
-40.387316823277
 20
4727.823848989432
 11
-569.956959680416
 21
5254.668221991706
  0
LINE
  5
27D
100
AcDbEntity
  8
1
  6
CONTINUOUS
 62
           7
100
AcDbLine
 10
-569.956959680416
 20
5254.668221991706
 11
-174.999999999997
 21
5654.668221991706
  0
LINE
  5
27C
100
AcDbEntity
  8
1
  6
CONTINUOUS
 62
           7
100
AcDbLine
 10
410.992065668633
 20
5181.538134703715
 11
-40.387316823277
 21
4727.823848989432
  0
LINE
  5
27B
100
AcDbEntity
  8
1
  6
CONTINUOUS
 62
           7
100
AcDbLine
 10
166.5
 20
5288.418221991704
 11
166.5
 21
5220.918221991704
  0
LINE
  5
27A
100
AcDbEntity
  8
1
  6
CONTINUOUS
 62
           7
100
AcDbLine
 10
113.946258446662
 20
5220.918221991704
 11
113.946258446662
 21
5288.418221991704
  0
LINE
  5
279
100
AcDbEntity
  8
1
  6
CONTINUOUS
 62
           7
100
AcDbLine
 10
123.946258446662
 20
5298.418221991704
 11
156.5
 21
5298.418221991704
  0
LINE
  5
278
100
AcDbEntity
  8
1
  6
CONTINUOUS
 62
           7
100
AcDbLine
 10
156.5
 20
5210.918221991704
 11
123.946258446662
 21
5210.918221991704
  0
LINE
  5
277
100
AcDbEntity
  8
1
  6
CONTINUOUS
 62
           4
100
AcDbLine
 10
115.286004408817
 20
5293.418221991704
 11
109.265668111722
 21
5293.418221991704
  0
LINE
  5
276
100
AcDbEntity
  8
1
  6
CONTINUOUS
 62
           4
100
AcDbLine
 10
115.286004408817
 20
5215.918221991704
 11
109.265668111722
 21
5215.918221991704
  0
LINE
  5
275
100
AcDbEntity
  8
1
  6
CONTINUOUS
 62
           7
100
AcDbLine
 10
390.000000000001
 20
5346.668221991702
 11
160.000000000003
 21
5576.668221991702
  0
LINE
  5
274
100
AcDbEntity
  8
1
  6
CONTINUOUS
 62
           7
100
AcDbLine
 10
34.999999999998
 20
5654.668221991704
 11
39.999999999998
 21
5659.668221991704
  0
LINE
  5
273
100
AcDbEntity
  8
1
  6
CONTINUOUS
 62
           7
100
AcDbLine
 10
-605.000000000002
 20
5654.668221991704
 11
-610.000000000002
 21
5659.668221991704
  0
LINE
  5
272
100
AcDbEntity
  8
1
  6
CONTINUOUS
 62
           7
100
AcDbLine
 10
-610.000000000002
 20
5659.668221991704
 11
-610.000000000002
 21
5694.668221991704
  0
LINE
  5
271
100
AcDbEntity
  8
1
  6
CONTINUOUS
 62
           7
100
AcDbLine
 10
39.999999999998
 20
5694.668221991704
 11
39.999999999998
 21
5659.668221991704
  0
LINE
  5
270
100
AcDbEntity
  8
1
  6
CONTINUOUS
 62
           7
100
AcDbLine
 10
34.999999999998
 20
5654.668221991704
 11
-605.000000000002
 21
5654.668221991704
  0
LINE
  5
26F
100
AcDbEntity
  8
1
  6
CONTINUOUS
 62
           7
100
AcDbLine
 10
39.999999999998
 20
5729.668221991704
 11
39.999999999998
 21
5694.668221991704
  0
LINE
  5
26E
100
AcDbEntity
  8
1
  6
CONTINUOUS
 62
           7
100
AcDbLine
 10
39.999999999998
 20
5729.668221991704
 11
34.999999999998
 21
5734.668221991704
  0
LINE
  5
26D
100
AcDbEntity
  8
1
  6
CONTINUOUS
 62
           7
100
AcDbLine
 10
-605.000000000002
 20
5734.668221991704
 11
34.999999999998
 21
5734.668221991704
  0
LINE
  5
26C
100
AcDbEntity
  8
1
  6
CONTINUOUS
 62
           7
100
AcDbLine
 10
-610.000000000002
 20
5729.668221991704
 11
-605.000000000002
 21
5734.668221991704
  0
LINE
  5
26B
100
AcDbEntity
  8
1
  6
CONTINUOUS
 62
           7
100
AcDbLine
 10
-610.000000000002
 20
5694.668221991704
 11
-610.000000000002
 21
5729.668221991704
  0
LINE
  5
26A
100
AcDbEntity
  8
1
  6
CONTINUOUS
 62
           4
100
AcDbLine
 10
-610.000000000002
 20
5690.168221991704
 11
39.999999999998
 21
5690.168221991704
  0
LINE
  5
269
100
AcDbEntity
  8
1
  6
CONTINUOUS
 62
           7
100
AcDbLine
 10
-610.000000000002
 20
5694.668221991704
 11
39.999999999998
 21
5694.668221991704
  0
LINE
  5
268
100
AcDbEntity
  8
1
  6
CONTINUOUS
 62
           4
100
AcDbLine
 10
39.999999999998
 20
5699.168221991704
 11
-610.000000000002
 21
5699.168221991704
  0
LINE
  5
267
100
AcDbEntity
  8
1
  6
DOT_CENTER
 62
           2
100
AcDbLine
 10
-285.000000000002
 20
5799.935305996522
 11
-285.000000000002
 21
5457.128671007542
  0
LINE
  5
266
100
AcDbEntity
  8
1
  6
CONTINUOUS
 62
           3
100
AcDbLine
 10
4530.836522878268
 20
1935.969655114603
 11
4525.162482855456
 21
1932.69374658004
  0
LINE
  5
265
100
AcDbEntity
  8
1
  6
CONTINUOUS
 62
           3
100
AcDbLine
 10
4540.336522878268
 20
1930.484827557302
 11
4530.836522878268
 21
1935.969655114603
  0
LINE
  5
264
100
AcDbEntity
  8
1
  6
CONTINUOUS
 62
           3
100
AcDbLine
 10
4540.336522878268
 20
1919.515172442699
 11
4540.336522878268
 21
1930.484827557302
  0
LINE
  5
263
100
AcDbEntity
  8
1
  6
CONTINUOUS
 62
           3
100
AcDbLine
 10
4530.836522878268
 20
1914.030344885398
 11
4540.336522878268
 21
1919.515172442699
  0
LINE
  5
262
100
AcDbEntity
  8
1
  6
CONTINUOUS
 62
           3
100
AcDbLine
 10
4525.162482855456
 20
1917.30625341996
 11
4530.836522878268
 21
1914.030344885398
  0
LINE
  5
261
100
AcDbEntity
  8
1
  6
DOT_CENTER
 62
           3
100
AcDbLine
 10
4506.891474745849
 20
1925.0
 11
4548.340650449676
 21
1925.0
  0
LINE
  5
260
100
AcDbEntity
  8
1
  6
CONTINUOUS
 62
           3
100
AcDbLine
 10
4520.062170059167
 20
1916.75
 11
4520.062170059167
 21
1917.30625341996
  0
LINE
  5
25F
100
AcDbEntity
  8
1
  6
CONTINUOUS
 62
           3
100
AcDbLine
 10
4520.062170059167
 20
1916.75
 11
4510.387559093872
 21
1916.75
  0
LINE
  5
25E
100
AcDbEntity
  8
1
  6
CONTINUOUS
 62
           3
100
AcDbLine
 10
4510.387559093872
 20
1916.75
 11
4510.387559093872
 21
1925.0
  0
LINE
  5
25D
100
AcDbEntity
  8
1
  6
CONTINUOUS
 62
           3
100
AcDbLine
 10
4510.387559093872
 20
1919.0
 11
4509.541753571692
 21
1919.0
  0
LINE
  5
25C
100
AcDbEntity
  8
1
  6
CONTINUOUS
 62
           3
100
AcDbLine
 10
4509.541753571692
 20
1917.30625341996
 11
4509.541753571692
 21
1925.0
  0
LINE
  5
25B
100
AcDbEntity
  8
1
  6
CONTINUOUS
 62
           3
100
AcDbLine
 10
4509.541753571692
 20
1917.30625341996
 11
4508.836522878268
 21
1917.30625341996
  0
LINE
  5
25A
100
AcDbEntity
  8
1
  6
CONTINUOUS
 62
           3
100
AcDbLine
 10
4508.336522878268
 20
1925.0
 11
4508.336522878268
 21
1917.80625341996
  0
LINE
  5
259
100
AcDbEntity
  8
1
  6
CONTINUOUS
 62
           3
100
AcDbLine
 10
4508.336522878268
 20
1932.19374658004
 11
4508.336522878268
 21
1925.0
  0
LINE
  5
258
100
AcDbEntity
  8
1
  6
CONTINUOUS
 62
           3
100
AcDbLine
 10
4508.836522878268
 20
1932.69374658004
 11
4509.541753571692
 21
1932.69374658004
  0
LINE
  5
257
100
AcDbEntity
  8
1
  6
CONTINUOUS
 62
           3
100
AcDbLine
 10
4509.541753571692
 20
1925.0
 11
4509.541753571692
 21
1932.69374658004
  0
LINE
  5
256
100
AcDbEntity
  8
1
  6
CONTINUOUS
 62
           3
100
AcDbLine
 10
4509.541753571692
 20
1931.0
 11
4510.387559093872
 21
1931.0
  0
LINE
  5
255
100
AcDbEntity
  8
1
  6
CONTINUOUS
 62
           3
100
AcDbLine
 10
4510.387559093872
 20
1933.25
 11
4520.062170059167
 21
1933.25
  0
LINE
  5
254
100
AcDbEntity
  8
1
  6
CONTINUOUS
 62
           3
100
AcDbLine
 10
4510.387559093872
 20
1925.0
 11
4510.387559093872
 21
1933.25
  0
LINE
  5
253
100
AcDbEntity
  8
1
  6
CONTINUOUS
 62
           3
100
AcDbLine
 10
4520.062170059167
 20
1932.69374658004
 11
4520.062170059167
 21
1933.25
  0
LINE
  5
252
100
AcDbEntity
  8
1
  6
CONTINUOUS
 62
           3
100
AcDbLine
 10
4520.062170059167
 20
1917.30625341996
 11
4520.062170059167
 21
1932.69374658004
  0
LINE
  5
251
100
AcDbEntity
  8
1
  6
CONTINUOUS
 62
           3
100
AcDbLine
 10
4525.927285605858
 20
1917.30625341996
 11
4525.927285605858
 21
1932.69374658004
  0
LINE
  5
250
100
AcDbEntity
  8
1
  6
CONTINUOUS
 62
           3
100
AcDbLine
 10
4525.927285605858
 20
1917.30625341996
 11
4520.062170059167
 21
1917.30625341996
  0
LINE
  5
24F
100
AcDbEntity
  8
1
  6
CONTINUOUS
 62
           3
100
AcDbLine
 10
4525.927285605858
 20
1932.69374658004
 11
4520.062170059167
 21
1932.69374658004
  0
LINE
  5
24E
100
AcDbEntity
  8
1
  6
CONTINUOUS
 62
           3
100
AcDbLine
 10
4525.927285605858
 20
1930.871834995069
 11
4530.836522878268
 21
1930.871834995069
  0
LINE
  5
24D
100
AcDbEntity
  8
1
  6
DOT_CENTER
 62
           3
100
AcDbLine
 10
4530.836522878268
 20
1938.643555804874
 11
4530.836522878268
 21
1907.508008255125
  0
LINE
  5
24C
100
AcDbEntity
  8
1
  6
CONTINUOUS
 62
           3
100
AcDbLine
 10
4530.836522878268
 20
1919.128165004934
 11
4525.927285605858
 21
1919.128165004934
  0
LINE
  5
24B
100
AcDbEntity
  8
0
  6
CONTINUOUS
 62
           3
100
AcDbLine
 10
4025.517678681398
 20
1393.116392195192
 11
4026.572951908896
 21
1393.131740391393
  0
LINE
  5
24A
100
AcDbEntity
  8
0
  6
CONTINUOUS
 62
           3
100
AcDbLine
 10
4024.576760690499
 20
1393.072016537194
 11
4025.517678681398
 21
1393.116392195192
  0
LINE
  5
249
100
AcDbEntity
  8
0
  6
CONTINUOUS
 62
           3
100
AcDbLine
 10
4023.8521607608
 20
1393.003411590992
 11
4024.576760690499
 21
1393.072016537194
  0
LINE
  5
248
100
AcDbEntity
  8
0
  6
CONTINUOUS
 62
           3
100
AcDbLine
 10
4023.422401027599
 20
1392.918020486792
 11
4023.8521607608
 21
1393.003411590992
  0
LINE
  5
247
100
AcDbEntity
  8
0
  6
CONTINUOUS
 62
           3
100
AcDbLine
 10
4023.334052275599
 20
1392.825089394992
 11
4023.422401027599
 21
1392.918020486792
  0
LINE
  5
246
100
AcDbEntity
  8
0
  6
CONTINUOUS
 62
           3
100
AcDbLine
 10
4023.5729518828
 20
1392.739541828793
 11
4023.334052275599
 21
1392.825089394992
  0
LINE
  5
245
100
AcDbEntity
  8
0
  6
CONTINUOUS
 62
           3
100
AcDbLine
 10
4029.811851542195
 20
1392.825089394992
 11
4029.572951934995
 21
1392.739541828793
  0
LINE
  5
244
100
AcDbEntity
  8
0
  6
CONTINUOUS
 62
           3
100
AcDbLine
 10
4029.723502790193
 20
1392.918020486792
 11
4029.811851542195
 21
1392.825089394992
  0
LINE
  5
243
100
AcDbEntity
  8
0
  6
CONTINUOUS
 62
           3
100
AcDbLine
 10
4029.293743056996
 20
1393.003411590992
 11
4029.723502790193
 21
1392.918020486792
  0
LINE
  5
242
100
AcDbEntity
  8
0
  6
CONTINUOUS
 62
           3
100
AcDbLine
 10
4028.569143127295
 20
1393.072016537194
 11
4029.293743056996
 21
1393.003411590992
  0
LINE
  5
241
100
AcDbEntity
  8
0
  6
CONTINUOUS
 62
           3
100
AcDbLine
 10
4027.628225136396
 20
1393.116392195192
 11
4028.569143127295
 21
1393.072016537194
  0
LINE
  5
240
100
AcDbEntity
  8
0
  6
CONTINUOUS
 62
           3
100
AcDbLine
 10
4026.572951908896
 20
1393.131740391393
 11
4027.628225136396
 21
1393.116392195192
  0
LINE
  5
23F
100
AcDbEntity
  8
FORMAT
  6
CONTINUOUS
 62
           3
100
AcDbLine
 10
4023.0729519088
 20
1392.596845102893
 11
4012.572951908808
 21
1392.596845102893
  0
LINE
  5
23E
100
AcDbEntity
  8
FORMAT
  6
DOT_CENTER
 62
           3
100
AcDbLine
 10
4026.572951908896
 20
1249.759397252256
 11
4026.572951908896
 21
1725.394390768569
  0
LINE
  5
23D
100
AcDbEntity
  8
FORMAT
  6
CONTINUOUS
 62
           3
100
AcDbLine
 10
4030.072951908994
 20
1392.596845102893
 11
4023.0729519088
 21
1392.596845102893
  0
LINE
  5
23C
100
AcDbEntity
  8
FORMAT
  6
CONTINUOUS
 62
           3
100
AcDbLine
 10
4040.572951908986
 20
1392.596845102893
 11
4030.072951908994
 21
1392.596845102893
  0
LINE
  5
23B
100
AcDbEntity
  8
FORMAT
  6
DOT_CENTER
 62
           3
100
AcDbLine
 10
3951.672951908859
 20
1375.000000000007
 11
3938.07295190897
 21
1375.000000000007
  0
LINE
  5
23A
100
AcDbEntity
  8
FORMAT
  6
DOT_CENTER
 62
           3
100
AcDbLine
 10
3951.672951908859
 20
1625.0
 11
3938.07295190897
 21
1625.0
  0
LINE
  5
239
100
AcDbEntity
  8
0
  6
CONTINUOUS
 62
           3
100
AcDbLine
 10
3961.57295429325
 20
1364.999994635815
 11
3946.172954376461
 21
1364.999994635815
  0
LINE
  5
238
100
AcDbEntity
  8
0
  6
CONTINUOUS
 62
           3
100
AcDbLine
 10
3965.072950210346
 20
1590.000003576231
 11
3965.072950210346
 21
1509.999999776395
  0
LINE
  5
237
100
AcDbEntity
  8
0
  6
CONTINUOUS
 62
           3
100
AcDbLine
 10
3968.072952564744
 20
1590.000003576231
 11
3965.072950210346
 21
1590.000003576231
  0
LINE
  5
236
100
AcDbEntity
  8
0
  6
CONTINUOUS
 62
           3
100
AcDbLine
 10
3968.072952564744
 20
1550.000000744964
 11
3968.072952564744
 21
1590.000003576231
  0
LINE
  5
235
100
AcDbEntity
  8
0
  6
CONTINUOUS
 62
           3
100
AcDbLine
 10
3968.072952564744
 20
1529.999999329481
 11
3968.072952564744
 21
1532.000001519879
  0
LINE
  5
234
100
AcDbEntity
  8
0
  6
CONTINUOUS
 62
           3
100
AcDbLine
 10
3965.072950210346
 20
1509.999999776395
 11
3966.648144509547
 21
1509.999999776395
  0
LINE
  5
233
100
AcDbEntity
  8
0
  6
CONTINUOUS
 62
           3
100
AcDbLine
 10
4086.572950567849
 20
1368.000000715314
 11
4086.572950567849
 21
1367.300003767014
  0
LINE
  5
232
100
AcDbEntity
  8
0
  6
CONTINUOUS
 62
           3
100
AcDbLine
 10
4091.572949524544
 20
1364.999994635815
 11
4091.572949524544
 21
1368.000000715314
  0
LINE
  5
231
100
AcDbEntity
  8
0
  6
CONTINUOUS
 62
           3
100
AcDbLine
 10
4091.572949524544
 20
1635.000005364197
 11
4091.572949524544
 21
1631.999999284697
  0
LINE
  5
230
100
AcDbEntity
  8
0
  6
CONTINUOUS
 62
           3
100
AcDbLine
 10
4086.572950567849
 20
1631.999999284697
 11
4086.572950567849
 21
1632.699996232994
  0
LINE
  5
22F
100
AcDbEntity
  8
0
  6
CONTINUOUS
 62
           3
100
AcDbLine
 10
3966.572953249945
 20
1631.999999284697
 11
3966.572953249945
 21
1632.699996232994
  0
LINE
  5
22E
100
AcDbEntity
  8
0
  6
CONTINUOUS
 62
           3
100
AcDbLine
 10
3961.57295429325
 20
1635.000005364197
 11
3961.57295429325
 21
1631.999999284697
  0
LINE
  5
22D
100
AcDbEntity
  8
0
  6
CONTINUOUS
 62
           3
100
AcDbLine
 10
3961.57295429325
 20
1635.000005364197
 11
3946.172954376461
 21
1635.000005364197
  0
LINE
  5
22C
100
AcDbEntity
  8
0
  6
CONTINUOUS
 62
           3
100
AcDbLine
 10
3961.57295429325
 20
1364.999994635815
 11
3961.57295429325
 21
1368.000000715314
  0
LINE
  5
22B
100
AcDbEntity
  8
0
  6
CONTINUOUS
 62
           3
100
AcDbLine
 10
3966.572953249945
 20
1368.000000715314
 11
3966.572953249945
 21
1367.300003767014
  0
LINE
  5
22A
100
AcDbEntity
  8
0
  6
CONTINUOUS
 62
           3
100
AcDbLine
 10
3965.072950210346
 20
1409.99999642378
 11
3965.072950210346
 21
1490.000000223612
  0
LINE
  5
229
100
AcDbEntity
  8
0
  6
CONTINUOUS
 62
           3
100
AcDbLine
 10
3965.072950210346
 20
1490.000000223612
 11
3966.572953249945
 21
1490.000000223612
  0
LINE
  5
228
100
AcDbEntity
  8
0
  6
CONTINUOUS
 62
           3
100
AcDbLine
 10
3968.072952564744
 20
1431.999996304559
 11
3968.072952564744
 21
1429.999999701963
  0
LINE
  5
227
100
AcDbEntity
  8
0
  6
CONTINUOUS
 62
           3
100
AcDbLine
 10
3966.648144509547
 20
1409.99999642378
 11
3965.072950210346
 21
1409.99999642378
  0
LINE
  5
226
100
AcDbEntity
  8
0
  6
CONTINUOUS
 62
           3
100
AcDbLine
 10
4088.072953607446
 20
1590.000003576231
 11
4088.072953607446
 21
1509.999999776395
  0
LINE
  5
225
100
AcDbEntity
  8
0
  6
CONTINUOUS
 62
           3
100
AcDbLine
 10
4088.072953607446
 20
1509.999999776395
 11
4086.497759308249
 21
1509.999999776395
  0
LINE
  5
224
100
AcDbEntity
  8
0
  6
CONTINUOUS
 62
           3
100
AcDbLine
 10
4085.072951253349
 20
1550.000000744964
 11
4085.072951253349
 21
1590.000003576231
  0
LINE
  5
223
100
AcDbEntity
  8
0
  6
CONTINUOUS
 62
           3
100
AcDbLine
 10
4085.072951253349
 20
1529.999999329481
 11
4085.072951253349
 21
1532.000001519879
  0
LINE
  5
222
100
AcDbEntity
  8
0
  6
CONTINUOUS
 62
           3
100
AcDbLine
 10
4085.072951253349
 20
1590.000003576231
 11
4088.072953607446
 21
1590.000003576231
  0
LINE
  5
221
100
AcDbEntity
  8
0
  6
CONTINUOUS
 62
           3
100
AcDbLine
 10
4088.072953607446
 20
1409.99999642378
 11
4088.072953607446
 21
1490.000000223612
  0
LINE
  5
220
100
AcDbEntity
  8
0
  6
CONTINUOUS
 62
           3
100
AcDbLine
 10
4086.497759308249
 20
1409.99999642378
 11
4088.072953607446
 21
1409.99999642378
  0
LINE
  5
21F
100
AcDbEntity
  8
0
  6
CONTINUOUS
 62
           3
100
AcDbLine
 10
4085.072951253349
 20
1431.999996304559
 11
4085.072951253349
 21
1429.999999701963
  0
LINE
  5
21E
100
AcDbEntity
  8
0
  6
CONTINUOUS
 62
           3
100
AcDbLine
 10
4088.072953607446
 20
1490.000000223612
 11
4086.572950567849
 21
1490.000000223612
  0
LINE
  5
21D
100
AcDbEntity
  8
0
  6
CONTINUOUS
 62
           3
100
AcDbLine
 10
3946.172954376461
 20
1635.000005364197
 11
3944.072948630565
 21
1635.000005364197
  0
LINE
  5
21C
100
AcDbEntity
  8
0
  6
CONTINUOUS
 62
           3
100
AcDbLine
 10
3944.072948630565
 20
1635.000005364197
 11
3944.072948630565
 21
1364.999994635815
  0
LINE
  5
21B
100
AcDbEntity
  8
0
  6
CONTINUOUS
 62
           3
100
AcDbLine
 10
3946.172954376461
 20
1364.999994635815
 11
3944.072948630565
 21
1364.999994635815
  0
LINE
  5
21A
100
AcDbEntity
  8
0
  6
CONTINUOUS
 62
           3
100
AcDbLine
 10
3966.572953249945
 20
1366.600006818714
 11
3966.572953249945
 21
1367.300003767014
  0
LINE
  5
219
100
AcDbEntity
  8
0
  6
CONTINUOUS
 62
           3
100
AcDbLine
 10
4086.572950567849
 20
1366.600006818714
 11
4086.572950567849
 21
1367.300003767014
  0
LINE
  5
218
100
AcDbEntity
  8
0
  6
CONTINUOUS
 62
           3
100
AcDbLine
 10
3966.572953249945
 20
1633.399993180996
 11
3966.572953249945
 21
1632.699996232994
  0
LINE
  5
217
100
AcDbEntity
  8
0
  6
CONTINUOUS
 62
           3
100
AcDbLine
 10
4086.572950567849
 20
1633.399993180996
 11
4086.572950567849
 21
1632.699996232994
  0
LINE
  5
216
100
AcDbEntity
  8
0
  6
CONTINUOUS
 62
           3
100
AcDbLine
 10
4081.572951610852
 20
1633.399993180996
 11
4086.572950567849
 21
1633.399993180996
  0
LINE
  5
215
100
AcDbEntity
  8
0
  6
CONTINUOUS
 62
           3
100
AcDbLine
 10
4086.572950567849
 20
1635.000005364197
 11
4081.572951610852
 21
1635.000005364197
  0
LINE
  5
214
100
AcDbEntity
  8
0
  6
CONTINUOUS
 62
           3
100
AcDbLine
 10
4086.572950567849
 20
1633.399993180996
 11
4086.572950567849
 21
1635.000005364197
  0
LINE
  5
213
100
AcDbEntity
  8
0
  6
CONTINUOUS
 62
           3
100
AcDbLine
 10
4081.572951610852
 20
1366.600006818714
 11
4086.572950567849
 21
1366.600006818714
  0
LINE
  5
212
100
AcDbEntity
  8
0
  6
CONTINUOUS
 62
           3
100
AcDbLine
 10
4086.572950567849
 20
1364.999994635815
 11
4081.572951610852
 21
1364.999994635815
  0
LINE
  5
211
100
AcDbEntity
  8
0
  6
CONTINUOUS
 62
           3
100
AcDbLine
 10
4086.572950567849
 20
1366.600006818714
 11
4086.572950567849
 21
1364.999994635815
  0
LINE
  5
210
100
AcDbEntity
  8
0
  6
CONTINUOUS
 62
           3
100
AcDbLine
 10
4071.57295369686
 20
1366.600006818714
 11
4073.572950299459
 21
1366.600006818714
  0
LINE
  5
20F
100
AcDbEntity
  8
0
  6
CONTINUOUS
 62
           3
100
AcDbLine
 10
4073.572950299459
 20
1364.999994635815
 11
4071.57295369686
 21
1364.999994635815
  0
LINE
  5
20E
100
AcDbEntity
  8
0
  6
CONTINUOUS
 62
           3
100
AcDbLine
 10
4073.572950299459
 20
1366.600006818714
 11
4073.572950299459
 21
1364.999994635815
  0
LINE
  5
20D
100
AcDbEntity
  8
0
  6
CONTINUOUS
 62
           3
100
AcDbLine
 10
4071.57295369686
 20
1633.399993180996
 11
4073.572950299459
 21
1633.399993180996
  0
LINE
  5
20C
100
AcDbEntity
  8
0
  6
CONTINUOUS
 62
           3
100
AcDbLine
 10
4073.572950299459
 20
1635.000005364197
 11
4071.57295369686
 21
1635.000005364197
  0
LINE
  5
20B
100
AcDbEntity
  8
0
  6
CONTINUOUS
 62
           3
100
AcDbLine
 10
4073.572950299459
 20
1633.399993180996
 11
4073.572950299459
 21
1635.000005364197
  0
LINE
  5
20A
100
AcDbEntity
  8
0
  6
CONTINUOUS
 62
           3
100
AcDbLine
 10
4079.572951283154
 20
1366.600006818714
 11
4081.572951610852
 21
1366.600006818714
  0
LINE
  5
209
100
AcDbEntity
  8
0
  6
CONTINUOUS
 62
           3
100
AcDbLine
 10
4081.572951610852
 20
1364.999994635815
 11
4079.572951283154
 21
1364.999994635815
  0
LINE
  5
208
100
AcDbEntity
  8
0
  6
CONTINUOUS
 62
           3
100
AcDbLine
 10
4079.572951283154
 20
1364.999994635815
 11
4079.572951283154
 21
1366.600006818714
  0
LINE
  5
207
100
AcDbEntity
  8
0
  6
CONTINUOUS
 62
           3
100
AcDbLine
 10
4079.572951283154
 20
1633.399993180996
 11
4081.572951610852
 21
1633.399993180996
  0
LINE
  5
206
100
AcDbEntity
  8
0
  6
CONTINUOUS
 62
           3
100
AcDbLine
 10
4081.572951610852
 20
1635.000005364197
 11
4079.572951283154
 21
1635.000005364197
  0
LINE
  5
205
100
AcDbEntity
  8
0
  6
CONTINUOUS
 62
           3
100
AcDbLine
 10
4079.572951283154
 20
1635.000005364197
 11
4079.572951283154
 21
1633.399993180996
  0
LINE
  5
204
100
AcDbEntity
  8
0
  6
CONTINUOUS
 62
           3
100
AcDbLine
 10
3971.572952206942
 20
1633.399993180996
 11
3966.572953249945
 21
1633.399993180996
  0
LINE
  5
203
100
AcDbEntity
  8
0
  6
CONTINUOUS
 62
           3
100
AcDbLine
 10
3966.572953249945
 20
1635.000005364197
 11
3971.572952206942
 21
1635.000005364197
  0
LINE
  5
202
100
AcDbEntity
  8
0
  6
CONTINUOUS
 62
           3
100
AcDbLine
 10
3966.572953249945
 20
1633.399993180996
 11
3966.572953249945
 21
1635.000005364197
  0
LINE
  5
201
100
AcDbEntity
  8
0
  6
CONTINUOUS
 62
           3
100
AcDbLine
 10
3971.572952206942
 20
1366.600006818714
 11
3966.572953249945
 21
1366.600006818714
  0
LINE
  5
200
100
AcDbEntity
  8
0
  6
CONTINUOUS
 62
           3
100
AcDbLine
 10
3966.572953249945
 20
1364.999994635815
 11
3971.572952206942
 21
1364.999994635815
  0
LINE
  5
1FF
100
AcDbEntity
  8
0
  6
CONTINUOUS
 62
           3
100
AcDbLine
 10
3966.572953249945
 20
1366.600006818714
 11
3966.572953249945
 21
1364.999994635815
  0
LINE
  5
1FE
100
AcDbEntity
  8
0
  6
CONTINUOUS
 62
           3
100
AcDbLine
 10
3981.572950120934
 20
1633.399993180996
 11
4071.57295369686
 21
1633.399993180996
  0
LINE
  5
1FD
100
AcDbEntity
  8
0
  6
CONTINUOUS
 62
           3
100
AcDbLine
 10
3981.572950120934
 20
1635.000005364197
 11
4071.57295369686
 21
1635.000005364197
  0
LINE
  5
1FC
100
AcDbEntity
  8
0
  6
CONTINUOUS
 62
           3
100
AcDbLine
 10
3981.572950120934
 20
1366.600006818714
 11
4071.57295369686
 21
1366.600006818714
  0
LINE
  5
1FB
100
AcDbEntity
  8
0
  6
CONTINUOUS
 62
           3
100
AcDbLine
 10
3981.572950120934
 20
1364.999994635815
 11
4071.57295369686
 21
1364.999994635815
  0
LINE
  5
1FA
100
AcDbEntity
  8
0
  6
CONTINUOUS
 62
           3
100
AcDbLine
 10
3981.572950120934
 20
1366.600006818714
 11
3979.572953518336
 21
1366.600006818714
  0
LINE
  5
1F9
100
AcDbEntity
  8
0
  6
CONTINUOUS
 62
           3
100
AcDbLine
 10
3979.572953518336
 20
1366.600006818714
 11
3979.572953518336
 21
1364.999994635815
  0
LINE
  5
1F8
100
AcDbEntity
  8
0
  6
CONTINUOUS
 62
           3
100
AcDbLine
 10
3979.572953518336
 20
1364.999994635815
 11
3981.572950120934
 21
1364.999994635815
  0
LINE
  5
1F7
100
AcDbEntity
  8
0
  6
CONTINUOUS
 62
           3
100
AcDbLine
 10
3981.572950120934
 20
1633.399993180996
 11
3979.572953518336
 21
1633.399993180996
  0
LINE
  5
1F6
100
AcDbEntity
  8
0
  6
CONTINUOUS
 62
           3
100
AcDbLine
 10
3979.572953518336
 20
1635.000005364197
 11
3981.572950120934
 21
1635.000005364197
  0
LINE
  5
1F5
100
AcDbEntity
  8
0
  6
CONTINUOUS
 62
           3
100
AcDbLine
 10
3979.572953518336
 20
1633.399993180996
 11
3979.572953518336
 21
1635.000005364197
  0
LINE
  5
1F4
100
AcDbEntity
  8
0
  6
CONTINUOUS
 62
           3
100
AcDbLine
 10
3973.572952534941
 20
1633.399993180996
 11
3971.572952206942
 21
1633.399993180996
  0
LINE
  5
1F3
100
AcDbEntity
  8
0
  6
CONTINUOUS
 62
           3
100
AcDbLine
 10
3973.572952534941
 20
1635.000005364197
 11
3973.572952534941
 21
1633.399993180996
  0
LINE
  5
1F2
100
AcDbEntity
  8
0
  6
CONTINUOUS
 62
           3
100
AcDbLine
 10
3971.572952206942
 20
1635.000005364197
 11
3973.572952534941
 21
1635.000005364197
  0
LINE
  5
1F1
100
AcDbEntity
  8
0
  6
CONTINUOUS
 62
           3
100
AcDbLine
 10
3973.572952534941
 20
1366.600006818714
 11
3971.572952206942
 21
1366.600006818714
  0
LINE
  5
1F0
100
AcDbEntity
  8
0
  6
CONTINUOUS
 62
           3
100
AcDbLine
 10
3971.572952206942
 20
1364.999994635815
 11
3973.572952534941
 21
1364.999994635815
  0
LINE
  5
1EF
100
AcDbEntity
  8
0
  6
CONTINUOUS
 62
           3
100
AcDbLine
 10
3973.572952534941
 20
1364.999994635815
 11
3973.572952534941
 21
1366.600006818714
  0
LINE
  5
1EE
100
AcDbEntity
  8
0
  6
CONTINUOUS
 62
           3
100
AcDbLine
 10
4086.497759308249
 20
1409.99999642378
 11
4084.872951592849
 21
1409.99999642378
  0
LINE
  5
1ED
100
AcDbEntity
  8
0
  6
CONTINUOUS
 62
           3
100
AcDbLine
 10
4084.872951592849
 20
1429.999999701963
 11
4086.572950567849
 21
1429.999999701963
  0
LINE
  5
1EC
100
AcDbEntity
  8
0
  6
CONTINUOUS
 62
           3
100
AcDbLine
 10
4086.572950567849
 20
1429.999999701963
 11
4086.572950567849
 21
1409.99999642378
  0
LINE
  5
1EB
100
AcDbEntity
  8
0
  6
CONTINUOUS
 62
           3
100
AcDbLine
 10
3966.572953249945
 20
1529.999999329481
 11
3968.272952224946
 21
1529.999999329481
  0
LINE
  5
1EA
100
AcDbEntity
  8
0
  6
CONTINUOUS
 62
           3
100
AcDbLine
 10
3966.572953249945
 20
1509.999999776395
 11
3966.572953249945
 21
1529.999999329481
  0
LINE
  5
1E9
100
AcDbEntity
  8
0
  6
CONTINUOUS
 62
           3
100
AcDbLine
 10
3968.272952224946
 20
1509.999999776395
 11
3966.648144509547
 21
1509.999999776395
  0
LINE
  5
1E8
100
AcDbEntity
  8
0
  6
CONTINUOUS
 62
           3
100
AcDbLine
 10
3966.648144509547
 20
1409.99999642378
 11
3968.272952224946
 21
1409.99999642378
  0
LINE
  5
1E7
100
AcDbEntity
  8
0
  6
CONTINUOUS
 62
           3
100
AcDbLine
 10
3968.272952224946
 20
1429.999999701963
 11
3966.572953249945
 21
1429.999999701963
  0
LINE
  5
1E6
100
AcDbEntity
  8
0
  6
CONTINUOUS
 62
           3
100
AcDbLine
 10
3966.572953249945
 20
1429.999999701963
 11
3966.572953249945
 21
1409.99999642378
  0
LINE
  5
1E5
100
AcDbEntity
  8
0
  6
CONTINUOUS
 62
           3
100
AcDbLine
 10
3968.272952224946
 20
1529.999999329481
 11
3968.572953577946
 21
1529.999999329481
  0
LINE
  5
1E4
100
AcDbEntity
  8
0
  6
CONTINUOUS
 62
           3
100
AcDbLine
 10
3968.572953577946
 20
1509.999999776395
 11
3968.272952224946
 21
1509.999999776395
  0
LINE
  5
1E3
100
AcDbEntity
  8
0
  6
CONTINUOUS
 62
           3
100
AcDbLine
 10
3966.572953249945
 20
1508.0000003799
 11
3968.572953577946
 21
1508.0000003799
  0
LINE
  5
1E2
100
AcDbEntity
  8
0
  6
CONTINUOUS
 62
           3
100
AcDbLine
 10
3966.572953249945
 20
1508.0000003799
 11
3966.572953249945
 21
1431.999996304559
  0
LINE
  5
1E1
100
AcDbEntity
  8
0
  6
CONTINUOUS
 62
           3
100
AcDbLine
 10
3966.572953249945
 20
1431.999996304559
 11
3968.572953577946
 21
1431.999996304559
  0
LINE
  5
1E0
100
AcDbEntity
  8
0
  6
CONTINUOUS
 62
           3
100
AcDbLine
 10
3968.572953577946
 20
1429.999999701963
 11
3968.272952224946
 21
1429.999999701963
  0
LINE
  5
1DF
100
AcDbEntity
  8
0
  6
CONTINUOUS
 62
           3
100
AcDbLine
 10
3968.272952224946
 20
1409.99999642378
 11
3968.572953577946
 21
1409.99999642378
  0
LINE
  5
1DE
100
AcDbEntity
  8
0
  6
CONTINUOUS
 62
           3
100
AcDbLine
 10
3968.572953577946
 20
1407.999999821183
 11
3966.572953249945
 21
1407.999999821183
  0
LINE
  5
1DD
100
AcDbEntity
  8
0
  6
CONTINUOUS
 62
           3
100
AcDbLine
 10
3966.572953249945
 20
1391.699999570792
 11
3966.572953249945
 21
1407.999999821183
  0
LINE
  5
1DC
100
AcDbEntity
  8
0
  6
CONTINUOUS
 62
           3
100
AcDbLine
 10
4086.572950567849
 20
1391.699999570792
 11
4086.572950567849
 21
1407.999999821183
  0
LINE
  5
1DB
100
AcDbEntity
  8
0
  6
CONTINUOUS
 62
           3
100
AcDbLine
 10
4084.57295023985
 20
1407.999999821183
 11
4086.572950567849
 21
1407.999999821183
  0
LINE
  5
1DA
100
AcDbEntity
  8
0
  6
CONTINUOUS
 62
           3
100
AcDbLine
 10
4084.872951592849
 20
1409.99999642378
 11
4084.57295023985
 21
1409.99999642378
  0
LINE
  5
1D9
100
AcDbEntity
  8
0
  6
CONTINUOUS
 62
           3
100
AcDbLine
 10
4084.57295023985
 20
1429.999999701963
 11
4084.872951592849
 21
1429.999999701963
  0
LINE
  5
1D8
100
AcDbEntity
  8
0
  6
CONTINUOUS
 62
           3
100
AcDbLine
 10
4086.572950567849
 20
1431.999996304559
 11
4084.57295023985
 21
1431.999996304559
  0
LINE
  5
1D7
100
AcDbEntity
  8
0
  6
CONTINUOUS
 62
           3
100
AcDbLine
 10
4086.572950567849
 20
1508.0000003799
 11
4086.572950567849
 21
1431.999996304559
  0
LINE
  5
1D6
100
AcDbEntity
  8
0
  6
CONTINUOUS
 62
           3
100
AcDbLine
 10
4086.572950567849
 20
1508.0000003799
 11
4084.57295023985
 21
1508.0000003799
  0
LINE
  5
1D5
100
AcDbEntity
  8
0
  6
CONTINUOUS
 62
           3
100
AcDbLine
 10
4084.57295023985
 20
1509.999999776395
 11
4084.872951592849
 21
1509.999999776395
  0
LINE
  5
1D4
100
AcDbEntity
  8
0
  6
CONTINUOUS
 62
           3
100
AcDbLine
 10
4084.872951592849
 20
1529.999999329481
 11
4084.57295023985
 21
1529.999999329481
  0
LINE
  5
1D3
100
AcDbEntity
  8
0
  6
CONTINUOUS
 62
           3
100
AcDbLine
 10
4084.57295023985
 20
1532.000001519879
 11
4086.572950567849
 21
1532.000001519879
  0
LINE
  5
1D2
100
AcDbEntity
  8
0
  6
CONTINUOUS
 62
           3
100
AcDbLine
 10
4086.572950567849
 20
1548.300001770265
 11
4086.572950567849
 21
1532.000001519879
  0
LINE
  5
1D1
100
AcDbEntity
  8
0
  6
CONTINUOUS
 62
           3
100
AcDbLine
 10
3966.572953249945
 20
1548.300001770265
 11
3966.572953249945
 21
1532.000001519879
  0
LINE
  5
1D0
100
AcDbEntity
  8
0
  6
CONTINUOUS
 62
           3
100
AcDbLine
 10
3968.572953577946
 20
1532.000001519879
 11
3966.572953249945
 21
1532.000001519879
  0
LINE
  5
1CF
100
AcDbEntity
  8
0
  6
CONTINUOUS
 62
           3
100
AcDbLine
 10
4084.872951592849
 20
1509.999999776395
 11
4086.497759308249
 21
1509.999999776395
  0
LINE
  5
1CE
100
AcDbEntity
  8
0
  6
CONTINUOUS
 62
           3
100
AcDbLine
 10
4086.572950567849
 20
1509.999999776395
 11
4086.572950567849
 21
1529.999999329481
  0
LINE
  5
1CD
100
AcDbEntity
  8
0
  6
CONTINUOUS
 62
           3
100
AcDbLine
 10
4086.572950567849
 20
1529.999999329481
 11
4084.872951592849
 21
1529.999999329481
  0
LINE
  5
1CC
100
AcDbEntity
  8
0
  6
CONTINUOUS
 62
           3
100
AcDbLine
 10
4086.572950567849
 20
1548.799999058065
 11
4086.572950567849
 21
1548.300001770265
  0
LINE
  5
1CB
100
AcDbEntity
  8
0
  6
CONTINUOUS
 62
           3
100
AcDbLine
 10
3966.572953249945
 20
1548.799999058065
 11
3966.572953249945
 21
1548.300001770265
  0
LINE
  5
1CA
100
AcDbEntity
  8
0
  6
CONTINUOUS
 62
           3
100
AcDbLine
 10
3966.572953249945
 20
1391.199998557593
 11
3966.572953249945
 21
1391.699999570792
  0
LINE
  5
1C9
100
AcDbEntity
  8
0
  6
CONTINUOUS
 62
           3
100
AcDbLine
 10
4086.572950567849
 20
1391.199998557593
 11
4086.572950567849
 21
1391.699999570792
  0
LINE
  5
1C8
100
AcDbEntity
  8
0
  6
CONTINUOUS
 62
           3
100
AcDbLine
 10
4029.572951934995
 20
1550.000000744964
 11
4029.822951975994
 21
1550.000000744964
  0
LINE
  5
1C7
100
AcDbEntity
  8
0
  6
CONTINUOUS
 62
           3
100
AcDbLine
 10
4023.3229518418
 20
1550.000000744964
 11
4023.5729518828
 21
1550.000000744964
  0
LINE
  5
1C6
100
AcDbEntity
  8
0
  6
CONTINUOUS
 62
           3
100
AcDbLine
 10
4029.572951934995
 20
1548.799999058065
 11
4029.822951975994
 21
1548.799999058065
  0
LINE
  5
1C5
100
AcDbEntity
  8
0
  6
CONTINUOUS
 62
           3
100
AcDbLine
 10
4023.3229518418
 20
1548.799999058065
 11
4023.5729518828
 21
1548.799999058065
  0
LINE
  5
1C4
100
AcDbEntity
  8
0
  6
CONTINUOUS
 62
           3
100
AcDbLine
 10
4023.5729518828
 20
1391.199998557593
 11
4023.3229518418
 21
1391.199998557593
  0
LINE
  5
1C3
100
AcDbEntity
  8
0
  6
CONTINUOUS
 62
           3
100
AcDbLine
 10
4029.822951975994
 20
1391.199998557593
 11
4029.572951934995
 21
1391.199998557593
  0
LINE
  5
1C2
100
AcDbEntity
  8
0
  6
CONTINUOUS
 62
           3
100
AcDbLine
 10
3971.572952206942
 20
1391.199998557593
 11
3966.572953249945
 21
1391.199998557593
  0
LINE
  5
1C1
100
AcDbEntity
  8
0
  6
CONTINUOUS
 62
           3
100
AcDbLine
 10
3966.572953249945
 20
1390.000000596097
 11
3971.572952206942
 21
1390.000000596097
  0
LINE
  5
1C0
100
AcDbEntity
  8
0
  6
CONTINUOUS
 62
           3
100
AcDbLine
 10
3966.572953249945
 20
1391.199998557593
 11
3966.572953249945
 21
1390.000000596097
  0
LINE
  5
1BF
100
AcDbEntity
  8
0
  6
CONTINUOUS
 62
           3
100
AcDbLine
 10
3966.572953249945
 20
1550.000000744964
 11
3971.572952206942
 21
1550.000000744964
  0
LINE
  5
1BE
100
AcDbEntity
  8
0
  6
CONTINUOUS
 62
           3
100
AcDbLine
 10
3971.572952206942
 20
1548.799999058065
 11
3966.572953249945
 21
1548.799999058065
  0
LINE
  5
1BD
100
AcDbEntity
  8
0
  6
CONTINUOUS
 62
           3
100
AcDbLine
 10
3966.572953249945
 20
1548.799999058065
 11
3966.572953249945
 21
1550.000000744964
  0
LINE
  5
1BC
100
AcDbEntity
  8
0
  6
CONTINUOUS
 62
           3
100
AcDbLine
 10
4071.57295369686
 20
1550.000000744964
 11
4056.572951238371
 21
1550.000000744964
  0
LINE
  5
1BB
100
AcDbEntity
  8
0
  6
CONTINUOUS
 62
           3
100
AcDbLine
 10
4071.57295369686
 20
1548.799999058065
 11
4056.572951238371
 21
1548.799999058065
  0
LINE
  5
1BA
100
AcDbEntity
  8
0
  6
CONTINUOUS
 62
           3
100
AcDbLine
 10
4086.572950567849
 20
1550.000000744964
 11
4081.572951610852
 21
1550.000000744964
  0
LINE
  5
1B9
100
AcDbEntity
  8
0
  6
CONTINUOUS
 62
           3
100
AcDbLine
 10
4081.572951610852
 20
1548.799999058065
 11
4086.572950567849
 21
1548.799999058065
  0
LINE
  5
1B8
100
AcDbEntity
  8
0
  6
CONTINUOUS
 62
           3
100
AcDbLine
 10
4086.572950567849
 20
1548.799999058065
 11
4086.572950567849
 21
1550.000000744964
  0
LINE
  5
1B7
100
AcDbEntity
  8
0
  6
CONTINUOUS
 62
           3
100
AcDbLine
 10
4071.57295369686
 20
1391.199998557593
 11
4056.572951238371
 21
1391.199998557593
  0
LINE
  5
1B6
100
AcDbEntity
  8
0
  6
CONTINUOUS
 62
           3
100
AcDbLine
 10
4071.57295369686
 20
1390.000000596097
 11
4056.572951238371
 21
1390.000000596097
  0
LINE
  5
1B5
100
AcDbEntity
  8
0
  6
CONTINUOUS
 62
           3
100
AcDbLine
 10
3981.572950120934
 20
1550.000000744964
 11
3996.572952579421
 21
1550.000000744964
  0
LINE
  5
1B4
100
AcDbEntity
  8
0
  6
CONTINUOUS
 62
           3
100
AcDbLine
 10
3981.572950120934
 20
1548.799999058065
 11
3996.572952579421
 21
1548.799999058065
  0
LINE
  5
1B3
100
AcDbEntity
  8
0
  6
CONTINUOUS
 62
           3
100
AcDbLine
 10
4081.572951610852
 20
1391.199998557593
 11
4086.572950567849
 21
1391.199998557593
  0
LINE
  5
1B2
100
AcDbEntity
  8
0
  6
CONTINUOUS
 62
           3
100
AcDbLine
 10
4086.572950567849
 20
1390.000000596097
 11
4081.572951610852
 21
1390.000000596097
  0
LINE
  5
1B1
100
AcDbEntity
  8
0
  6
CONTINUOUS
 62
           3
100
AcDbLine
 10
4086.572950567849
 20
1391.199998557593
 11
4086.572950567849
 21
1390.000000596097
  0
LINE
  5
1B0
100
AcDbEntity
  8
0
  6
CONTINUOUS
 62
           3
100
AcDbLine
 10
3981.572950120934
 20
1391.199998557593
 11
3996.572952579421
 21
1391.199998557593
  0
LINE
  5
1AF
100
AcDbEntity
  8
0
  6
CONTINUOUS
 62
           3
100
AcDbLine
 10
3981.572950120934
 20
1390.000000596097
 11
3996.572952579421
 21
1390.000000596097
  0
LINE
  5
1AE
100
AcDbEntity
  8
0
  6
CONTINUOUS
 62
           3
100
AcDbLine
 10
3979.572953518336
 20
1550.000000744964
 11
3981.572950120934
 21
1550.000000744964
  0
LINE
  5
1AD
100
AcDbEntity
  8
0
  6
CONTINUOUS
 62
           3
100
AcDbLine
 10
3981.572950120934
 20
1548.799999058065
 11
3979.572953518336
 21
1548.799999058065
  0
LINE
  5
1AC
100
AcDbEntity
  8
0
  6
CONTINUOUS
 62
           3
100
AcDbLine
 10
3979.572953518336
 20
1548.799999058065
 11
3979.572953518336
 21
1550.000000744964
  0
LINE
  5
1AB
100
AcDbEntity
  8
0
  6
CONTINUOUS
 62
           3
100
AcDbLine
 10
3971.572952206942
 20
1550.000000744964
 11
3973.572952534941
 21
1550.000000744964
  0
LINE
  5
1AA
100
AcDbEntity
  8
0
  6
CONTINUOUS
 62
           3
100
AcDbLine
 10
3973.572952534941
 20
1548.799999058065
 11
3971.572952206942
 21
1548.799999058065
  0
LINE
  5
1A9
100
AcDbEntity
  8
0
  6
CONTINUOUS
 62
           3
100
AcDbLine
 10
3973.572952534941
 20
1550.000000744964
 11
3973.572952534941
 21
1548.799999058065
  0
LINE
  5
1A8
100
AcDbEntity
  8
0
  6
CONTINUOUS
 62
           3
100
AcDbLine
 10
4071.57295369686
 20
1391.199998557593
 11
4073.572950299459
 21
1391.199998557593
  0
LINE
  5
1A7
100
AcDbEntity
  8
0
  6
CONTINUOUS
 62
           3
100
AcDbLine
 10
4073.572950299459
 20
1390.000000596097
 11
4071.57295369686
 21
1390.000000596097
  0
LINE
  5
1A6
100
AcDbEntity
  8
0
  6
CONTINUOUS
 62
           3
100
AcDbLine
 10
4073.572950299459
 20
1391.199998557593
 11
4073.572950299459
 21
1390.000000596097
  0
LINE
  5
1A5
100
AcDbEntity
  8
0
  6
CONTINUOUS
 62
           3
100
AcDbLine
 10
4079.572951283154
 20
1391.199998557593
 11
4081.572951610852
 21
1391.199998557593
  0
LINE
  5
1A4
100
AcDbEntity
  8
0
  6
CONTINUOUS
 62
           3
100
AcDbLine
 10
4081.572951610852
 20
1390.000000596097
 11
4079.572951283154
 21
1390.000000596097
  0
LINE
  5
1A3
100
AcDbEntity
  8
0
  6
CONTINUOUS
 62
           3
100
AcDbLine
 10
4079.572951283154
 20
1390.000000596097
 11
4079.572951283154
 21
1391.199998557593
  0
LINE
  5
1A2
100
AcDbEntity
  8
0
  6
CONTINUOUS
 62
           3
100
AcDbLine
 10
4073.572950299459
 20
1550.000000744964
 11
4071.57295369686
 21
1550.000000744964
  0
LINE
  5
1A1
100
AcDbEntity
  8
0
  6
CONTINUOUS
 62
           3
100
AcDbLine
 10
4071.57295369686
 20
1548.799999058065
 11
4073.572950299459
 21
1548.799999058065
  0
LINE
  5
1A0
100
AcDbEntity
  8
0
  6
CONTINUOUS
 62
           3
100
AcDbLine
 10
4073.572950299459
 20
1548.799999058065
 11
4073.572950299459
 21
1550.000000744964
  0
LINE
  5
19F
100
AcDbEntity
  8
0
  6
CONTINUOUS
 62
           3
100
AcDbLine
 10
4081.572951610852
 20
1550.000000744964
 11
4079.572951283154
 21
1550.000000744964
  0
LINE
  5
19E
100
AcDbEntity
  8
0
  6
CONTINUOUS
 62
           3
100
AcDbLine
 10
4079.572951283154
 20
1548.799999058065
 11
4081.572951610852
 21
1548.799999058065
  0
LINE
  5
19D
100
AcDbEntity
  8
0
  6
CONTINUOUS
 62
           3
100
AcDbLine
 10
4079.572951283154
 20
1550.000000744964
 11
4079.572951283154
 21
1548.799999058065
  0
LINE
  5
19C
100
AcDbEntity
  8
0
  6
CONTINUOUS
 62
           3
100
AcDbLine
 10
3981.572950120934
 20
1391.199998557593
 11
3979.572953518336
 21
1391.199998557593
  0
LINE
  5
19B
100
AcDbEntity
  8
0
  6
CONTINUOUS
 62
           3
100
AcDbLine
 10
3979.572953518336
 20
1390.000000596097
 11
3981.572950120934
 21
1390.000000596097
  0
LINE
  5
19A
100
AcDbEntity
  8
0
  6
CONTINUOUS
 62
           3
100
AcDbLine
 10
3979.572953518336
 20
1391.199998557593
 11
3979.572953518336
 21
1390.000000596097
  0
LINE
  5
199
100
AcDbEntity
  8
0
  6
CONTINUOUS
 62
           3
100
AcDbLine
 10
3973.572952534941
 20
1391.199998557593
 11
3971.572952206942
 21
1391.199998557593
  0
LINE
  5
198
100
AcDbEntity
  8
0
  6
CONTINUOUS
 62
           3
100
AcDbLine
 10
3971.572952206942
 20
1390.000000596097
 11
3973.572952534941
 21
1390.000000596097
  0
LINE
  5
197
100
AcDbEntity
  8
0
  6
CONTINUOUS
 62
           3
100
AcDbLine
 10
3973.572952534941
 20
1390.000000596097
 11
3973.572952534941
 21
1391.199998557593
  0
LINE
  5
196
100
AcDbEntity
  8
0
  6
CONTINUOUS
 62
           3
100
AcDbLine
 10
4023.0729518008
 20
1391.199998557593
 11
4023.3229518418
 21
1391.199998557593
  0
LINE
  5
195
100
AcDbEntity
  8
0
  6
CONTINUOUS
 62
           3
100
AcDbLine
 10
4023.3229518418
 20
1391.199998557593
 11
4023.3229518418
 21
1390.000000596097
  0
LINE
  5
194
100
AcDbEntity
  8
0
  6
CONTINUOUS
 62
           3
100
AcDbLine
 10
4056.572951238371
 20
1391.199998557593
 11
4046.572951461981
 21
1391.199998557593
  0
LINE
  5
193
100
AcDbEntity
  8
0
  6
CONTINUOUS
 62
           3
100
AcDbLine
 10
4056.572951238371
 20
1390.000000596097
 11
4046.572951461981
 21
1390.000000596097
  0
LINE
  5
192
100
AcDbEntity
  8
0
  6
CONTINUOUS
 62
           3
100
AcDbLine
 10
4056.572951238371
 20
1391.199998557593
 11
4056.572951238371
 21
1390.000000596097
  0
LINE
  5
191
100
AcDbEntity
  8
0
  6
CONTINUOUS
 62
           3
100
AcDbLine
 10
4021.322951979701
 20
1550.000000744964
 11
4023.3229518418
 21
1550.000000744964
  0
LINE
  5
190
100
AcDbEntity
  8
0
  6
CONTINUOUS
 62
           3
100
AcDbLine
 10
4023.3229518418
 20
1548.799999058065
 11
4021.322951979701
 21
1548.799999058065
  0
LINE
  5
18F
100
AcDbEntity
  8
0
  6
CONTINUOUS
 62
           3
100
AcDbLine
 10
4023.3229518418
 20
1550.000000744964
 11
4023.3229518418
 21
1548.799999058065
  0
LINE
  5
18E
100
AcDbEntity
  8
0
  6
CONTINUOUS
 62
           3
100
AcDbLine
 10
4034.57295228879
 20
1391.199998557593
 11
4046.572951461981
 21
1391.199998557593
  0
LINE
  5
18D
100
AcDbEntity
  8
0
  6
CONTINUOUS
 62
           3
100
AcDbLine
 10
4034.57295228879
 20
1390.000000596097
 11
4046.572951461981
 21
1390.000000596097
  0
LINE
  5
18C
100
AcDbEntity
  8
0
  6
CONTINUOUS
 62
           3
100
AcDbLine
 10
4046.572951461981
 20
1391.199998557593
 11
4046.572951461981
 21
1390.000000596097
  0
LINE
  5
18B
100
AcDbEntity
  8
0
  6
CONTINUOUS
 62
           3
100
AcDbLine
 10
3996.572952579421
 20
1391.199998557593
 11
4006.572952355813
 21
1391.199998557593
  0
LINE
  5
18A
100
AcDbEntity
  8
0
  6
CONTINUOUS
 62
           3
100
AcDbLine
 10
3996.572952579421
 20
1390.000000596097
 11
4006.572952355813
 21
1390.000000596097
  0
LINE
  5
189
100
AcDbEntity
  8
0
  6
CONTINUOUS
 62
           3
100
AcDbLine
 10
3996.572952579421
 20
1391.199998557593
 11
3996.572952579421
 21
1390.000000596097
  0
LINE
  5
188
100
AcDbEntity
  8
0
  6
CONTINUOUS
 62
           3
100
AcDbLine
 10
4029.822951975994
 20
1550.000000744964
 11
4031.822951838093
 21
1550.000000744964
  0
LINE
  5
187
100
AcDbEntity
  8
0
  6
CONTINUOUS
 62
           3
100
AcDbLine
 10
4031.822951838093
 20
1548.799999058065
 11
4029.822951975994
 21
1548.799999058065
  0
LINE
  5
186
100
AcDbEntity
  8
0
  6
CONTINUOUS
 62
           3
100
AcDbLine
 10
4029.822951975994
 20
1548.799999058065
 11
4029.822951975994
 21
1550.000000744964
  0
LINE
  5
185
100
AcDbEntity
  8
0
  6
CONTINUOUS
 62
           3
100
AcDbLine
 10
4056.572951238371
 20
1550.000000744964
 11
4046.572951461981
 21
1550.000000744964
  0
LINE
  5
184
100
AcDbEntity
  8
0
  6
CONTINUOUS
 62
           3
100
AcDbLine
 10
4056.572951238371
 20
1548.799999058065
 11
4046.572951461981
 21
1548.799999058065
  0
LINE
  5
183
100
AcDbEntity
  8
0
  6
CONTINUOUS
 62
           3
100
AcDbLine
 10
4056.572951238371
 20
1548.799999058065
 11
4056.572951238371
 21
1550.000000744964
  0
LINE
  5
182
100
AcDbEntity
  8
0
  6
CONTINUOUS
 62
           3
100
AcDbLine
 10
4029.822951975994
 20
1391.199998557593
 11
4030.072952016994
 21
1391.199998557593
  0
LINE
  5
181
100
AcDbEntity
  8
0
  6
CONTINUOUS
 62
           3
100
AcDbLine
 10
4029.822951975994
 20
1390.000000596097
 11
4029.822951975994
 21
1391.199998557593
  0
LINE
  5
180
100
AcDbEntity
  8
0
  6
CONTINUOUS
 62
           3
100
AcDbLine
 10
4006.572952355813
 20
1391.199998557593
 11
4018.572951529003
 21
1391.199998557593
  0
LINE
  5
17F
100
AcDbEntity
  8
0
  6
CONTINUOUS
 62
           3
100
AcDbLine
 10
4006.572952355813
 20
1390.000000596097
 11
4018.572951529003
 21
1390.000000596097
  0
LINE
  5
17E
100
AcDbEntity
  8
0
  6
CONTINUOUS
 62
           3
100
AcDbLine
 10
4006.572952355813
 20
1391.199998557593
 11
4006.572952355813
 21
1390.000000596097
  0
LINE
  5
17D
100
AcDbEntity
  8
0
  6
CONTINUOUS
 62
           3
100
AcDbLine
 10
4006.572952355813
 20
1550.000000744964
 11
4021.322951979701
 21
1550.000000744964
  0
LINE
  5
17C
100
AcDbEntity
  8
0
  6
CONTINUOUS
 62
           3
100
AcDbLine
 10
4006.572952355813
 20
1548.799999058065
 11
4021.322951979701
 21
1548.799999058065
  0
LINE
  5
17B
100
AcDbEntity
  8
0
  6
CONTINUOUS
 62
           3
100
AcDbLine
 10
4031.822951838093
 20
1550.000000744964
 11
4046.572951461981
 21
1550.000000744964
  0
LINE
  5
17A
100
AcDbEntity
  8
0
  6
CONTINUOUS
 62
           3
100
AcDbLine
 10
4031.822951838093
 20
1548.799999058065
 11
4046.572951461981
 21
1548.799999058065
  0
LINE
  5
179
100
AcDbEntity
  8
0
  6
CONTINUOUS
 62
           3
100
AcDbLine
 10
4046.572951461981
 20
1548.799999058065
 11
4046.572951461981
 21
1550.000000744964
  0
LINE
  5
178
100
AcDbEntity
  8
0
  6
CONTINUOUS
 62
           3
100
AcDbLine
 10
3996.572952579421
 20
1548.799999058065
 11
3996.572952579421
 21
1550.000000744964
  0
LINE
  5
177
100
AcDbEntity
  8
0
  6
CONTINUOUS
 62
           3
100
AcDbLine
 10
3996.572952579421
 20
1548.799999058065
 11
4006.572952355813
 21
1548.799999058065
  0
LINE
  5
176
100
AcDbEntity
  8
0
  6
CONTINUOUS
 62
           3
100
AcDbLine
 10
4006.572952355813
 20
1548.799999058065
 11
4006.572952355813
 21
1550.000000744964
  0
LINE
  5
175
100
AcDbEntity
  8
0
  6
CONTINUOUS
 62
           3
100
AcDbLine
 10
3996.572952579421
 20
1550.000000744964
 11
4006.572952355813
 21
1550.000000744964
  0
LINE
  5
174
100
AcDbEntity
  8
0
  6
CONTINUOUS
 62
           3
100
AcDbLine
 10
4034.57295228879
 20
1389.200001954996
 11
4034.57295228879
 21
1388.276241719796
  0
LINE
  5
173
100
AcDbEntity
  8
0
  6
CONTINUOUS
 62
           3
100
AcDbLine
 10
4018.572951529003
 20
1389.200001954996
 11
4018.572951529003
 21
1388.276241719796
  0
LINE
  5
172
100
AcDbEntity
  8
0
  6
CONTINUOUS
 62
           3
100
AcDbLine
 10
4021.572952020702
 20
1388.276241719796
 11
4018.572951529003
 21
1388.276241719796
  0
LINE
  5
171
100
AcDbEntity
  8
0
  6
CONTINUOUS
 62
           3
100
AcDbLine
 10
4034.57295228879
 20
1388.276241719796
 11
4031.572951797093
 21
1388.276241719796
  0
LINE
  5
170
100
AcDbEntity
  8
0
  6
CONTINUOUS
 62
           3
100
AcDbLine
 10
4029.072951852993
 20
1384.1999992729
 11
4031.572951797139
 21
1384.1999992729
  0
LINE
  5
16F
100
AcDbEntity
  8
0
  6
CONTINUOUS
 62
           3
100
AcDbLine
 10
4021.572952020665
 20
1384.1999992729
 11
4024.072951964783
 21
1384.1999992729
  0
LINE
  5
16E
100
AcDbEntity
  8
0
  6
CONTINUOUS
 62
           3
100
AcDbLine
 10
4031.572951797093
 20
1384.646579623302
 11
4031.572951797093
 21
1389.100000262195
  0
LINE
  5
16D
100
AcDbEntity
  8
0
  6
CONTINUOUS
 62
           3
100
AcDbLine
 10
4021.572952020702
 20
1384.646579623302
 11
4021.572952020702
 21
1389.100000262195
  0
LINE
  5
16C
100
AcDbEntity
  8
0
  6
CONTINUOUS
 62
           3
100
AcDbLine
 10
4021.572952020702
 20
1384.646579623302
 11
4024.072951964783
 21
1384.1999992729
  0
LINE
  5
16B
100
AcDbEntity
  8
0
  6
CONTINUOUS
 62
           3
100
AcDbLine
 10
4026.5729519089
 20
1384.646579623296
 11
4026.572951908896
 21
1389.100000262195
  0
LINE
  5
16A
100
AcDbEntity
  8
0
  6
CONTINUOUS
 62
           3
100
AcDbLine
 10
4024.072951964783
 20
1384.1999992729
 11
4029.072951852993
 21
1384.1999992729
  0
LINE
  5
169
100
AcDbEntity
  8
0
  6
CONTINUOUS
 62
           3
100
AcDbLine
 10
4026.5729519089
 20
1384.646579623296
 11
4029.072951852993
 21
1384.1999992729
  0
LINE
  5
168
100
AcDbEntity
  8
0
  6
CONTINUOUS
 62
           3
100
AcDbLine
 10
4023.0729518008
 20
1389.200001954996
 11
4030.072952016994
 21
1389.200001954996
  0
LINE
  5
167
100
AcDbEntity
  8
0
  6
CONTINUOUS
 62
           3
100
AcDbLine
 10
4023.0729518008
 20
1390.000000596097
 11
4030.072952016994
 21
1390.000000596097
  0
LINE
  5
166
100
AcDbEntity
  8
0
  6
CONTINUOUS
 62
           3
100
AcDbLine
 10
4030.072952016994
 20
1393.990144133492
 11
4023.0729518008
 21
1393.990144133492
  0
LINE
  5
165
100
AcDbEntity
  8
0
  6
CONTINUOUS
 62
           3
100
AcDbLine
 10
4023.5729518828
 20
1392.246469855294
 11
4023.0729518008
 21
1392.246469855294
  0
LINE
  5
164
100
AcDbEntity
  8
0
  6
CONTINUOUS
 62
           3
100
AcDbLine
 10
4030.072952016994
 20
1392.246469855294
 11
4029.572951934995
 21
1392.246469855294
  0
LINE
  5
163
100
AcDbEntity
  8
0
  6
CONTINUOUS
 62
           3
100
AcDbLine
 10
4034.57295228879
 20
1394.799999892894
 11
4034.57295228879
 21
1389.200001954996
  0
LINE
  5
162
100
AcDbEntity
  8
0
  6
CONTINUOUS
 62
           3
100
AcDbLine
 10
4018.572951529003
 20
1394.799999892894
 11
4018.572951529003
 21
1389.200001954996
  0
LINE
  5
161
100
AcDbEntity
  8
0
  6
CONTINUOUS
 62
           3
100
AcDbLine
 10
4023.0729518008
 20
1389.200001954996
 11
4023.0729518008
 21
1394.799999892894
  0
LINE
  5
160
100
AcDbEntity
  8
0
  6
CONTINUOUS
 62
           3
100
AcDbLine
 10
4030.072952016994
 20
1394.799999892894
 11
4030.072952016994
 21
1389.200001954996
  0
LINE
  5
15F
100
AcDbEntity
  8
0
  6
CONTINUOUS
 62
           3
100
AcDbLine
 10
4023.0729518008
 20
1389.200001954996
 11
4018.572951529003
 21
1389.200001954996
  0
LINE
  5
15E
100
AcDbEntity
  8
0
  6
CONTINUOUS
 62
           3
100
AcDbLine
 10
4023.0729518008
 20
1394.792847335491
 11
4030.072952016994
 21
1394.792847335491
  0
LINE
  5
15D
100
AcDbEntity
  8
0
  6
CONTINUOUS
 62
           3
100
AcDbLine
 10
4034.57295228879
 20
1389.200001954996
 11
4030.072952016994
 21
1389.200001954996
  0
LINE
  5
15C
100
AcDbEntity
  8
0
  6
CONTINUOUS
 62
           3
100
AcDbLine
 10
4028.572952003796
 20
1638.422653078993
 11
4024.572951813999
 21
1638.422653078993
  0
LINE
  5
15B
100
AcDbEntity
  8
0
  6
CONTINUOUS
 62
           3
100
AcDbLine
 10
4023.5729518828
 20
1637.422651052293
 11
4029.572951934995
 21
1637.422651052293
  0
LINE
  5
15A
100
AcDbEntity
  8
0
  6
CONTINUOUS
 62
           3
100
AcDbLine
 10
3972.572950508243
 20
1665.000006556369
 11
3976.572951163937
 21
1665.000006556369
  0
LINE
  5
159
100
AcDbEntity
  8
0
  6
CONTINUOUS
 62
           3
100
AcDbLine
 10
3976.572951163937
 20
1665.000006556369
 11
3980.572951819635
 21
1665.000006556369
  0
LINE
  5
158
100
AcDbEntity
  8
0
  6
CONTINUOUS
 62
           3
100
AcDbLine
 10
4022.242824874568
 20
1367.599993944256
 11
4021.572952020702
 21
1367.599993944114
  0
LINE
  5
157
100
AcDbEntity
  8
0
  6
CONTINUOUS
 62
           3
100
AcDbLine
 10
4031.572951797093
 20
1367.599993944114
 11
4030.903078943235
 21
1367.599993944256
  0
LINE
  5
156
100
AcDbEntity
  8
0
  6
CONTINUOUS
 62
           3
100
AcDbLine
 10
4022.242824874568
 20
1372.600004077041
 11
4021.572952020702
 21
1372.600004077009
  0
LINE
  5
155
100
AcDbEntity
  8
0
  6
CONTINUOUS
 62
           3
100
AcDbLine
 10
4030.903078943235
 20
1367.599993944256
 11
4026.5729519089
 21
1367.599993944256
  0
LINE
  5
154
100
AcDbEntity
  8
0
  6
CONTINUOUS
 62
           3
100
AcDbLine
 10
4026.5729519089
 20
1367.599993944256
 11
4022.242824874568
 21
1367.599993944256
  0
LINE
  5
153
100
AcDbEntity
  8
0
  6
CONTINUOUS
 62
           3
100
AcDbLine
 10
4020.799449041201
 20
1372.153416276109
 11
4020.799449041201
 21
1368.046581745312
  0
LINE
  5
152
100
AcDbEntity
  8
0
  6
CONTINUOUS
 62
           3
100
AcDbLine
 10
4020.799449041201
 20
1368.046581745312
 11
4022.242824874568
 21
1367.599993944256
  0
LINE
  5
151
100
AcDbEntity
  8
0
  6
CONTINUOUS
 62
           3
100
AcDbLine
 10
4023.68620047507
 20
1372.153416276062
 11
4022.242824874568
 21
1372.600004077041
  0
LINE
  5
150
100
AcDbEntity
  8
0
  6
CONTINUOUS
 62
           3
100
AcDbLine
 10
4029.459703342594
 20
1368.046581745312
 11
4030.903078943235
 21
1367.599993944256
  0
LINE
  5
14F
100
AcDbEntity
  8
0
  6
CONTINUOUS
 62
           3
100
AcDbLine
 10
4032.346454776593
 20
1372.153416276109
 11
4032.346454776593
 21
1368.046581745312
  0
LINE
  5
14E
100
AcDbEntity
  8
0
  6
CONTINUOUS
 62
           3
100
AcDbLine
 10
4032.346454776593
 20
1372.153416276109
 11
4030.903078943235
 21
1372.600004077041
  0
LINE
  5
14D
100
AcDbEntity
  8
0
  6
CONTINUOUS
 62
           3
100
AcDbLine
 10
4023.68620047507
 20
1372.153416276062
 11
4023.68620047507
 21
1368.046581745235
  0
LINE
  5
14C
100
AcDbEntity
  8
0
  6
CONTINUOUS
 62
           3
100
AcDbLine
 10
4029.459703342734
 20
1372.153416276062
 11
4029.459703342594
 21
1368.046581745312
  0
LINE
  5
14B
100
AcDbEntity
  8
0
  6
CONTINUOUS
 62
           3
100
AcDbLine
 10
4031.572951797093
 20
1372.600004077009
 11
4030.903078943235
 21
1372.600004077041
  0
LINE
  5
14A
100
AcDbEntity
  8
0
  6
CONTINUOUS
 62
           3
100
AcDbLine
 10
4031.572951797093
 20
1377.599999308604
 11
4030.903078943235
 21
1377.599999308667
  0
LINE
  5
149
100
AcDbEntity
  8
0
  6
CONTINUOUS
 62
           3
100
AcDbLine
 10
4022.242824874568
 20
1377.599999308667
 11
4021.572952020702
 21
1377.599999308604
  0
LINE
  5
148
100
AcDbEntity
  8
0
  6
CONTINUOUS
 62
           3
100
AcDbLine
 10
4026.5729519089
 20
1372.600004077041
 11
4022.242824874568
 21
1372.600004077041
  0
LINE
  5
147
100
AcDbEntity
  8
0
  6
CONTINUOUS
 62
           3
100
AcDbLine
 10
4030.903078943235
 20
1372.600004077041
 11
4026.5729519089
 21
1372.600004077041
  0
LINE
  5
146
100
AcDbEntity
  8
0
  6
CONTINUOUS
 62
           3
100
AcDbLine
 10
4026.5729519089
 20
1377.599999308667
 11
4022.242824874568
 21
1377.599999308667
  0
LINE
  5
145
100
AcDbEntity
  8
0
  6
CONTINUOUS
 62
           3
100
AcDbLine
 10
4020.799449041201
 20
1377.153418958205
 11
4020.799449041201
 21
1373.046576976911
  0
LINE
  5
144
100
AcDbEntity
  8
0
  6
CONTINUOUS
 62
           3
100
AcDbLine
 10
4020.799449041201
 20
1373.046576976911
 11
4022.242824874568
 21
1372.600004077041
  0
LINE
  5
143
100
AcDbEntity
  8
0
  6
CONTINUOUS
 62
           3
100
AcDbLine
 10
4023.68620047507
 20
1377.153418958268
 11
4022.242824874568
 21
1377.599999308667
  0
LINE
  5
142
100
AcDbEntity
  8
0
  6
CONTINUOUS
 62
           3
100
AcDbLine
 10
4030.903078943235
 20
1377.599999308667
 11
4026.5729519089
 21
1377.599999308667
  0
LINE
  5
141
100
AcDbEntity
  8
0
  6
CONTINUOUS
 62
           3
100
AcDbLine
 10
4029.459703342594
 20
1373.046576976911
 11
4030.903078943235
 21
1372.600004077041
  0
LINE
  5
140
100
AcDbEntity
  8
0
  6
CONTINUOUS
 62
           3
100
AcDbLine
 10
4032.346454776593
 20
1377.153418958205
 11
4032.346454776593
 21
1373.046576976911
  0
LINE
  5
13F
100
AcDbEntity
  8
0
  6
CONTINUOUS
 62
           3
100
AcDbLine
 10
4032.346454776593
 20
1377.153418958205
 11
4030.903078943235
 21
1377.599999308667
  0
LINE
  5
13E
100
AcDbEntity
  8
0
  6
CONTINUOUS
 62
           3
100
AcDbLine
 10
4023.68620047507
 20
1377.153418958268
 11
4023.68620047507
 21
1373.04657697686
  0
LINE
  5
13D
100
AcDbEntity
  8
0
  6
CONTINUOUS
 62
           3
100
AcDbLine
 10
4029.459703342734
 20
1377.153418958268
 11
4029.459703342594
 21
1373.046576976911
  0
LINE
  5
13C
100
AcDbEntity
  8
0
  6
CONTINUOUS
 62
           3
100
AcDbLine
 10
4020.799449041201
 20
1364.553421735916
 11
4020.799449041201
 21
1360.446587205122
  0
LINE
  5
13B
100
AcDbEntity
  8
0
  6
CONTINUOUS
 62
           3
100
AcDbLine
 10
4020.799449041201
 20
1360.446587205122
 11
4022.242824874568
 21
1359.999999404049
  0
LINE
  5
13A
100
AcDbEntity
  8
0
  6
CONTINUOUS
 62
           3
100
AcDbLine
 10
4023.68620047507
 20
1364.553421735859
 11
4022.242824874568
 21
1364.999994635673
  0
LINE
  5
139
100
AcDbEntity
  8
0
  6
CONTINUOUS
 62
           3
100
AcDbLine
 10
4029.459703342594
 20
1360.446587205122
 11
4030.903078943194
 21
1359.999999403921
  0
LINE
  5
138
100
AcDbEntity
  8
0
  6
CONTINUOUS
 62
           3
100
AcDbLine
 10
4032.346454776593
 20
1364.553421735916
 11
4032.346454776593
 21
1360.446587205122
  0
LINE
  5
137
100
AcDbEntity
  8
0
  6
CONTINUOUS
 62
           3
100
AcDbLine
 10
4032.346454776593
 20
1364.553421735916
 11
4030.903078943235
 21
1364.999994635673
  0
LINE
  5
136
100
AcDbEntity
  8
0
  6
CONTINUOUS
 62
           3
100
AcDbLine
 10
4023.68620047507
 20
1364.553421735859
 11
4023.68620047507
 21
1360.446587205025
  0
LINE
  5
135
100
AcDbEntity
  8
0
  6
CONTINUOUS
 62
           3
100
AcDbLine
 10
4029.459703342734
 20
1364.553421735859
 11
4029.459703342594
 21
1360.446587205122
  0
LINE
  5
134
100
AcDbEntity
  8
0
  6
CONTINUOUS
 62
           3
100
AcDbLine
 10
4021.572952020702
 20
1359.999999403921
 11
4022.242824874568
 21
1359.999999404049
  0
LINE
  5
133
100
AcDbEntity
  8
0
  6
CONTINUOUS
 62
           3
100
AcDbLine
 10
4031.572951797093
 20
1355.000004172322
 11
4030.903078943235
 21
1355.00000417242
  0
LINE
  5
132
100
AcDbEntity
  8
0
  6
CONTINUOUS
 62
           3
100
AcDbLine
 10
4021.572952020702
 20
1355.000004172322
 11
4022.242824874568
 21
1355.00000417242
  0
LINE
  5
131
100
AcDbEntity
  8
0
  6
CONTINUOUS
 62
           3
100
AcDbLine
 10
4032.346454776593
 20
1355.446577072224
 11
4030.903078943235
 21
1355.00000417242
  0
LINE
  5
130
100
AcDbEntity
  8
0
  6
CONTINUOUS
 62
           3
100
AcDbLine
 10
4032.346454776593
 20
1355.446577072224
 11
4032.346454776593
 21
1359.553411603021
  0
LINE
  5
12F
100
AcDbEntity
  8
0
  6
CONTINUOUS
 62
           3
100
AcDbLine
 10
4020.799449041201
 20
1355.446577072224
 11
4020.799449041201
 21
1359.553411603021
  0
LINE
  5
12E
100
AcDbEntity
  8
0
  6
CONTINUOUS
 62
           3
100
AcDbLine
 10
4026.5729519089
 20
1359.999999404049
 11
4030.903078943194
 21
1359.999999403921
  0
LINE
  5
12D
100
AcDbEntity
  8
0
  6
CONTINUOUS
 62
           3
100
AcDbLine
 10
4029.459703342734
 20
1359.553411603069
 11
4030.903078943194
 21
1359.999999403921
  0
LINE
  5
12C
100
AcDbEntity
  8
0
  6
CONTINUOUS
 62
           3
100
AcDbLine
 10
4022.242824874568
 20
1359.999999404049
 11
4026.5729519089
 21
1359.999999404049
  0
LINE
  5
12B
100
AcDbEntity
  8
0
  6
CONTINUOUS
 62
           3
100
AcDbLine
 10
4022.242824874568
 20
1355.00000417242
 11
4026.572951908896
 21
1355.000004172322
  0
LINE
  5
12A
100
AcDbEntity
  8
0
  6
CONTINUOUS
 62
           3
100
AcDbLine
 10
4026.572951908896
 20
1355.000004172322
 11
4030.903078943235
 21
1355.00000417242
  0
LINE
  5
129
100
AcDbEntity
  8
0
  6
CONTINUOUS
 62
           3
100
AcDbLine
 10
4023.686200475198
 20
1359.553411603021
 11
4026.5729519089
 21
1359.999999404049
  0
LINE
  5
128
100
AcDbEntity
  8
0
  6
CONTINUOUS
 62
           3
100
AcDbLine
 10
4023.68620047507
 20
1355.446577072242
 11
4023.686200475198
 21
1359.553411603021
  0
LINE
  5
127
100
AcDbEntity
  8
0
  6
CONTINUOUS
 62
           3
100
AcDbLine
 10
4029.459703342594
 20
1355.446577072224
 11
4026.572951908896
 21
1355.000004172322
  0
LINE
  5
126
100
AcDbEntity
  8
0
  6
CONTINUOUS
 62
           3
100
AcDbLine
 10
4029.459703342594
 20
1355.446577072224
 11
4029.459703342734
 21
1359.553411603069
  0
LINE
  5
125
100
AcDbEntity
  8
0
  6
CONTINUOUS
 62
           3
100
AcDbLine
 10
4083.57295193855
 20
1393.799997866194
 11
4083.57295193855
 21
1543.800000101368
  0
LINE
  5
124
100
AcDbEntity
  8
0
  6
CONTINUOUS
 62
           3
100
AcDbLine
 10
3972.572950508243
 20
1543.800000101368
 11
3969.572951879244
 21
1543.800000101368
  0
LINE
  5
123
100
AcDbEntity
  8
0
  6
CONTINUOUS
 62
           3
100
AcDbLine
 10
4023.5729518828
 20
1543.800000101368
 11
3980.572951819635
 21
1543.800000101368
  0
LINE
  5
122
100
AcDbEntity
  8
0
  6
CONTINUOUS
 62
           3
100
AcDbLine
 10
4072.572951998159
 20
1543.800000101368
 11
4029.572951934995
 21
1543.800000101368
  0
LINE
  5
121
100
AcDbEntity
  8
0
  6
CONTINUOUS
 62
           3
100
AcDbLine
 10
4083.57295193855
 20
1543.800000101368
 11
4080.572953309554
 21
1543.800000101368
  0
LINE
  5
120
100
AcDbEntity
  8
0
  6
CONTINUOUS
 62
           3
100
AcDbLine
 10
3969.572951879244
 20
1543.800000101368
 11
3969.572951879244
 21
1393.799997866194
  0
LINE
  5
11F
100
AcDbEntity
  8
0
  6
CONTINUOUS
 62
           3
100
AcDbLine
 10
4080.572953309554
 20
1393.799997866194
 11
4083.57295193855
 21
1393.799997866194
  0
LINE
  5
11E
100
AcDbEntity
  8
0
  6
CONTINUOUS
 62
           3
100
AcDbLine
 10
4034.57295228879
 20
1393.799997866194
 11
4072.572951998159
 21
1393.799997866194
  0
LINE
  5
11D
100
AcDbEntity
  8
0
  6
CONTINUOUS
 62
           3
100
AcDbLine
 10
3980.572951819635
 20
1393.799997866194
 11
4018.572951529003
 21
1393.799997866194
  0
LINE
  5
11C
100
AcDbEntity
  8
0
  6
CONTINUOUS
 62
           3
100
AcDbLine
 10
3969.572951879244
 20
1393.799997866194
 11
3972.572950508243
 21
1393.799997866194
  0
LINE
  5
11B
100
AcDbEntity
  8
0
  6
CONTINUOUS
 62
           3
100
AcDbLine
 10
4020.099449217102
 20
1389.099999999995
 11
4033.046454600692
 21
1389.099999999995
  0
LINE
  5
11A
100
AcDbEntity
  8
0
  6
CONTINUOUS
 62
           3
100
AcDbLine
 10
4034.57295228879
 20
1394.799999892894
 11
4030.072952016994
 21
1394.799999892894
  0
LINE
  5
119
100
AcDbEntity
  8
0
  6
CONTINUOUS
 62
           3
100
AcDbLine
 10
4023.0729518008
 20
1394.799999892894
 11
4018.572951529003
 21
1394.799999892894
  0
LINE
  5
118
100
AcDbEntity
  8
0
  6
CONTINUOUS
 62
           3
100
AcDbLine
 10
4024.572951813999
 20
1638.422653078993
 11
4023.5729518828
 21
1637.422651052293
  0
LINE
  5
117
100
AcDbEntity
  8
0
  6
CONTINUOUS
 62
           3
100
AcDbLine
 10
4029.572951934995
 20
1637.422651052293
 11
4028.572952003796
 21
1638.422653078993
  0
LINE
  5
116
100
AcDbEntity
  8
0
  6
CONTINUOUS
 62
           3
100
AcDbLine
 10
4023.5729518828
 20
1367.599993944114
 11
4023.5729518828
 21
1366.600006818714
  0
LINE
  5
115
100
AcDbEntity
  8
0
  6
CONTINUOUS
 62
           3
100
AcDbLine
 10
4023.5729518828
 20
1384.1999992729
 11
4023.5729518828
 21
1377.599999308604
  0
LINE
  5
114
100
AcDbEntity
  8
0
  6
CONTINUOUS
 62
           3
100
AcDbLine
 10
4023.5729518828
 20
1392.957426607594
 11
4023.5729518828
 21
1390.000000596097
  0
LINE
  5
113
100
AcDbEntity
  8
0
  6
CONTINUOUS
 62
           3
100
AcDbLine
 10
4023.5729518828
 20
1633.399993180996
 11
4023.5729518828
 21
1394.792847335491
  0
LINE
  5
112
100
AcDbEntity
  8
0
  6
CONTINUOUS
 62
           3
100
AcDbLine
 10
4023.5729518828
 20
1637.422651052293
 11
4023.5729518828
 21
1635.000005364197
  0
LINE
  5
111
100
AcDbEntity
  8
0
  6
CONTINUOUS
 62
           3
100
AcDbLine
 10
4029.572951934995
 20
1635.000005364197
 11
4029.572951934995
 21
1637.422651052293
  0
LINE
  5
110
100
AcDbEntity
  8
0
  6
CONTINUOUS
 62
           3
100
AcDbLine
 10
4029.572951934995
 20
1394.792847335491
 11
4029.572951934995
 21
1633.399993180996
  0
LINE
  5
10F
100
AcDbEntity
  8
0
  6
CONTINUOUS
 62
           3
100
AcDbLine
 10
4029.572951934995
 20
1390.000000596097
 11
4029.572951934995
 21
1392.957426607594
  0
LINE
  5
10E
100
AcDbEntity
  8
0
  6
CONTINUOUS
 62
           3
100
AcDbLine
 10
4029.572951934995
 20
1377.599999308604
 11
4029.572951934995
 21
1384.1999992729
  0
LINE
  5
10D
100
AcDbEntity
  8
0
  6
CONTINUOUS
 62
           3
100
AcDbLine
 10
4029.572951934995
 20
1366.600006818714
 11
4029.572951934995
 21
1367.599993944114
  0
LINE
  5
10C
100
AcDbEntity
  8
0
  6
CONTINUOUS
 62
           3
100
AcDbLine
 10
3980.572951819635
 20
1635.000005364197
 11
3980.572951819635
 21
1665.000006556369
  0
LINE
  5
10B
100
AcDbEntity
  8
0
  6
CONTINUOUS
 62
           3
100
AcDbLine
 10
3980.572951819635
 20
1550.000000744964
 11
3980.572951819635
 21
1633.399993180996
  0
LINE
  5
10A
100
AcDbEntity
  8
0
  6
CONTINUOUS
 62
           3
100
AcDbLine
 10
3980.572951819635
 20
1391.199998557593
 11
3980.572951819635
 21
1548.799999058065
  0
LINE
  5
109
100
AcDbEntity
  8
0
  6
CONTINUOUS
 62
           3
100
AcDbLine
 10
3980.572951819635
 20
1366.600006818714
 11
3980.572951819635
 21
1390.000000596097
  0
LINE
  5
108
100
AcDbEntity
  8
0
  6
CONTINUOUS
 62
           3
100
AcDbLine
 10
3972.572950508243
 20
1364.999994635815
 11
3972.572950508243
 21
1314.999997615956
  0
LINE
  5
107
100
AcDbEntity
  8
0
  6
CONTINUOUS
 62
           3
100
AcDbLine
 10
3972.572950508243
 20
1390.000000596097
 11
3972.572950508243
 21
1366.600006818714
  0
LINE
  5
106
100
AcDbEntity
  8
0
  6
CONTINUOUS
 62
           3
100
AcDbLine
 10
3972.572950508243
 20
1548.799999058065
 11
3972.572950508243
 21
1391.199998557593
  0
LINE
  5
105
100
AcDbEntity
  8
0
  6
CONTINUOUS
 62
           3
100
AcDbLine
 10
3972.572950508243
 20
1633.399993180996
 11
3972.572950508243
 21
1550.000000744964
  0
LINE
  5
104
100
AcDbEntity
  8
0
  6
CONTINUOUS
 62
           3
100
AcDbLine
 10
3972.572950508243
 20
1665.000006556369
 11
3972.572950508243
 21
1635.000005364197
  0
LINE
  5
103
100
AcDbEntity
  8
0
  6
CONTINUOUS
 62
           3
100
AcDbLine
 10
4080.572953309554
 20
1635.000005364197
 11
4080.572953309554
 21
1641.000000000001
  0
LINE
  5
102
100
AcDbEntity
  8
0
  6
CONTINUOUS
 62
           3
100
AcDbLine
 10
4080.572953309554
 20
1550.000000744964
 11
4080.572953309554
 21
1633.399993180996
  0
LINE
  5
101
100
AcDbEntity
  8
0
  6
CONTINUOUS
 62
           3
100
AcDbLine
 10
4080.572953309554
 20
1391.199998557593
 11
4080.572953309554
 21
1548.799999058065
  0
LINE
  5
100
100
AcDbEntity
  8
0
  6
CONTINUOUS
 62
           3
100
AcDbLine
 10
4080.572953309554
 20
1366.600006818714
 11
4080.572953309554
 21
1390.000000596097
  0
LINE
  5
FF
100
AcDbEntity
  8
0
  6
CONTINUOUS
 62
           3
100
AcDbLine
 10
4080.572953309554
 20
1314.999997615956
 11
4080.572953309554
 21
1364.999994635815
  0
LINE
  5
FE
100
AcDbEntity
  8
0
  6
CONTINUOUS
 62
           3
100
AcDbLine
 10
4072.572951998159
 20
1364.999994635815
 11
4072.572951998159
 21
1314.999997615956
  0
LINE
  5
FD
100
AcDbEntity
  8
0
  6
CONTINUOUS
 62
           3
100
AcDbLine
 10
4072.572951998159
 20
1390.000000596097
 11
4072.572951998159
 21
1366.600006818714
  0
LINE
  5
FC
100
AcDbEntity
  8
0
  6
CONTINUOUS
 62
           3
100
AcDbLine
 10
4072.572951998159
 20
1548.799999058065
 11
4072.572951998159
 21
1391.199998557593
  0
LINE
  5
FB
100
AcDbEntity
  8
0
  6
CONTINUOUS
 62
           3
100
AcDbLine
 10
4072.572951998159
 20
1633.399993180996
 11
4072.572951998159
 21
1550.000000744964
  0
LINE
  5
FA
100
AcDbEntity
  8
0
  6
CONTINUOUS
 62
           3
100
AcDbLine
 10
4072.572951998159
 20
1641.0
 11
4072.572951998159
 21
1635.000005364197
  0
LINE
  5
F9
100
AcDbEntity
  8
0
  6
CONTINUOUS
 62
           3
100
AcDbLine
 10
4020.799449041201
 20
1368.046581745312
 11
4021.572952020702
 21
1367.599993944114
  0
LINE
  5
F8
100
AcDbEntity
  8
0
  6
CONTINUOUS
 62
           3
100
AcDbLine
 10
4031.572951797093
 20
1367.599993944114
 11
4032.346454776593
 21
1368.046581745312
  0
LINE
  5
F7
100
AcDbEntity
  8
0
  6
CONTINUOUS
 62
           3
100
AcDbLine
 10
4032.346454776593
 20
1372.153416276109
 11
4031.572951797093
 21
1372.600004077009
  0
LINE
  5
F6
100
AcDbEntity
  8
0
  6
CONTINUOUS
 62
           3
100
AcDbLine
 10
4021.572952020702
 20
1372.600004077009
 11
4020.799449041201
 21
1372.153416276109
  0
LINE
  5
F5
100
AcDbEntity
  8
0
  6
CONTINUOUS
 62
           3
100
AcDbLine
 10
4020.799449041201
 20
1373.046576976911
 11
4021.572952020702
 21
1372.600004077009
  0
LINE
  5
F4
100
AcDbEntity
  8
0
  6
CONTINUOUS
 62
           3
100
AcDbLine
 10
4031.572951797093
 20
1372.600004077009
 11
4032.346454776593
 21
1373.046576976911
  0
LINE
  5
F3
100
AcDbEntity
  8
0
  6
CONTINUOUS
 62
           3
100
AcDbLine
 10
4032.346454776593
 20
1377.153418958205
 11
4031.572951797093
 21
1377.599999308604
  0
LINE
  5
F2
100
AcDbEntity
  8
0
  6
CONTINUOUS
 62
           3
100
AcDbLine
 10
4021.572952020702
 20
1377.599999308604
 11
4020.799449041201
 21
1377.153418958205
  0
LINE
  5
F1
100
AcDbEntity
  8
0
  6
CONTINUOUS
 62
           3
100
AcDbLine
 10
4020.799449041201
 20
1360.446587205122
 11
4021.572952020702
 21
1359.999999403921
  0
LINE
  5
F0
100
AcDbEntity
  8
0
  6
CONTINUOUS
 62
           3
100
AcDbLine
 10
4031.572951797093
 20
1359.999999403921
 11
4032.346454776593
 21
1360.446587205122
  0
LINE
  5
EF
100
AcDbEntity
  8
0
  6
CONTINUOUS
 62
           3
100
AcDbLine
 10
4032.346454776593
 20
1364.553421735916
 11
4031.572951797093
 21
1364.999994635815
  0
LINE
  5
EE
100
AcDbEntity
  8
0
  6
CONTINUOUS
 62
           3
100
AcDbLine
 10
4021.572952020702
 20
1364.999994635815
 11
4020.799449041201
 21
1364.553421735916
  0
LINE
  5
ED
100
AcDbEntity
  8
0
  6
CONTINUOUS
 62
           3
100
AcDbLine
 10
4032.346454776593
 20
1359.553411603021
 11
4031.572951797093
 21
1359.999999403921
  0
LINE
  5
EC
100
AcDbEntity
  8
0
  6
CONTINUOUS
 62
           3
100
AcDbLine
 10
4021.572952020702
 20
1359.999999403921
 11
4020.799449041201
 21
1359.553411603021
  0
LINE
  5
EB
100
AcDbEntity
  8
0
  6
CONTINUOUS
 62
           3
100
AcDbLine
 10
4031.572951797093
 20
1355.000004172322
 11
4032.346454776593
 21
1355.446577072224
  0
LINE
  5
EA
100
AcDbEntity
  8
0
  6
CONTINUOUS
 62
           3
100
AcDbLine
 10
4020.799449041201
 20
1355.446577072224
 11
4021.572952020702
 21
1355.000004172322
  0
LINE
  5
E9
100
AcDbEntity
  8
0
  6
CONTINUOUS
 62
           3
100
AcDbLine
 10
3980.572951819635
 20
1314.999997615956
 11
3980.572951819635
 21
1364.999994635815
  0
LINE
  5
E8
100
AcDbEntity
  8
1
  6
CONTINUOUS
 62
           3
100
AcDbLine
 10
4508.17295518723
 20
1929.0
 11
4360.57295199816
 21
1929.0
  0
LINE
  5
E7
100
AcDbEntity
  8
1
  6
CONTINUOUS
 62
           3
100
AcDbLine
 10
4508.17295518723
 20
1921.000000000001
 11
4360.572953309555
 21
1921.000000000001
  0
LINE
  5
E6
100
AcDbEntity
  8
1
  6
CONTINUOUS
 62
           3
100
AcDbLine
 10
514.395796321874
 20
1294.328109327063
 11
512.007850321893
 21
1267.070985327062
  0
LINE
  5
E5
100
AcDbEntity
  8
1
  6
CONTINUOUS
 62
           3
100
AcDbLine
 10
512.007850321893
 20
1323.330711327063
 11
514.395796321874
 21
1296.073587327063
  0
LINE
  5
E4
100
AcDbEntity
  8
1
  6
CONTINUOUS
 62
           3
100
AcDbLine
 10
502.548714321874
 20
1294.328109327063
 11
504.936660321884
 21
1267.070985327062
  0
LINE
  5
E3
100
AcDbEntity
  8
1
  6
CONTINUOUS
 62
           3
100
AcDbLine
 10
504.936660321884
 20
1323.330711327063
 11
502.548714321874
 21
1296.073587327063
  0
LINE
  5
E2
100
AcDbEntity
  8
1
  6
DOT_CENTER
 62
           3
100
AcDbLine
 10
553.472255321877
 20
1295.200848327053
 11
463.474800321873
 21
1295.200848327053
  0
LINE
  5
E1
100
AcDbEntity
  8
1
  6
DOT_CENTER
 62
           3
100
AcDbLine
 10
508.472255321878
 20
1340.200848327053
 11
508.472255321878
 21
1250.202277327053
  0
LINE
  5
E0
100
AcDbEntity
  8
1
  6
CONTINUOUS
 62
           7
100
AcDbLine
 10
3840.67295518723
 20
1640.0
 11
3660.67295518723
 21
1639.999999999999
  0
LINE
  5
DF
100
AcDbEntity
  8
1
  6
CONTINUOUS
 62
           7
100
AcDbLine
 10
3660.67295518723
 20
1753.0
 11
3840.67295518723
 21
1753.0
  0
LINE
  5
DE
100
AcDbEntity
  8
1
  6
CONTINUOUS
 62
           7
100
AcDbLine
 10
3840.67295518723
 20
1753.0
 11
3840.67295518723
 21
1640.0
  0
LINE
  5
DD
100
AcDbEntity
  8
1
  6
CONTINUOUS
 62
           7
100
AcDbLine
 10
3660.67295518723
 20
1639.999999999999
 11
3660.67295518723
 21
1753.0
  0
LINE
  5
DC
100
AcDbEntity
  8
1
  6
CONTINUOUS
 62
           7
100
AcDbLine
 10
-569.497691536609
 20
986.513526798368
 11
575.0
 21
986.513526798368
  0
LINE
  5
DB
100
AcDbEntity
  8
1
  6
CONTINUOUS
 62
           4
100
AcDbLine
 10
4130.67295518723
 20
1800.831132334586
 11
4130.67295518723
 21
520.0
  0
LINE
  5
DA
100
AcDbEntity
  8
1
  6
CONTINUOUS
 62
           7
100
AcDbLine
 10
4110.67295518723
 20
1784.157226830845
 11
4110.67295518723
 21
2000.0
  0
LINE
  5
D9
100
AcDbEntity
  8
1
  6
CONTINUOUS
 62
           4
100
AcDbLine
 10
4090.67295518723
 20
1741.488764155307
 11
4090.672955187229
 21
1980.0
  0
LINE
  5
D8
100
AcDbEntity
  8
1
  6
CONTINUOUS
 62
           4
100
AcDbLine
 10
4130.67295518723
 20
1980.0
 11
4130.67295518723
 21
1814.464669216343
  0
LINE
  5
D7
100
AcDbEntity
  8
1
  6
CONTINUOUS
 62
           4
100
AcDbLine
 10
4090.672955187229
 20
520.0
 11
4090.67295518723
 21
1715.525103244275
  0
LINE
  5
D6
100
AcDbEntity
  8
1
  6
CONTINUOUS
 62
           7
100
AcDbLine
 10
4110.67295518723
 20
500.000000000001
 11
4110.67295518723
 21
1767.293273528177
  0
LINE
  5
D5
100
AcDbEntity
  8
___S__
  6
DOT_CENTER
 62
           3
100
AcDbLine
 10
-574.999999999999
 20
1067.063266596461
 11
-575.000000000001
 21
982.067556365336
  0
LINE
  5
D4
100
AcDbEntity
  8
____
  6
CONTINUOUS
 62
           3
100
AcDbLine
 10
-569.59594704488
 20
1060.45950481618
 11
-569.59594704488
 21
1058.581574068057
  0
LINE
  5
D3
100
AcDbEntity
  8
____
  6
CONTINUOUS
 62
           3
100
AcDbLine
 10
-579.912775413744
 20
1060.92898750321
 11
-570.087224586255
 21
1060.92898750321
  0
LINE
  5
D2
100
AcDbEntity
  8
____
  6
CONTINUOUS
 62
           3
100
AcDbLine
 10
-580.404052955118
 20
1058.581574068057
 11
-580.404052955118
 21
1060.45950481618
  0
LINE
  5
D1
100
AcDbEntity
  8
____
  6
CONTINUOUS
 62
           3
100
AcDbLine
 10
-569.497691536608
 20
1022.900889853724
 11
-580.502308463384
 21
1022.900889853724
  0
LINE
  5
D0
100
AcDbEntity
  8
____
  6
CONTINUOUS
 62
           3
100
AcDbLine
 10
-569.497691536607
 20
1058.581574068057
 11
-569.497691536608
 21
1022.900889853724
  0
LINE
  5
CF
100
AcDbEntity
  8
____
  6
CONTINUOUS
 62
           3
100
AcDbLine
 10
-580.502308463383
 20
1058.581574068057
 11
-569.497691536607
 21
1058.581574068057
  0
LINE
  5
CE
100
AcDbEntity
  8
____
  6
CONTINUOUS
 62
           3
100
AcDbLine
 10
-580.502308463384
 20
1022.900889853724
 11
-580.502308463383
 21
1058.581574068057
  0
LINE
  5
CD
100
AcDbEntity
  8
____
  6
CONTINUOUS
 62
           3
100
AcDbLine
 10
-580.40405295512
 20
984.403309517208
 11
-580.40405295512
 21
986.28124026533
  0
LINE
  5
CC
100
AcDbEntity
  8
____
  6
CONTINUOUS
 62
           3
100
AcDbLine
 10
-570.087224586257
 20
983.933826830176
 11
-579.912775413746
 21
983.933826830176
  0
LINE
  5
CB
100
AcDbEntity
  8
____
  6
CONTINUOUS
 62
           3
100
AcDbLine
 10
-569.595947044882
 20
986.28124026533
 11
-569.595947044882
 21
984.403309517208
  0
LINE
  5
CA
100
AcDbEntity
  8
____
  6
CONTINUOUS
 62
           3
100
AcDbLine
 10
-580.158414184432
 20
1022.900889853724
 11
-580.158414184432
 21
1021.961924479662
  0
LINE
  5
C9
100
AcDbEntity
  8
____
  6
CONTINUOUS
 62
           3
100
AcDbLine
 10
-569.841585815569
 20
1022.900889853724
 11
-580.158414184432
 21
1022.900889853724
  0
LINE
  5
C8
100
AcDbEntity
  8
____
  6
CONTINUOUS
 62
           3
100
AcDbLine
 10
-569.841585815569
 20
1021.961924479662
 11
-569.841585815569
 21
1022.900889853724
  0
LINE
  5
C7
100
AcDbEntity
  8
____
  6
CONTINUOUS
 62
           3
100
AcDbLine
 10
-580.404052955118
 20
1060.45950481618
 11
-569.59594704488
 21
1060.45950481618
  0
LINE
  5
C6
100
AcDbEntity
  8
____
  6
CONTINUOUS
 62
           3
100
AcDbLine
 10
-580.502308463384
 20
1021.961924479662
 11
-569.497691536608
 21
1021.961924479662
  0
LINE
  5
C5
100
AcDbEntity
  8
____
  6
CONTINUOUS
 62
           3
100
AcDbLine
 10
-580.502308463385
 20
986.28124026533
 11
-580.502308463384
 21
1021.961924479662
  0
LINE
  5
C4
100
AcDbEntity
  8
____
  6
CONTINUOUS
 62
           3
100
AcDbLine
 10
-569.497691536609
 20
986.28124026533
 11
-580.502308463385
 21
986.28124026533
  0
LINE
  5
C3
100
AcDbEntity
  8
____
  6
CONTINUOUS
 62
           3
100
AcDbLine
 10
-569.497691536608
 20
1021.961924479662
 11
-569.497691536609
 21
986.28124026533
  0
LINE
  5
C2
100
AcDbEntity
  8
____
  6
CONTINUOUS
 62
           3
100
AcDbLine
 10
-580.404052955118
 20
1060.45950481618
 11
-579.912775413744
 21
1060.92898750321
  0
LINE
  5
C1
100
AcDbEntity
  8
____
  6
CONTINUOUS
 62
           3
100
AcDbLine
 10
-570.087224586255
 20
1060.92898750321
 11
-569.59594704488
 21
1060.45950481618
  0
LINE
  5
C0
100
AcDbEntity
  8
____
  6
CONTINUOUS
 62
           3
100
AcDbLine
 10
-579.912775413746
 20
983.933826830176
 11
-580.40405295512
 21
984.403309517208
  0
LINE
  5
BF
100
AcDbEntity
  8
____
  6
CONTINUOUS
 62
           3
100
AcDbLine
 10
-569.595947044882
 20
984.403309517208
 11
-570.087224586257
 21
983.933826830176
  0
LINE
  5
BE
100
AcDbEntity
  8
____
  6
CONTINUOUS
 62
           3
100
AcDbLine
 10
-580.40405295512
 20
984.403309517208
 11
-569.595947044882
 21
984.403309517208
  0
LINE
  5
BD
100
AcDbEntity
  8
____
  6
CONTINUOUS
 62
           3
100
AcDbLine
 10
-580.404052955096
 20
1538.39288020726
 11
-569.595947044858
 21
1538.39288020726
  0
LINE
  5
BC
100
AcDbEntity
  8
____
  6
CONTINUOUS
 62
           3
100
AcDbLine
 10
-569.595947044858
 20
1538.39288020726
 11
-570.087224586232
 21
1537.923397520231
  0
LINE
  5
BB
100
AcDbEntity
  8
____
  6
CONTINUOUS
 62
           3
100
AcDbLine
 10
-579.912775413721
 20
1537.923397520231
 11
-580.404052955096
 21
1538.39288020726
  0
LINE
  5
BA
100
AcDbEntity
  8
____
  6
CONTINUOUS
 62
           3
100
AcDbLine
 10
-570.087224586231
 20
1614.918558193264
 11
-569.595947044857
 21
1614.449075506232
  0
LINE
  5
B9
100
AcDbEntity
  8
____
  6
CONTINUOUS
 62
           3
100
AcDbLine
 10
-580.404052955095
 20
1614.449075506232
 11
-579.91277541372
 21
1614.918558193264
  0
LINE
  5
B8
100
AcDbEntity
  8
____
  6
CONTINUOUS
 62
           3
100
AcDbLine
 10
-569.497691536592
 20
1575.951495169716
 11
-569.497691536592
 21
1540.270810955383
  0
LINE
  5
B7
100
AcDbEntity
  8
____
  6
CONTINUOUS
 62
           3
100
AcDbLine
 10
-569.497691536592
 20
1540.270810955383
 11
-580.502308463369
 21
1540.270810955383
  0
LINE
  5
B6
100
AcDbEntity
  8
____
  6
CONTINUOUS
 62
           3
100
AcDbLine
 10
-580.502308463369
 20
1540.270810955383
 11
-580.502308463369
 21
1575.951495169716
  0
LINE
  5
B5
100
AcDbEntity
  8
____
  6
CONTINUOUS
 62
           3
100
AcDbLine
 10
-580.502308463369
 20
1575.951495169716
 11
-569.497691536592
 21
1575.951495169716
  0
LINE
  5
B4
100
AcDbEntity
  8
____
  6
CONTINUOUS
 62
           3
100
AcDbLine
 10
-580.404052955095
 20
1614.449075506232
 11
-569.595947044857
 21
1614.449075506232
  0
LINE
  5
B3
100
AcDbEntity
  8
____
  6
CONTINUOUS
 62
           3
100
AcDbLine
 10
-569.841585815545
 20
1575.951495169716
 11
-569.841585815545
 21
1576.890460543778
  0
LINE
  5
B2
100
AcDbEntity
  8
____
  6
CONTINUOUS
 62
           3
100
AcDbLine
 10
-569.841585815545
 20
1576.890460543778
 11
-580.158414184408
 21
1576.890460543778
  0
LINE
  5
B1
100
AcDbEntity
  8
____
  6
CONTINUOUS
 62
           3
100
AcDbLine
 10
-580.158414184408
 20
1576.890460543778
 11
-580.158414184408
 21
1575.951495169716
  0
LINE
  5
B0
100
AcDbEntity
  8
____
  6
CONTINUOUS
 62
           3
100
AcDbLine
 10
-569.595947044858
 20
1540.270810955383
 11
-569.595947044858
 21
1538.39288020726
  0
LINE
  5
AF
100
AcDbEntity
  8
____
  6
CONTINUOUS
 62
           3
100
AcDbLine
 10
-570.087224586232
 20
1537.923397520231
 11
-579.912775413721
 21
1537.923397520231
  0
LINE
  5
AE
100
AcDbEntity
  8
____
  6
CONTINUOUS
 62
           3
100
AcDbLine
 10
-580.404052955096
 20
1538.39288020726
 11
-580.404052955096
 21
1540.270810955383
  0
LINE
  5
AD
100
AcDbEntity
  8
____
  6
CONTINUOUS
 62
           3
100
AcDbLine
 10
-580.502308463369
 20
1576.890460543778
 11
-580.502308463368
 21
1612.57114475811
  0
LINE
  5
AC
100
AcDbEntity
  8
____
  6
CONTINUOUS
 62
           3
100
AcDbLine
 10
-580.502308463368
 20
1612.57114475811
 11
-569.497691536591
 21
1612.571144758109
  0
LINE
  5
AB
100
AcDbEntity
  8
____
  6
CONTINUOUS
 62
           3
100
AcDbLine
 10
-569.497691536591
 20
1612.571144758109
 11
-569.497691536592
 21
1576.890460543778
  0
LINE
  5
AA
100
AcDbEntity
  8
____
  6
CONTINUOUS
 62
           3
100
AcDbLine
 10
-569.497691536592
 20
1576.890460543778
 11
-580.502308463369
 21
1576.890460543778
  0
LINE
  5
A9
100
AcDbEntity
  8
____
  6
CONTINUOUS
 62
           3
100
AcDbLine
 10
-580.404052955095
 20
1612.57114475811
 11
-580.404052955095
 21
1614.449075506232
  0
LINE
  5
A8
100
AcDbEntity
  8
____
  6
CONTINUOUS
 62
           3
100
AcDbLine
 10
-579.91277541372
 20
1614.918558193264
 11
-570.087224586231
 21
1614.918558193264
  0
LINE
  5
A7
100
AcDbEntity
  8
____
  6
CONTINUOUS
 62
           3
100
AcDbLine
 10
-569.595947044857
 20
1614.449075506232
 11
-569.595947044857
 21
1612.571144758109
  0
LINE
  5
A6
100
AcDbEntity
  8
___S__
  6
DOT_CENTER
 62
           3
100
AcDbLine
 10
-574.999999999976
 20
1621.052837286498
 11
-574.999999999977
 21
1536.05712705539
  0
LINE
  5
A5
100
AcDbEntity
  8
1
  6
CONTINUOUS
 62
           7
100
AcDbLine
 10
-575.0
 20
941.513526798368
 11
575.0
 21
941.513526798368
  0
LINE
  5
A4
100
AcDbEntity
  8
1
  6
CONTINUOUS
 62
           7
100
AcDbLine
 10
575.0
 20
941.513526798368
 11
575.0
 21
1646.282992387803
  0
LINE
  5
A3
100
AcDbEntity
  8
1
  6
CONTINUOUS
 62
           7
100
AcDbLine
 10
-575.0
 20
941.513526798368
 11
-575.0
 21
1646.282992387803
  0
LINE
  5
A2
100
AcDbEntity
  8
1
  6
CONTINUOUS
 62
           7
100
AcDbLine
 10
575.0
 20
1646.282992387803
 11
-575.0
 21
1646.282992387803
  0
LINE
  5
A1
100
AcDbEntity
  8
1
  6
CONTINUOUS
 62
           7
100
AcDbLine
 10
1000.000000000001
 20
1763.744569986044
 11
-999.999999999999
 21
1763.744569986044
  0
LINE
  5
A0
100
AcDbEntity
  8
1
  6
CONTINUOUS
 62
           7
100
AcDbLine
 10
1000.000000000001
 20
3664.668221991706
 11
1000.000000000001
 21
5644.668221991706
  0
LINE
  5
9F
100
AcDbEntity
  8
1
  6
CONTINUOUS
 62
           7
100
AcDbLine
 10
-1000.0
 20
3664.668221991706
 11
-1000.0
 21
5644.668221991706
  0
LINE
  5
9E
100
AcDbEntity
  8
1
  6
CONTINUOUS
 62
           7
100
AcDbLine
 10
-1050.0
 20
3664.668221991706
 11
1050.000000000001
 21
3664.668221991706
  0
LINE
  5
9D
100
AcDbEntity
  8
1
  6
CONTINUOUS
 62
           7
100
AcDbLine
 10
3110.67295518723
 20
2650.0
 11
3130.67295518723
 21
2650.0
  0
LINE
  5
9C
100
AcDbEntity
  8
1
  6
CONTINUOUS
 62
           7
100
AcDbLine
 10
3110.67295518723
 20
2550.0
 11
3110.67295518723
 21
2650.0
  0
LINE
  5
9B
100
AcDbEntity
  8
1
  6
CONTINUOUS
 62
           7
100
AcDbLine
 10
-1050.0
 20
2650.0
 11
1050.000000000001
 21
2650.0
  0
LINE
  5
9A
100
AcDbEntity
  8
1
  6
CONTINUOUS
 62
           7
100
AcDbLine
 10
-1050.0
 20
2500.0
 11
-1050.0
 21
2650.0
  0
LINE
  5
99
100
AcDbEntity
  8
1
  6
CONTINUOUS
 62
           7
100
AcDbLine
 10
3610.67295518723
 20
2500.0
 11
3110.67295518723
 21
2500.0
  0
LINE
  5
98
100
AcDbEntity
  8
1
  6
CONTINUOUS
 62
           7
100
AcDbLine
 10
3610.67295518723
 20
2550.0
 11
4110.672955187229
 21
2050.0
  0
LINE
  5
97
100
AcDbEntity
  8
1
  6
CONTINUOUS
 62
           7
100
AcDbLine
 10
4110.672955187229
 20
2050.0
 11
5110.672955187229
 21
2050.0
  0
LINE
  5
96
100
AcDbEntity
  8
1
  6
CONTINUOUS
 62
           4
100
AcDbLine
 10
4110.672955187229
 20
2003.0
 11
5110.672955187229
 21
2003.0
  0
LINE
  5
95
100
AcDbEntity
  8
1
  6
CONTINUOUS
 62
           4
100
AcDbLine
 10
4110.672955187229
 20
2040.0
 11
5110.672955187229
 21
2040.0
  0
LINE
  5
94
100
AcDbEntity
  8
1
  6
CONTINUOUS
 62
           7
100
AcDbLine
 10
1000.000000000001
 20
2000.0
 11
-1000.0
 21
2000.0
  0
LINE
  5
93
100
AcDbEntity
  8
1
  6
CONTINUOUS
 62
           4
100
AcDbLine
 10
1040.000000000001
 20
4644.668221991706
 11
1040.000000000001
 21
5644.668221991706
  0
LINE
  5
92
100
AcDbEntity
  8
1
  6
CONTINUOUS
 62
           4
100
AcDbLine
 10
-1040.0
 20
4144.668221991706
 11
-1040.0
 21
3664.668221991706
  0
LINE
  5
91
100
AcDbEntity
  8
1
  6
CONTINUOUS
 62
           4
100
AcDbLine
 10
-1002.999999999999
 20
4144.668221991706
 11
-1002.999999999999
 21
3664.668221991706
  0
LINE
  5
90
100
AcDbEntity
  8
1
  6
CONTINUOUS
 62
           4
100
AcDbLine
 10
1003.000000000001
 20
4144.668221991706
 11
1003.000000000001
 21
3664.668221991706
  0
LINE
  5
8F
100
AcDbEntity
  8
1
  6
CONTINUOUS
 62
           7
100
AcDbLine
 10
-1050.0
 20
4144.668221991706
 11
1050.000000000001
 21
4144.668221991706
  0
LINE
  5
8E
100
AcDbEntity
  8
1
  6
DOT_CENTER
 62
           2
100
AcDbLine
 10
0.0
 20
5799.935305996522
 11
0.0
 21
3519.348898239375
  0
LINE
  5
8D
100
AcDbEntity
  8
1
  6
CONTINUOUS
 62
           7
100
AcDbLine
 10
4110.672955187229
 20
2075.0
 11
5110.672955187229
 21
2075.0
  0
LINE
  5
8C
100
AcDbEntity
  8
1
  6
CONTINUOUS
 62
           7
100
AcDbLine
 10
-1050.0
 20
2500.0
 11
-1050.0
 21
0.0
  0
LINE
  5
8B
100
AcDbEntity
  8
1
  6
CONTINUOUS
 62
           7
100
AcDbLine
 10
3840.67295518723
 20
1589.999999999999
 11
3840.67295518723
 21
1350.0
  0
LINE
  5
8A
100
AcDbEntity
  8
1
  6
CONTINUOUS
 62
           7
100
AcDbLine
 10
3660.67295518723
 20
1589.999999999999
 11
3840.67295518723
 21
1589.999999999999
  0
LINE
  5
89
100
AcDbEntity
  8
1
  6
CONTINUOUS
 62
           7
100
AcDbLine
 10
3840.67295518723
 20
1350.0
 11
3660.67295518723
 21
1350.0
  0
LINE
  5
88
100
AcDbEntity
  8
1
  6
CONTINUOUS
 62
           7
100
AcDbLine
 10
3350.672955187229
 20
1950.0
 11
3160.672955187229
 21
1950.0
  0
LINE
  5
87
100
AcDbEntity
  8
1
  6
CONTINUOUS
 62
           7
100
AcDbLine
 10
3160.672955187229
 20
1950.0
 11
3160.672955187229
 21
1862.0
  0
LINE
  5
86
100
AcDbEntity
  8
1
  6
CONTINUOUS
 62
           7
100
AcDbLine
 10
3160.672955187229
 20
1862.0
 11
3350.672955187229
 21
1862.0
  0
LINE
  5
85
100
AcDbEntity
  8
1
  6
CONTINUOUS
 62
           7
100
AcDbLine
 10
3350.672955187229
 20
1862.0
 11
3350.672955187229
 21
1950.0
  0
LINE
  5
84
100
AcDbEntity
  8
1
  6
CONTINUOUS
 62
           4
100
AcDbLine
 10
-1040.0
 20
5644.668221991706
 11
-1040.0
 21
4644.668221991706
  0
LINE
  5
83
100
AcDbEntity
  8
1
  6
CONTINUOUS
 62
           4
100
AcDbLine
 10
3110.67295518723
 20
2540.0
 11
3610.67295518723
 21
2540.0
  0
LINE
  5
82
100
AcDbEntity
  8
1
  6
CONTINUOUS
 62
           7
100
AcDbLine
 10
5610.672955187229
 20
0.0
 11
2610.67295518723
 21
0.0
  0
LINE
  5
81
100
AcDbEntity
  8
1
  6
CONTINUOUS
 62
           4
100
AcDbLine
 10
-980.0
 20
4124.668221991706
 11
980.0
 21
4124.668221991706
  0
LINE
  5
80
100
AcDbEntity
  8
1
  6
CONTINUOUS
 62
           4
100
AcDbLine
 10
-1002.999999999999
 20
5644.668221991706
 11
-1002.999999999999
 21
4644.668221991706
  0
LINE
  5
7F
100
AcDbEntity
  8
1
  6
CONTINUOUS
 62
           4
100
AcDbLine
 10
980.0
 20
4664.668221991706
 11
520.0
 21
4664.668221991706
  0
LINE
  5
7E
100
AcDbEntity
  8
1
  6
CONTINUOUS
 62
           4
100
AcDbLine
 10
980.0
 20
5624.668221991706
 11
520.0
 21
5624.668221991706
  0
LINE
  5
7D
100
AcDbEntity
  8
1
  6
CONTINUOUS
 62
           4
100
AcDbLine
 10
1003.000000000001
 20
5644.668221991706
 11
1003.000000000001
 21
4644.668221991706
  0
LINE
  5
7C
100
AcDbEntity
  8
1
  6
CONTINUOUS
 62
           4
100
AcDbLine
 10
980.0
 20
4124.668221991706
 11
980.0
 21
3664.668221991706
  0
LINE
  5
7B
100
AcDbEntity
  8
1
  6
CONTINUOUS
 62
           4
100
AcDbLine
 10
980.0
 20
5624.668221991706
 11
980.0
 21
4664.668221991706
  0
LINE
  5
7A
100
AcDbEntity
  8
1
  6
CONTINUOUS
 62
           7
100
AcDbLine
 10
1050.000000000001
 20
3644.668221991706
 11
1050.000000000001
 21
5644.668221991706
  0
LINE
  5
79
100
AcDbEntity
  8
1
  6
DOT_CENTER
 62
           2
100
AcDbLine
 10
4410.672955187229
 20
675.0
 11
4410.672955187229
 21
525.0
  0
LINE
  5
78
100
AcDbEntity
  8
1
  6
DOT_CENTER
 62
           2
100
AcDbLine
 10
4335.672955187229
 20
600.0
 11
4485.672955187229
 21
600.0
  0
LINE
  5
77
100
AcDbEntity
  8
1
  6
DOT_CENTER
 62
           2
100
AcDbLine
 10
0.0
 20
3000.668407282447
 11
0.0
 21
-130.0
  0
LINE
  5
76
100
AcDbEntity
  8
1
  6
CONTINUOUS
 62
           7
100
AcDbLine
 10
-1000.0
 20
500.0
 11
-985.0
 21
500.0
  0
LINE
  5
75
100
AcDbEntity
  8
1
  6
CONTINUOUS
 62
           7
100
AcDbLine
 10
985.0
 20
500.0
 11
1000.000000000001
 21
500.0
  0
LINE
  5
74
100
AcDbEntity
  8
1
  6
CONTINUOUS
 62
           7
100
AcDbLine
 10
-1000.0
 20
800.0
 11
1000.000000000001
 21
800.0
  0
LINE
  5
73
100
AcDbEntity
  8
1
  6
CONTINUOUS
 62
           7
100
AcDbLine
 10
-1000.0
 20
513.85332266763
 11
-1000.0
 21
572.607085651512
  0
LINE
  5
72
100
AcDbEntity
  8
1
  6
CONTINUOUS
 62
           7
100
AcDbLine
 10
985.0
 20
540.0
 11
985.0
 21
475.000000000001
  0
LINE
  5
71
100
AcDbEntity
  8
1
  6
CONTINUOUS
 62
           7
100
AcDbLine
 10
-1000.0
 20
400.0
 11
1000.000000000001
 21
400.0
  0
LINE
  5
70
100
AcDbEntity
  8
1
  6
CONTINUOUS
 62
           7
100
AcDbLine
 10
1000.000000000001
 20
50.0
 11
-1000.0
 21
50.0
  0
LINE
  5
6F
100
AcDbEntity
  8
1
  6
CONTINUOUS
 62
           7
100
AcDbLine
 10
1000.000000000001
 20
1900.0
 11
-1000.0
 21
1900.0
  0
LINE
  5
6E
100
AcDbEntity
  8
1
  6
CONTINUOUS
 62
           7
100
AcDbLine
 10
1000.000000000001
 20
0.0
 11
1000.000000000001
 21
2500.0
  0
LINE
  5
6D
100
AcDbEntity
  8
1
  6
CONTINUOUS
 62
           7
100
AcDbLine
 10
-1000.0
 20
0.0
 11
-1000.0
 21
2500.0
  0
LINE
  5
6C
100
AcDbEntity
  8
1
  6
CONTINUOUS
 62
           7
100
AcDbLine
 10
4110.672955187229
 20
2000.0
 11
4110.672955187229
 21
2075.0
  0
LINE
  5
6B
100
AcDbEntity
  8
1
  6
CONTINUOUS
 62
           7
100
AcDbLine
 10
3110.67295518723
 20
2550.0
 11
3610.67295518723
 21
2550.0
  0
LINE
  5
6A
100
AcDbEntity
  8
1
  6
CONTINUOUS
 62
           4
100
AcDbLine
 10
3110.67295518723
 20
2503.0
 11
3610.67295518723
 21
2503.000000000001
  0
LINE
  5
69
100
AcDbEntity
  8
1
  6
CONTINUOUS
 62
           7
100
AcDbLine
 10
5110.672955187229
 20
2000.0
 11
3610.67295518723
 21
2000.0
  0
LINE
  5
68
100
AcDbEntity
  8
1
  6
CONTINUOUS
 62
           7
100
AcDbLine
 10
5110.672955187229
 20
0.0
 11
5110.672955187229
 21
2075.0
  0
LINE
  5
67
100
AcDbEntity
  8
1
  6
CONTINUOUS
 62
           7
100
AcDbLine
 10
3110.67295518723
 20
0.0
 11
3110.67295518723
 21
2550.0
  0
LINE
  5
66
100
AcDbEntity
  8
1
  6
CONTINUOUS
 62
           7
100
AcDbLine
 10
1050.000000000001
 20
2500.0
 11
-1050.0
 21
2500.0
  0
LINE
  5
65
100
AcDbEntity
  8
1
  6
CONTINUOUS
 62
           7
100
AcDbLine
 10
1050.000000000001
 20
0.0
 11
1050.000000000001
 21
2650.0
  0
LINE
  5
64
100
AcDbEntity
  8
1
  6
CONTINUOUS
 62
           7
100
AcDbLine
 10
1050.000000000001
 20
5644.668221991706
 11
4.041451884329
 21
5644.668221991706
  0
LINE
  5
63
100
AcDbEntity
  8
1
  6
CONTINUOUS
 62
           4
100
AcDbLine
 10
-980.0
 20
4664.668221991706
 11
-980.0
 21
5624.668221991706
  0
LINE
  5
62
100
AcDbEntity
  8
1
  6
CONTINUOUS
 62
           4
100
AcDbLine
 10
-980.0
 20
4664.668221991706
 11
-520.0
 21
4664.668221991706
  0
LINE
  5
61
100
AcDbEntity
  8
1
  6
CONTINUOUS
 62
           4
100
AcDbLine
 10
-980.0
 20
4124.668221991706
 11
-980.0
 21
3664.668221991706
  0
LINE
  5
60
100
AcDbEntity
  8
1
  6
CONTINUOUS
 62
           7
100
AcDbLine
 10
-1050.0
 20
4644.668221991706
 11
1050.000000000001
 21
4644.668221991706
  0
LINE
  5
5F
100
AcDbEntity
  8
1
  6
CONTINUOUS
 62
           7
100
AcDbLine
 10
-1050.0
 20
5644.668221991706
 11
-1050.0
 21
3644.668221991706
  0
LINE
  5
5E
100
AcDbEntity
  8
1
  6
CONTINUOUS
 62
           7
100
AcDbLine
 10
-1050.0
 20
3644.668221991706
 11
1050.000000000001
 21
3644.668221991706
  0
LINE
  5
5D
100
AcDbEntity
  8
1
  6
CONTINUOUS
 62
           4
100
AcDbLine
 10
3130.67295518723
 20
20.0
 11
3590.672955187229
 21
20.0
  0
LINE
  5
5C
100
AcDbEntity
  8
1
  6
CONTINUOUS
 62
           4
100
AcDbLine
 10
3590.672955187229
 20
20.0
 11
3590.672955187229
 21
2480.0
  0
LINE
  5
5B
100
AcDbEntity
  8
1
  6
CONTINUOUS
 62
           4
100
AcDbLine
 10
3590.672955187229
 20
2480.0
 11
3130.67295518723
 21
2480.0
  0
LINE
  5
5A
100
AcDbEntity
  8
1
  6
CONTINUOUS
 62
           4
100
AcDbLine
 10
3130.67295518723
 20
2480.0
 11
3130.67295518723
 21
20.0
  0
LINE
  5
59
100
AcDbEntity
  8
1
  6
CONTINUOUS
 62
           7
100
AcDbLine
 10
3610.67295518723
 20
0.0
 11
3610.67295518723
 21
2550.0
  0
LINE
  5
58
100
AcDbEntity
  8
1
  6
CONTINUOUS
 62
           7
100
AcDbLine
 10
3610.672955187229
 20
500.0
 11
5110.672955187229
 21
500.0
  0
LINE
  5
57
100
AcDbEntity
  8
1
  6
CONTINUOUS
 62
           4
100
AcDbLine
 10
5090.106280491791
 20
479.385061529882
 11
3630.672955187229
 21
479.385061529882
  0
LINE
  5
56
100
AcDbEntity
  8
1
  6
CONTINUOUS
 62
           4
100
AcDbLine
 10
3630.672955187229
 20
479.385061529882
 11
3630.67295518723
 21
20.0
  0
LINE
  5
55
100
AcDbEntity
  8
1
  6
CONTINUOUS
 62
           4
100
AcDbLine
 10
3630.67295518723
 20
20.0
 11
5090.106280491791
 21
20.0
  0
LINE
  5
54
100
AcDbEntity
  8
1
  6
CONTINUOUS
 62
           4
100
AcDbLine
 10
5090.106280491791
 20
20.0
 11
5090.106280491791
 21
479.385061529882
  0
LINE
  5
53
100
AcDbEntity
  8
1
  6
CONTINUOUS
 62
           4
100
AcDbLine
 10
4090.672955187229
 20
1980.0
 11
3630.672955187229
 21
1980.0
  0
LINE
  5
52
100
AcDbEntity
  8
1
  6
CONTINUOUS
 62
           4
100
AcDbLine
 10
3630.672955187229
 20
1980.0
 11
3630.672955187229
 21
520.0
  0
LINE
  5
51
100
AcDbEntity
  8
1
  6
CONTINUOUS
 62
           4
100
AcDbLine
 10
3630.672955187229
 20
520.0
 11
4090.672955187229
 21
520.0
  0
LINE
  5
50
100
AcDbEntity
  8
1
  6
CONTINUOUS
 62
           4
100
AcDbLine
 10
4130.672955187229
 20
520.0
 11
5090.672955187229
 21
520.0
  0
LINE
  5
4F
100
AcDbEntity
  8
1
  6
CONTINUOUS
 62
           4
100
AcDbLine
 10
5090.672955187229
 20
520.0
 11
5090.672955187229
 21
1980.0
  0
LINE
  5
4E
100
AcDbEntity
  8
1
  6
CONTINUOUS
 62
           4
100
AcDbLine
 10
5090.672955187229
 20
1980.0
 11
4130.672955187229
 21
1980.0
  0
LINE
  5
4D
100
AcDbEntity
  8
1
  6
CONTINUOUS
 62
           7
100
AcDbLine
 10
-1000.0
 20
475.000000000001
 11
1000.000000000001
 21
475.000000000001
  0
LINE
  5
4C
100
AcDbEntity
  8
1
  6
CONTINUOUS
 62
           7
100
AcDbLine
 10
-985.0
 20
475.000000000001
 11
-984.999999999999
 21
540.0
  0
LINE
  5
4B
100
AcDbEntity
  8
1
  6
CONTINUOUS
 62
           7
100
AcDbLine
 10
985.0
 20
540.0
 11
-984.999999999999
 21
540.0
  0
LINE
  5
4A
100
AcDbEntity
  8
1
  6
CONTINUOUS
 62
           4
100
AcDbLine
 10
520.0
 20
5624.668221991706
 11
520.0
 21
4664.668221991706
  0
LINE
  5
49
100
AcDbEntity
  8
1
  6
CONTINUOUS
 62
           7
100
AcDbLine
 10
500.0
 20
4644.668221991706
 11
500.0
 21
5644.668221991706
  0
LINE
  5
48
100
AcDbEntity
  8
1
  6
CONTINUOUS
 62
           4
100
AcDbLine
 10
-520.0
 20
4664.668221991706
 11
-520.0
 21
5057.281884454651
  0
LINE
  5
47
100
AcDbEntity
  8
1
  6
CONTINUOUS
 62
           7
100
AcDbLine
 10
-500.0
 20
4644.668221991706
 11
-500.0
 21
5021.825509517088
  0
LINE
  5
46
100
AcDbEntity
  8
1
  6
CONTINUOUS
 62
           7
100
AcDbLine
 10
1550.000000000001
 20
0.0
 11
-1500.0
 21
0.0
  0
LINE
  5
45
100
AcDbEntity
  8
1
  6
DOT_CENTER
 62
           2
100
AcDbLine
 10
500.0
 20
5254.668221991706
 11
-604.888003224811
 21
5254.668221991706
  0
LINE
  5
44
100
AcDbEntity
  8
1
  6
CONTINUOUS
 62
           7
100
AcDbLine
 10
-569.999999999999
 20
5644.668221991706
 11
-1050.0
 21
5644.668221991706
  0
LINE
  5
43
100
AcDbEntity
  8
1
  6
CONTINUOUS
 62
           4
100
AcDbLine
 10
-580.0
 20
5624.668221991706
 11
-980.0
 21
5624.668221991706
  0
LINE
  5
42
100
AcDbEntity
  8
1
  6
CONTINUOUS
 62
           7
100
AcDbLine
 10
3512.67295518723
 20
1219.750000000003
 11
3590.672955187227
 21
1219.750000000003
  0
LINE
  5
41
100
AcDbEntity
  8
1
  6
CONTINUOUS
 62
           7
100
AcDbLine
 10
3512.67295518723
 20
1239.750000000003
 11
3590.672955187227
 21
1239.750000000003
  0
LINE
  5
40
100
AcDbEntity
  8
1
  6
CONTINUOUS
 62
           7
100
AcDbLine
 10
3475.67295518723
 20
1270.000000000003
 11
3475.67295518723
 21
1256.750000000003
  0
LINE
  5
3F
100
AcDbEntity
  8
1
  6
CONTINUOUS
 62
           7
100
AcDbLine
 10
3473.17295518723
 20
1270.000000000003
 11
3498.17295518723
 21
1270.000000000003
  0
LINE
  5
3E
100
AcDbEntity
  8
1
  6
CONTINUOUS
 62
           7
100
AcDbLine
 10
3498.17295518723
 20
1300.000000000003
 11
3498.17295518723
 21
1270.000000000003
  0
LINE
  5
3D
100
AcDbEntity
  8
1
  6
CONTINUOUS
 62
           7
100
AcDbLine
 10
3473.17295518723
 20
1300.000000000003
 11
3473.17295518723
 21
1270.000000000003
  0
LINE
  5
3C
100
AcDbEntity
  8
1
  6
CONTINUOUS
 62
           7
100
AcDbLine
 10
3495.67295518723
 20
1256.750000000003
 11
3495.67295518723
 21
1270.000000000003
  0
LINE
  5
3B
100
AcDbEntity
  8
1
  6
CONTINUOUS
 62
           7
100
AcDbLine
 10
3660.672955187233
 20
1349.999999999999
 11
3660.672955187233
 21
1589.999999999999
  0
LINE
  5
3A
100
AcDbEntity
  8
1
  6
CONTINUOUS
 62
           4
100
AcDbLine
 10
1040.000000000001
 20
4144.668221991706
 11
1040.000000000001
 21
3664.668221991706
  0
LINE
  5
39
100
AcDbEntity
  8
1
  6
CONTINUOUS
 62
           7
100
AcDbLine
 10
3360.67295518723
 20
1300.000000000003
 11
3560.67295518723
 21
1300.000000000003
  0
LINE
  5
38
100
AcDbEntity
  8
1
  6
CONTINUOUS
 62
           7
100
AcDbLine
 10
3560.67295518723
 20
1300.000000000003
 11
3560.67295518723
 21
1700.000000000002
  0
LINE
  5
37
100
AcDbEntity
  8
1
  6
CONTINUOUS
 62
           7
100
AcDbLine
 10
3560.67295518723
 20
1700.000000000002
 11
3360.67295518723
 21
1700.000000000002
  0
LINE
  5
36
100
AcDbEntity
  8
1
  6
CONTINUOUS
 62
           7
100
AcDbLine
 10
3360.67295518723
 20
1700.000000000002
 11
3360.67295518723
 21
1300.000000000003
  0
LINE
  5
35
100
AcDbEntity
  8
1
  6
CONTINUOUS
 62
           4
100
AcDbLine
 10
3560.67295518723
 20
1300.000000000003
 11
3590.672955187229
 21
1300.000000000003
  0
LINE
  5
34
100
AcDbEntity
  8
1
  6
CONTINUOUS
 62
           4
100
AcDbLine
 10
3560.67295518723
 20
1700.000000000002
 11
3590.672955187229
 21
1700.000000000002
  0
LINE
  5
33
100
AcDbEntity
  8
1
  6
CONTINUOUS
 62
           7
100
AcDbLine
 10
1050.000000000001
 20
1700.000000000002
 11
1210.000000000001
 21
1700.000000000002
  0
LINE
  5
32
100
AcDbEntity
  8
1
  6
CONTINUOUS
 62
           7
100
AcDbLine
 10
1210.000000000001
 20
1700.000000000002
 11
1210.000000000001
 21
1300.000000000003
  0
LINE
  5
31
100
AcDbEntity
  8
1
  6
CONTINUOUS
 62
           7
100
AcDbLine
 10
1210.000000000001
 20
1300.000000000003
 11
1050.000000000001
 21
1300.000000000003
  0
LINE
  5
30
100
AcDbEntity
  8
1
  6
CONTINUOUS
 62
           7
100
AcDbLine
 10
1050.000000000001
 20
4094.668221991705
 11
1210.000000000001
 21
4094.668221991705
  0
LINE
  5
2F
100
AcDbEntity
  8
1
  6
CONTINUOUS
 62
           7
100
AcDbLine
 10
1210.000000000001
 20
4094.668221991705
 11
1210.000000000001
 21
3894.668221991705
  0
LINE
  5
2E
100
AcDbEntity
  8
1
  6
CONTINUOUS
 62
           7
100
AcDbLine
 10
1210.000000000001
 20
3894.668221991705
 11
1050.000000000001
 21
3894.668221991705
  0
POINT
  5
2D
100
AcDbEntity
  8
0
 62
           3
100
AcDbPoint
 10
3944.072951908965
 20
1365.000000000117
  0
ENDSEC
  0
SECTION
  2
OBJECTS
  0
DICTIONARY
  5
19
100
AcDbDictionary
  3
ACAD_GROUP
350
1A
  3
ACAD_MLINESTYLE
350
1B
  0
DICTIONARY
  5
1A
102
{ACAD_REACTORS
330
19
102
}
100
AcDbDictionary
  0
DICTIONARY
  5
1B
102
{ACAD_REACTORS
330
19
102
}
100
AcDbDictionary
  3
STANDARD
350
1C
  0
MLINESTYLE
  5
1C
102
{ACAD_REACTORS
330
1B
102
}
100
AcDbMlineStyle
  2
STANDARD
 70
           0
  3

 62
           0
 51
90.0
 52
90.0
 71
           2
 49
0.5
 62
         256
  6
BYLAYER
 49
-0.5
 62
         256
  6
BYLAYER
  0
ENDSEC
  0
EOF
