  0
SECTION
  2
HEADER
  9
$ACADVER
  1
AC1014
  9
$ACADMAINTVER
 70
           0
  9
$DWGCODEPAGE
  3
DOS932
  9
$INSBASE
 10
0.0
 20
0.0
 30
0.0
  9
$EXTMIN
 10
1.000000000000E+20
 20
1.000000000000E+20
 30
1.000000000000E+20
  9
$EXTMAX
 10
-1.000000000000E+20
 20
-1.000000000000E+20
 30
-1.000000000000E+20
  9
$LIMMIN
 10
0.0
 20
0.0
  9
$LIMMAX
 10
0.0
 20
0.0
  9
$ORTHOMODE
 70
           0
  9
$REGENMODE
 70
           1
  9
$FILLMODE
 70
           1
  9
$QTEXTMODE
 70
           0
  9
$MIRRTEXT
 70
           1
  9
$DRAGMODE
 70
           2
  9
$LTSCALE
 40
1.0
  9
$OSMODE
 70
           0
  9
$ATTMODE
 70
           1
  9
$TEXTSIZE
 40
0.2
  9
$TRACEWID
 40
0.05
  9
$TEXTSTYLE
  7
STANDARD
  9
$CLAYER
  8
0
  9
$CELTYPE
  6
CONTINUOUS
  9
$CECOLOR
 62
         256
  9
$CELTSCALE
 40
1.0
  9
$DELOBJ
 70
           1
  9
$DISPSILH
 70
           0
  9
$DIMSCALE
 40
1.0
  9
$DIMASZ
 40
0.18
  9
$DIMEXO
 40
0.0625
  9
$DIMDLI
 40
0.38
  9
$DIMRND
 40
0.0
  9
$DIMDLE
 40
0.0
  9
$DIMEXE
 40
0.18
  9
$DIMTP
 40
0.0
  9
$DIMTM
 40
0.0
  9
$DIMTXT
 40
0.18
  9
$DIMCEN
 40
0.09
  9
$DIMTSZ
 40
0.0
  9
$DIMTOL
 70
           0
  9
$DIMLIM
 70
           0
  9
$DIMTIH
 70
           1
  9
$DIMTOH
 70
           1
  9
$DIMSE1
 70
           0
  9
$DIMSE2
 70
           0
  9
$DIMTAD
 70
           0
  9
$DIMZIN
 70
           0
  9
$DIMBLK
  1

  9
$DIMASO
 70
           1
  9
$DIMSHO
 70
           1
  9
$DIMPOST
  1

  9
$DIMAPOST
  1

  9
$DIMALT
 70
           0
  9
$DIMALTD
 70
           2
  9
$DIMALTF
 40
25.4
  9
$DIMLFAC
 40
1.0
  9
$DIMTOFL
 70
           0
  9
$DIMTVP
 40
0.0
  9
$DIMTIX
 70
           0
  9
$DIMSOXD
 70
           0
  9
$DIMSAH
 70
           0
  9
$DIMBLK1
  1

  9
$DIMBLK2
  1

  9
$DIMSTYLE
  2
STANDARD
  9
$DIMCLRD
 70
           0
  9
$DIMCLRE
 70
           0
  9
$DIMCLRT
 70
           0
  9
$DIMTFAC
 40
1.0
  9
$DIMGAP
 40
0.09
  9
$DIMJUST
 70
           0
  9
$DIMSD1
 70
           0
  9
$DIMSD2
 70
           0
  9
$DIMTOLJ
 70
           1
  9
$DIMTZIN
 70
           0
  9
$DIMALTZ
 70
           0
  9
$DIMALTTZ
 70
           0
  9
$DIMFIT
 70
           3
  9
$DIMUPT
 70
           0
  9
$DIMUNIT
 70
           2
  9
$DIMDEC
 70
           4
  9
$DIMTDEC
 70
           4
  9
$DIMALTU
 70
           2
  9
$DIMALTTD
 70
           2
  9
$DIMTXSTY
  7
STANDARD
  9
$DIMAUNIT
 70
           0
  9
$LUNITS
 70
           2
  9
$LUPREC
 70
           4
  9
$SKETCHINC
 40
0.1
  9
$FILLETRAD
 40
0.0
  9
$AUNITS
 70
           0
  9
$AUPREC
 70
           0
  9
$MENU
  1
acad
  9
$ELEVATION
 40
0.0
  9
$PELEVATION
 40
0.0
  9
$THICKNESS
 40
0.0
  9
$LIMCHECK
 70
           0
  9
$BLIPMODE
 70
           1
  9
$CHAMFERA
 40
0.0
  9
$CHAMFERB
 40
0.0
  9
$CHAMFERC
 40
0.0
  9
$CHAMFERD
 40
0.0
  9
$SKPOLY
 70
           0
  9
$TDCREATE
 40
0.000000000
  9
$TDUPDATE
 40
0.000000000
  9
$TDINDWG
 40
0.0000000000
  9
$TDUSRTIMER
 40
0.0000000000
  9
$USRTIMER
 70
           1
  9
$ANGBASE
 50
0.0
  9
$ANGDIR
 70
           0
  9
$PDMODE
 70
           0
  9
$PDSIZE
 40
0.0
  9
$PLINEWID
 40
0.0
  9
$COORDS
 70
           0
  9
$SPLFRAME
 70
           0
  9
$SPLINETYPE
 70
           6
  9
$SPLINESEGS
 70
           8
  9
$ATTDIA
 70
           0
  9
$ATTREQ
 70
           1
  9
$HANDLING
 70
           1
  9
$HANDSEED
  5
4D1
  9
$SURFTAB1
 70
           6
  9
$SURFTAB2
 70
           6
  9
$SURFTYPE
 70
           6
  9
$SURFU
 70
           6
  9
$SURFV
 70
           6
  9
$UCSNAME
  2

  9
$UCSORG
 10
0.0
 20
0.0
 30
0.0
  9
$UCSXDIR
 10
1.0
 20
0.0
 30
0.0
  9
$UCSYDIR
 10
0.0
 20
1.0
 30
0.0
  9
$PUCSNAME
  2

  9
$PUCSORG
 10
0.0
 20
0.0
 30
0.0
  9
$PUCSXDIR
 10
1.0
 20
0.0
 30
0.0
  9
$PUCSYDIR
 10
0.0
 20
1.0
 30
0.0
  9
$USERI1
 70
           0
  9
$USERI2
 70
           0
  9
$USERI3
 70
           0
  9
$USERI4
 70
           0
  9
$USERI5
 70
           0
  9
$USERR1
 40
0.0
  9
$USERR2
 40
0.0
  9
$USERR3
 40
0.0
  9
$USERR4
 40
0.0
  9
$USERR5
 40
0.0
  9
$WORLDVIEW
 70
           1
  9
$SHADEDGE
 70
           3
  9
$SHADEDIF
 70
          70
  9
$TILEMODE
 70
           1
  9
$MAXACTVP
 70
          16
  9
$PINSBASE
 10
0.0
 20
0.0
 30
0.0
  9
$PLIMCHECK
 70
           0
  9
$PEXTMIN
 10
1.000000000000E+20
 20
1.000000000000E+20
 30
1.000000000000E+20
  9
$PEXTMAX
 10
-1.000000000000E+20
 20
-1.000000000000E+20
 30
-1.000000000000E+20
  9
$PLIMMIN
 10
0.0
 20
0.0
  9
$PLIMMAX
 10
12.0
 20
9.0
  9
$UNITMODE
 70
           0
  9
$VISRETAIN
 70
           0
  9
$PLINEGEN
 70
           1
  9
$PSLTSCALE
 70
           0
  9
$TREEDEPTH
 70
        3020
  9
$PICKSTYLE
 70
           1
  9
$CMLSTYLE
  2
STANDARD
  9
$CMLJUST
 70
           0
  9
$CMLSCALE
 40
1.0
  9
$PROXYGRAPHICS
 70
           0
  9
$MEASUREMENT
 70
           0
  0
ENDSEC
  0
SECTION
  2
CLASSES
  0
CLASS
  1
LWPOLYLINE
  2
AcDbPolyline
  3
"AutoCAD"
 90
        0
280
           0
281
           1
  0
CLASS
  1
IMAGE
  2
AcDbRasterImage
  3
ISM
 90
      127
280
           0
281
           1
  0
CLASS
  1
OLE2FRAME
  2
AcDbOle2Frame
  3
""
 90
        0
280
           0
281
           1
  0
CLASS
  1
HATCH
  2
AcDbHatch
  3
"ACAD_SEDONA"
 90
        0
280
           0
281
           1
  0
CLASS
  1
DICTIONARYVAR
  2
AcDbDictionaryVar
  3
"AutoCAD"
 90
        0
280
           0
281
           0
  0
CLASS
  1
RASTERVARIABLES
  2
AcDbRasterVariables
  3
ISM
 90
        0
280
           0
281
           0
  0
CLASS
  1
IMAGEDEF
  2
AcDbRasterImageDef
  3
ISM
 90
        0
280
           0
281
           0
  0
CLASS
  1
IMAGEDEF_REACTOR
  2
AcDbRasterImageDefReactor
  3
ISM
 90
        1
280
           0
281
           0
  0
CLASS
  1
IDBUFFER
  2
AcDbIdBuffer
  3
"Acad"
 90
        0
280
           0
281
           0
  0
CLASS
  1
SPATIAL_FILTER
  2
AcDbSpatialFilter
  3
"Acad"
 90
        0
280
           0
281
           0
  0
CLASS
  1
XRECORD
  2
AcDbXrecord
  3
"<Built In>"
 90
        0
280
           0
281
           0
  0
CLASS
  1
SORTENTSTABLE
  2
AcDbSortentsTable
  3
"AutoCAD"
 90
        0
280
           0
281
           0
  0
CLASS
  1
LAYER_INDEX
  2
AcDbLayerIndex
  3
"Acad"
 90
        0
280
           0
281
           0
  0
CLASS
  1
SPATIAL_INDEX
  2
AcDbSpatialIndex
  3
"Acad"
 90
        0
280
           0
281
           0
  0
CLASS
  1
OBJECT_PTR
  2
CAseDLPNTableRecord
  3
"ASE-LPNTableRecord"
 90
        1
280
           0
281
           0
  0
CLASS
  1
LAYOUT
  2
AcDbLayout
  3
"AutoCAD 2000"
 90
        1
280
           0
281
           0
  0
CLASS
  1
PLOTSETTINGS
  2
AcDbPlotSettings
  3
"AutoCAD 2000"
 90
        1
280
           0
281
           0
  0
CLASS
  1
ACDBDICTIONARYWDFLT
  2
AcDbDictionaryWithDefault
  3
"AutoCAD 2000"
 90
        1
280
           0
281
           0
  0
CLASS
  1
ACDBPLACEHOLDER
  2
AcDbPlaceHolder
  3
"AutoCAD 2000"
 90
        1
280
           0
281
           0
  0
CLASS
  1
VBA_PROJECT
  2
AcDbVbaProject
  3
"acadvba"
 90
        1
280
           0
281
           0
  0
CLASS
  1
WIPEOUT
  2
AcDbWipeout
  3
WipeOut|AutoCAD Express Tool|expresstools@autodesk.com
 90
      127
280
           0
281
           1
  0
CLASS
  1
WIPEOUTVARIABLES
  2
AcDbWipeoutVariables
  3
WipeOut|AutoCAD Express Tool|expresstools@autodesk.com
 90
        0
280
           0
281
           0
  0
CLASS
  1
RTEXT
  2
RText
  3
RText|AutoCAD Express Tool|expresstools@autodesk.com
 90
        0
280
           0
281
           1
  0
CLASS
  1
ARCALIGNEDTEXT
  2
AcDbArcAlignedText
  3
ATEXT|AutoCAD Express Tool|expresstools@autodesk.com
 90
        0
280
           0
281
           1
  0
ENDSEC
  0
SECTION
  2
TABLES
  0
TABLE
  2
VPORT
  5
7
100
AcDbSymbolTable
 70
           1
  0
VPORT
  5
15
100
AcDbSymbolTableRecord
100
AcDbViewportTableRecord
  2
*ACTIVE
 70
           0
 10
0.0
 20
0.0
 11
1.0
 21
1.0
 12
6.591288
 22
4.579184
 13
0.0
 23
0.0
 14
1.0
 24
1.0
 15
0.0
 25
0.0
 16
0.0
 26
0.0
 36
1.0
 17
0.0
 27
0.0
 37
0.0
 40
9.158369
 41
0.688564
 42
50.0
 43
0.0
 44
0.0
 50
0.0
 51
0.0
 71
           0
 72
         100
 73
           1
 74
           1
 75
           0
 76
           0
 77
           0
 78
           0
  0
ENDTAB
  0
TABLE
  2
LTYPE
  5
4
100
AcDbSymbolTable
 70
          10
  0
LTYPE
  5
11
100
AcDbSymbolTableRecord
100
AcDbLinetypeTableRecord
  2
BYBLOCK
 70
          64
  3

 72
          65
 73
           0
 40
0.0
  0
LTYPE
  5
12
100
AcDbSymbolTableRecord
100
AcDbLinetypeTableRecord
  2
BYLAYER
 70
          64
  3

 72
          65
 73
           0
 40
0.0
  0
LTYPE
  5
13
100
AcDbSymbolTableRecord
100
AcDbLinetypeTableRecord
  2
CONTINUOUS
 70
          64
  3
Solid line
 72
          65
 73
           0
 40
0.0
  0
LTYPE
  5
1D
100
AcDbSymbolTableRecord
100
AcDbLinetypeTableRecord
  2
DASHED
 70
          64
  3
Dashed
 72
          65
 73
           2
 40
15.0
 49
12.0
 74
           0
 49
-3.0
 74
           0
  0
LTYPE
  5
1E
100
AcDbSymbolTableRecord
100
AcDbLinetypeTableRecord
  2
DOTTED
 70
          64
  3
Dotted
 72
          65
 73
           2
 40
3.5
 49
0.5
 74
           0
 49
-3.0
 74
           0
  0
LTYPE
  5
1F
100
AcDbSymbolTableRecord
100
AcDbLinetypeTableRecord
  2
DOT_CENTER
 70
          64
  3
Dot_Center
 72
          65
 73
           4
 40
2.0
 49
1.25
 74
           0
 49
-0.25
 74
           0
 49
0.25
 74
           0
 49
-0.25
 74
           0
  0
LTYPE
  5
20
100
AcDbSymbolTableRecord
100
AcDbLinetypeTableRecord
  2
LONG_DASHED
 70
          64
  3
Long_Dashed
 72
          65
 73
           2
 40
2.0
 49
1.5
 74
           0
 49
-0.5
 74
           0
  0
LTYPE
  5
21
100
AcDbSymbolTableRecord
100
AcDbLinetypeTableRecord
  2
DASH_CENTER
 70
          64
  3
Dash_Center
 72
          65
 73
           4
 40
36.0
 49
24.0
 74
           0
 49
-3.0
 74
           0
 49
6.0
 74
           0
 49
-3.0
 74
           0
  0
LTYPE
  5
22
100
AcDbSymbolTableRecord
100
AcDbLinetypeTableRecord
  2
PHANTOM
 70
          64
  3
Phantom
 72
          65
 73
           6
 40
2.5
 49
1.25
 74
           0
 49
-0.25
 74
           0
 49
0.25
 74
           0
 49
-0.25
 74
           0
 49
0.25
 74
           0
 49
-0.25
 74
           0
  0
LTYPE
  5
23
100
AcDbSymbolTableRecord
100
AcDbLinetypeTableRecord
  2
CENTER_DASH_DASH
 70
          64
  3
Center_Dash_Dash
 72
          65
 73
           6
 40
22.0
 49
12.0
 74
           0
 49
-3.0
 74
           0
 49
0.5
 74
           0
 49
-3.0
 74
           0
 49
0.5
 74
           0
 49
-3.0
 74
           0
  0
ENDTAB
  0
TABLE
  2
LAYER
  5
2
100
AcDbSymbolTable
 70
           8
  0
LAYER
  5
14
100
AcDbSymbolTableRecord
100
AcDbLayerTableRecord
  2
0
 70
           0
 62
           7
  6
CONTINUOUS
  0
LAYER
  5
24
100
AcDbSymbolTableRecord
100
AcDbLayerTableRecord
  2
___S__
 70
           0
 62
           7
  6
CONTINUOUS
  0
LAYER
  5
25
100
AcDbSymbolTableRecord
100
AcDbLayerTableRecord
  2
976
 70
           0
 62
           7
  6
CONTINUOUS
  0
LAYER
  5
26
100
AcDbSymbolTableRecord
100
AcDbLayerTableRecord
  2
FORMAT
 70
           0
 62
           7
  6
CONTINUOUS
  0
LAYER
  5
27
100
AcDbSymbolTableRecord
100
AcDbLayerTableRecord
  2
1
 70
           0
 62
           7
  6
CONTINUOUS
  0
LAYER
  5
28
100
AcDbSymbolTableRecord
100
AcDbLayerTableRecord
  2
2
 70
           0
 62
           7
  6
CONTINUOUS
  0
LAYER
  5
29
100
AcDbSymbolTableRecord
100
AcDbLayerTableRecord
  2
7
 70
           0
 62
           7
  6
CONTINUOUS
  0
LAYER
  5
2A
100
AcDbSymbolTableRecord
100
AcDbLayerTableRecord
  2
____
 70
           0
 62
           7
  6
CONTINUOUS
  0
ENDTAB
  0
TABLE
  2
STYLE
  5
3
100
AcDbSymbolTable
 70
           1
  0
STYLE
  5
17
100
AcDbSymbolTableRecord
100
AcDbTextStyleTableRecord
  2
STANDARD
 70
           0
 40
0.0
 41
1.0
 50
0.0
 71
           0
 42
0.0
  3
txt
  4

  0
ENDTAB
  0
TABLE
  2
VIEW
  5
5
100
AcDbSymbolTable
 70
           0
  0
ENDTAB
  0
TABLE
  2
UCS
  5
6
100
AcDbSymbolTable
 70
           0
  0
ENDTAB
  0
TABLE
  2
APPID
  5
8
100
AcDbSymbolTable
 70
           1
  0
APPID
  5
16
100
AcDbSymbolTableRecord
100
AcDbRegAppTableRecord
  2
ACAD
 70
           0
  0
ENDTAB
  0
TABLE
  2
DIMSTYLE
  5
9
100
AcDbSymbolTable
 70
           1
  0
DIMSTYLE
105
18
100
AcDbSymbolTableRecord
100
AcDbDimStyleTableRecord
  2
STANDARD
 70
           0
  3

  4

  5

  6

  7

 40
1.0
 41
0.18
 42
0.0625
 43
0.38
 44
0.18
 45
0.0
 46
0.0
 47
0.0
 48
0.0
 71
           0
 72
           0
 73
           1
 74
           1
 75
           0
 76
           0
 77
           0
 78
           0
140
0.18
141
0.09
142
0.0
143
25.4
144
1.0
145
0.0
146
1.0
147
0.09
170
           0
171
           2
172
           0
173
           0
174
           0
175
           0
176
           0
177
           0
178
           0
270
           2
271
           4
272
           4
273
           2
274
           2
275
           0
280
           0
281
           0
282
           0
283
           1
284
           0
285
           0
286
           0
287
           0
288
           0
340
17
  0
ENDTAB
  0
TABLE
  2
BLOCK_RECORD
  5
1
100
AcDbSymbolTable
 70
           0
  0
BLOCK_RECORD
  5
A
100
AcDbSymbolTableRecord
100
AcDbBlockTableRecord
  2
*MODEL_SPACE
  0
BLOCK_RECORD
  5
B
100
AcDbSymbolTableRecord
100
AcDbBlockTableRecord
  2
*PAPER_SPACE
  0
ENDTAB
  0
ENDSEC
  0
SECTION
  2
BLOCKS
  0
BLOCK
  5
D
100
AcDbEntity
  8
0
100
AcDbBlockBegin
  2
*MODEL_SPACE
 70
           0
 10
0.0
 20
0.0
 30
0.0
  3
*MODEL_SPACE
  1

  0
ENDBLK
  5
E
100
AcDbEntity
  8
0
100
AcDbBlockEnd
  0
BLOCK
  5
F
100
AcDbEntity
 67
           1
  8
0
100
AcDbBlockBegin
  2
*PAPER_SPACE
 70
           0
 10
0.0
 20
0.0
 30
0.0
  3
*PAPER_SPACE
  1

  0
ENDBLK
  5
10
100
AcDbEntity
 67
           1
  8
0
100
AcDbBlockEnd
  0
ENDSEC
  0
SECTION
  2
ENTITIES
  0
ARC
  5
4CF
100
AcDbEntity
  8
1
  6
CONTINUOUS
 62
           4
100
AcDbCircle
 10
117.908702762044
 20
5980.500000000002
 40
12.0
100
AcDbArc
 50
90.0
 51
120.430594205709
  0
ARC
  5
4CE
100
AcDbEntity
  8
1
  6
CONTINUOUS
 62
           4
100
AcDbCircle
 10
117.908702762044
 20
5889.500000000002
 40
11.999999999999
100
AcDbArc
 50
-120.430594205709
 51
-90.0
  0
ARC
  5
4CD
100
AcDbEntity
  8
1
  6
CONTINUOUS
 62
           7
100
AcDbCircle
 10
144.824966598197
 20
5883.500000000002
 40
12.0
100
AcDbArc
 50
180.0
 51
-90.0
  0
ARC
  5
4CC
100
AcDbEntity
  8
1
  6
CONTINUOUS
 62
           7
100
AcDbCircle
 10
144.824966598197
 20
5986.500000000002
 40
12.0
100
AcDbArc
 50
90.0
 51
180.0
  0
ARC
  5
4CB
100
AcDbEntity
  8
1
  6
CONTINUOUS
 62
           7
100
AcDbCircle
 10
185.0
 20
5883.500000000002
 40
12.0
100
AcDbArc
 50
-90.0
 51
0.0
  0
ARC
  5
4CA
100
AcDbEntity
  8
1
  6
CONTINUOUS
 62
           7
100
AcDbCircle
 10
185.0
 20
5986.500000000002
 40
12.0
100
AcDbArc
 50
0.0
 51
90.0
  0
ARC
  5
4C9
100
AcDbEntity
  8
1
  6
CONTINUOUS
 62
           7
100
AcDbCircle
 10
185.0
 20
2940.5
 40
12.0
100
AcDbArc
 50
0.0
 51
90.0
  0
ARC
  5
4C8
100
AcDbEntity
  8
1
  6
CONTINUOUS
 62
           7
100
AcDbCircle
 10
185.0
 20
2864.5
 40
12.0
100
AcDbArc
 50
-90.0
 51
0.0
  0
ARC
  5
4C7
100
AcDbEntity
  8
1
  6
CONTINUOUS
 62
           7
100
AcDbCircle
 10
134.496396800001
 20
2940.5
 40
12.0
100
AcDbArc
 50
90.0
 51
180.0
  0
ARC
  5
4C6
100
AcDbEntity
  8
1
  6
CONTINUOUS
 62
           7
100
AcDbCircle
 10
134.496396800001
 20
2864.5
 40
12.0
100
AcDbArc
 50
180.0
 51
-90.0
  0
ARC
  5
4C5
100
AcDbEntity
  8
1
  6
CONTINUOUS
 62
           7
100
AcDbCircle
 10
6998.500000000007
 20
2864.500000000002
 40
12.0
100
AcDbArc
 50
180.0
 51
-90.0
  0
ARC
  5
4C4
100
AcDbEntity
  8
1
  6
CONTINUOUS
 62
           7
100
AcDbCircle
 10
6998.500000000007
 20
2940.500000000002
 40
12.0
100
AcDbArc
 50
90.0
 51
180.0
  0
ARC
  5
4C3
100
AcDbEntity
  8
1
  6
CONTINUOUS
 62
           7
100
AcDbCircle
 10
7101.500000000007
 20
2864.500000000002
 40
12.0
100
AcDbArc
 50
-90.0
 51
0.0
  0
ARC
  5
4C2
100
AcDbEntity
  8
1
  6
CONTINUOUS
 62
           7
100
AcDbCircle
 10
7101.500000000007
 20
2940.500000000002
 40
12.0
100
AcDbArc
 50
0.0
 51
90.0
  0
ARC
  5
4C1
100
AcDbEntity
  8
1
  6
CONTINUOUS
 62
           4
100
AcDbCircle
 10
7605.500000000007
 20
2160.000000000002
 40
1.0
100
AcDbArc
 50
90.0
 51
180.0
  0
ARC
  5
4C0
100
AcDbEntity
  8
1
  6
CONTINUOUS
 62
           4
100
AcDbCircle
 10
7594.500000000007
 20
2160.000000000002
 40
1.0
100
AcDbArc
 50
0.0
 51
90.0
  0
ARC
  5
4BF
100
AcDbEntity
  8
1
  6
CONTINUOUS
 62
           4
100
AcDbCircle
 10
7594.500000000007
 20
2666.0
 40
0.999999999998
100
AcDbArc
 50
-90.0
 51
0.000000000104
  0
ARC
  5
4BE
100
AcDbEntity
  8
1
  6
CONTINUOUS
 62
           4
100
AcDbCircle
 10
7605.500000000007
 20
2666.0
 40
1.0
100
AcDbArc
 50
179.999999999895
 51
-90.0
  0
ARC
  5
4BD
100
AcDbEntity
  8
1
  6
CONTINUOUS
 62
           3
100
AcDbCircle
 10
6799.89999681093
 20
1640.999999999996
 40
288.0
100
AcDbArc
 50
90.0
 51
180.0
  0
ARC
  5
4BC
100
AcDbEntity
  8
1
  6
CONTINUOUS
 62
           3
100
AcDbCircle
 10
6799.899998122323
 20
1640.999999999996
 40
280.0
100
AcDbArc
 50
90.0
 51
180.0
  0
ARC
  5
4BB
100
AcDbEntity
  8
1
  6
CONTINUOUS
 62
           3
100
AcDbCircle
 10
6948.16356769104
 20
1932.193746580037
 40
0.5
100
AcDbArc
 50
90.0
 51
180.0
  0
ARC
  5
4BA
100
AcDbEntity
  8
1
  6
CONTINUOUS
 62
           3
100
AcDbCircle
 10
6948.16356769104
 20
1917.806253419956
 40
0.5
100
AcDbArc
 50
180.0
 51
-90.0
  0
ARC
  5
4B9
100
AcDbEntity
  8
1
  6
CONTINUOUS
 62
           7
100
AcDbCircle
 10
-2199.999999999996
 20
2156.0
 40
15.0
100
AcDbArc
 50
0.0
 51
32.230952635505
  0
ARC
  5
4B8
100
AcDbEntity
  8
1
  6
CONTINUOUS
 62
           7
100
AcDbCircle
 10
-2199.999999999996
 20
2156.0
 40
14.999999999999
100
AcDbArc
 50
32.230952635505
 51
147.769047364495
  0
ARC
  5
4B7
100
AcDbEntity
  8
1
  6
CONTINUOUS
 62
           7
100
AcDbCircle
 10
-2199.999999999996
 20
2156.0
 40
14.999999999999
100
AcDbArc
 50
147.769047364495
 51
180.0
  0
ARC
  5
4B6
100
AcDbEntity
  8
1
  6
CONTINUOUS
 62
           7
100
AcDbCircle
 10
-2236.999999999996
 20
2188.0
 40
8.0
100
AcDbArc
 50
90.0
 51
180.0
  0
ARC
  5
4B5
100
AcDbEntity
  8
1
  6
CONTINUOUS
 62
           7
100
AcDbCircle
 10
-2162.999999999996
 20
2188.0
 40
8.0
100
AcDbArc
 50
0.0
 51
90.0
  0
ARC
  5
4B4
100
AcDbEntity
  8
1
  6
CONTINUOUS
 62
           7
100
AcDbCircle
 10
1300.000000000007
 20
2156.0
 40
15.0
100
AcDbArc
 50
0.0
 51
32.230952635505
  0
ARC
  5
4B3
100
AcDbEntity
  8
1
  6
CONTINUOUS
 62
           7
100
AcDbCircle
 10
1300.000000000007
 20
2156.0
 40
14.999999999999
100
AcDbArc
 50
32.230952635505
 51
147.769047364501
  0
ARC
  5
4B2
100
AcDbEntity
  8
1
  6
CONTINUOUS
 62
           7
100
AcDbCircle
 10
1300.000000000007
 20
2156.0
 40
15.000000000001
100
AcDbArc
 50
147.769047364501
 51
180.0
  0
ARC
  5
4B1
100
AcDbEntity
  8
1
  6
CONTINUOUS
 62
           7
100
AcDbCircle
 10
1263.000000000007
 20
2188.0
 40
8.0
100
AcDbArc
 50
90.0
 51
180.0
  0
ARC
  5
4B0
100
AcDbEntity
  8
1
  6
CONTINUOUS
 62
           7
100
AcDbCircle
 10
1337.000000000007
 20
2188.0
 40
8.0
100
AcDbArc
 50
0.0
 51
90.0
  0
ARC
  5
4AF
100
AcDbEntity
  8
1
  6
CONTINUOUS
 62
           7
100
AcDbCircle
 10
-412.999999999993
 20
2188.0
 40
8.0
100
AcDbArc
 50
0.0
 51
90.0
  0
ARC
  5
4AE
100
AcDbEntity
  8
1
  6
CONTINUOUS
 62
           7
100
AcDbCircle
 10
-486.999999999993
 20
2188.0
 40
8.0
100
AcDbArc
 50
90.0
 51
180.0
  0
ARC
  5
4AD
100
AcDbEntity
  8
1
  6
CONTINUOUS
 62
           7
100
AcDbCircle
 10
-449.999999999993
 20
2156.0
 40
15.000000000002
100
AcDbArc
 50
147.769047364502
 51
180.0
  0
ARC
  5
4AC
100
AcDbEntity
  8
1
  6
CONTINUOUS
 62
           7
100
AcDbCircle
 10
-449.999999999993
 20
2156.0
 40
14.999999999999
100
AcDbArc
 50
32.230952635505
 51
147.769047364502
  0
ARC
  5
4AB
100
AcDbEntity
  8
1
  6
CONTINUOUS
 62
           7
100
AcDbCircle
 10
-449.999999999993
 20
2156.0
 40
15.0
100
AcDbArc
 50
0.0
 51
32.230952635505
  0
ARC
  5
4AA
100
AcDbEntity
  8
1
  6
CONTINUOUS
 62
           7
100
AcDbCircle
 10
5800.000000000002
 20
2156.000000000001
 40
15.0
100
AcDbArc
 50
0.0
 51
180.0
  0
ARC
  5
4A9
100
AcDbEntity
  8
1
  6
CONTINUOUS
 62
           7
100
AcDbCircle
 10
5837.000000000002
 20
2188.000000000001
 40
8.0
100
AcDbArc
 50
0.0
 51
90.0
  0
ARC
  5
4A8
100
AcDbEntity
  8
1
  6
CONTINUOUS
 62
           7
100
AcDbCircle
 10
5763.000000000002
 20
2188.000000000001
 40
8.0
100
AcDbArc
 50
90.0
 51
180.0
  0
SPLINE
  5
4A7
100
AcDbEntity
  8
0
  6
CONTINUOUS
 62
           3
100
AcDbSpline
210
0.0
220
0.0
230
1.0
 70
           0
 71
           3
 72
           8
 73
           5
 74
           7
 42
0.00000000001
 43
0.00000000001
 44
0.00000000001
 40
0.0
 40
0.0
 40
0.0
 40
0.5558562714165364
 40
1.5343210643721956
 40
2.9385072682935691
 40
2.9385072682935691
 40
2.9385072682935691
 10
6465.8999967216723
 20
1359.999999404045
 30
0.0
 10
6465.9684298091424
 20
1359.9995537106729
 30
0.0
 10
6466.9432526000228
 20
1359.9932048512089
 30
0.0
 10
6467.8985309047412
 20
1359.7653090218589
 30
0.0
 10
6468.7867481555004
 20
1359.5534116030649
 30
0.0
 11
6465.8999967216723
 21
1359.999999404045
 31
0.0
 11
6466.0396116244037
 21
1359.9990901152939
 31
0.0
 11
6466.3215901576586
 21
1359.9972536357855
 31
0.0
 11
6466.8859111712854
 21
1359.9708199944723
 31
0.0
 11
6467.3355493274357
 21
1359.8996166396864
 31
0.0
 11
6467.9798398231042
 21
1359.7459115716172
 31
0.0
 11
6468.7867481555004
 21
1359.5534116030649
 31
0.0
  0
SPLINE
  5
4A6
100
AcDbEntity
  8
0
  6
CONTINUOUS
 62
           3
100
AcDbSpline
210
0.0
220
0.0
230
1.0
 70
           0
 71
           3
 72
           8
 73
           5
 74
           7
 42
0.00000000001
 43
0.00000000001
 44
0.00000000001
 40
0.0
 40
0.0
 40
0.0
 40
0.5558558490683128
 40
1.5343195422045928
 40
2.9385037456625196
 40
2.9385037456625196
 40
2.9385037456625196
 10
6465.8999967216723
 20
1355.0000041723181
 30
0.0
 10
6465.8315636362904
 20
1355.000449878298
 30
0.0
 10
6464.8567416872384
 20
1355.0067989106651
 30
0.0
 10
6463.9014629162621
 20
1355.2346869292271
 30
0.0
 10
6463.0132452878424
 20
1355.4465770722379
 30
0.0
 11
6465.8999967216723
 21
1355.0000041723181
 31
0.0
 11
6465.7603818762454
 21
1355.0009134863185
 31
0.0
 11
6465.4784035107259
 21
1355.0027500163592
 31
0.0
 11
6464.9140828960135
 21
1355.0291829422154
 31
0.0
 11
6464.4644446988495
 21
1355.100383931172
 31
0.0
 11
6463.8201539548036
 21
1355.2540837154661
 31
0.0
 11
6463.0132452878424
 21
1355.4465770722379
 31
0.0
  0
SPLINE
  5
4A5
100
AcDbEntity
  8
0
  6
CONTINUOUS
 62
           3
100
AcDbSpline
210
0.0
220
0.0
230
1.0
 70
           0
 71
           3
 72
           8
 73
           5
 74
           7
 42
0.00000000001
 43
0.00000000001
 44
0.00000000001
 40
0.0
 40
0.0
 40
0.0
 40
0.2779452695518724
 40
0.7862805426557169
 40
1.5429573556191511
 40
1.5429573556191511
 40
1.5429573556191511
 10
6470.2301237560014
 20
1355.0000041724161
 30
0.0
 10
6470.1959072124728
 20
1355.000449877185
 30
0.0
 10
6469.7084969152702
 20
1355.00679888474
 30
0.0
 10
6469.2308572149814
 20
1355.2346869284629
 30
0.0
 10
6468.7867481553612
 20
1355.44657707222
 30
0.0
 11
6470.2301237560014
 21
1355.0000041724161
 31
0.0
 11
6470.1613872230628
 21
1355.0008995346393
 31
0.0
 11
6470.0236107113014
 21
1355.0026942117711
 31
0.0
 11
6469.7392914141328
 21
1355.0286664762134
 31
0.0
 11
6469.5165611146822
 21
1355.0983739236024
 31
0.0
 11
6469.1912559250013
 21
1355.2535812131869
 31
0.0
 11
6468.7867481553612
 21
1355.44657707222
 31
0.0
  0
SPLINE
  5
4A4
100
AcDbEntity
  8
0
  6
CONTINUOUS
 62
           3
100
AcDbSpline
210
0.0
220
0.0
230
1.0
 70
           0
 71
           3
 72
           8
 73
           5
 74
           7
 42
0.00000000001
 43
0.00000000001
 44
0.00000000001
 40
0.0
 40
0.0
 40
0.0
 40
0.6787700534937046
 40
1.1891668948827512
 40
1.5431123743468962
 40
1.5431123743468962
 40
1.5431123743468962
 10
6463.0132452878424
 20
1355.4465770722379
 30
0.0
 10
6462.6438214744003
 20
1355.2624483716031
 30
0.0
 10
6462.1676820506209
 20
1355.02513033678
 30
0.0
 10
6461.6793238525834
 20
1355.004604551257
 30
0.0
 10
6461.5698696873433
 20
1355.0000041724161
 30
0.0
 11
6463.0132452878424
 21
1355.4465770722379
 31
0.0
 11
6462.668232973635
 21
1355.2746155830032
 31
0.0
 11
6462.3720436578969
 21
1355.1269885165693
 31
0.0
 11
6462.1466781919453
 21
1355.0475647466046
 31
0.0
 11
6461.8793050086424
 21
1355.0130097962892
 31
0.0
 11
6461.7019556002879
 21
1355.0055557678047
 31
0.0
 11
6461.5698696873433
 21
1355.0000041724161
 31
0.0
  0
SPLINE
  5
4A3
100
AcDbEntity
  8
0
  6
CONTINUOUS
 62
           3
100
AcDbSpline
210
0.0
220
0.0
230
1.0
 70
           0
 71
           3
 72
           8
 73
           5
 74
           7
 42
0.00000000001
 43
0.00000000001
 44
0.00000000001
 40
0.0
 40
0.0
 40
0.0
 40
0.3539460334955958
 40
0.8643414136607657
 40
1.5431068114005853
 40
1.5431068114005853
 40
1.5431068114005853
 10
6461.5698696873433
 20
1359.999999404045
 30
0.0
 10
6461.6793238424207
 20
1359.995393507827
 30
0.0
 10
6462.1676816710424
 20
1359.9748431187361
 30
0.0
 10
6462.6438213484444
 20
1359.73753363435
 30
0.0
 10
6463.0132452879689
 20
1359.553411603018
 30
0.0
 11
6461.5698696873433
 21
1359.999999404045
 31
0.0
 11
6461.7019556855785
 21
1359.9944411463512
 31
0.0
 11
6461.8793053701311
 21
1359.9869781657058
 31
0.0
 11
6462.1466781413847
 21
1359.9524131949215
 31
0.0
 11
6462.3720438533264
 21
1359.8729883765091
 31
0.0
 11
6462.668232959546
 21
1359.725366812057
 31
0.0
 11
6463.0132452879689
 21
1359.553411603018
 31
0.0
  0
SPLINE
  5
4A2
100
AcDbEntity
  8
0
  6
CONTINUOUS
 62
           3
100
AcDbSpline
210
0.0
220
0.0
230
1.0
 70
           0
 71
           3
 72
           8
 73
           5
 74
           7
 42
0.00000000001
 43
0.00000000001
 44
0.00000000001
 40
0.0
 40
0.0
 40
0.0
 40
0.6415450374762959
 40
1.1579303686097928
 40
1.5357381749053627
 40
1.5357381749053627
 40
1.5357381749053627
 10
6461.5698696873433
 20
1355.0000041724161
 30
0.0
 10
6461.1795237086108
 20
1355.057633693872
 30
0.0
 10
6460.6908846293582
 20
1355.1297749168809
 30
0.0
 10
6460.2210119621113
 20
1355.393522448252
 30
0.0
 10
6460.1264938539707
 20
1355.44657707222
 30
0.0
 11
6461.5698696873433
 21
1355.0000041724161
 31
0.0
 11
6461.2094282457019
 21
1355.0532186767955
 31
0.0
 11
6460.908795878242
 21
1355.0976031470218
 31
0.0
 11
6460.6775260473178
 21
1355.1598096979587
 31
0.0
 11
6460.4195390523118
 21
1355.2820858110513
 31
0.0
 11
6460.2470142076254
 21
1355.3789269449437
 31
0.0
 11
6460.1264938539707
 21
1355.44657707222
 31
0.0
  0
SPLINE
  5
4A1
100
AcDbEntity
  8
0
  6
CONTINUOUS
 62
           3
100
AcDbSpline
210
0.0
220
0.0
230
1.0
 70
           0
 71
           3
 72
           8
 73
           5
 74
           7
 42
0.00000000001
 43
0.00000000001
 44
0.00000000001
 40
0.0
 40
0.0
 40
0.0
 40
0.3778155284981008
 40
0.8942062233973899
 40
1.5357514174667206
 40
1.5357514174667206
 40
1.5357514174667206
 10
6460.1264938539707
 20
1359.553411603018
 30
0.0
 10
6460.2210118970324
 20
1359.606471690902
 30
0.0
 10
6460.6908817948997
 20
1359.870245011371
 30
0.0
 10
6461.1795227343018
 20
1359.942377186195
 30
0.0
 10
6461.5698696873433
 20
1359.999999404045
 30
0.0
 11
6460.1264938539707
 21
1359.553411603018
 31
0.0
 11
6460.2470141544054
 21
1359.6210687140244
 31
0.0
 11
6460.4195389695833
 21
1359.7179198712761
 31
0.0
 11
6460.6775244143255
 21
1359.8402057052333
 31
0.0
 11
6460.9087950979228
 21
1359.9024129269151
 31
0.0
 11
6461.2094275634681
 21
1359.9467916758376
 31
0.0
 11
6461.5698696873433
 21
1359.999999404045
 31
0.0
  0
SPLINE
  5
4A0
100
AcDbEntity
  8
0
  6
CONTINUOUS
 62
           3
100
AcDbSpline
210
0.0
220
0.0
230
1.0
 70
           0
 71
           3
 72
           8
 73
           5
 74
           7
 42
0.00000000001
 43
0.00000000001
 44
0.00000000001
 40
0.0
 40
0.0
 40
0.0
 40
0.2779464854665099
 40
0.7862840844026384
 40
1.5429642659226566
 40
1.5429642659226566
 40
1.5429642659226566
 10
6470.2301237559614
 20
1359.9999994039169
 30
0.0
 10
6470.2643403053617
 20
1359.9995537086729
 30
0.0
 10
6470.7517530244504
 20
1359.9932048044391
 30
0.0
 10
6471.2293915039982
 20
1359.7653090204769
 30
0.0
 10
6471.673499589363
 20
1359.553411603018
 30
0.0
 11
6470.2301237559614
 21
1359.9999994039169
 31
0.0
 11
6470.2988605017445
 21
1359.999104058041
 31
0.0
 11
6470.4366376402941
 21
1359.9973094109014
 31
0.0
 11
6470.7209580094705
 21
1359.9713364170575
 31
0.0
 11
6470.9436883486833
 21
1359.9016266484505
 31
0.0
 11
6471.2689927365109
 21
1359.7464140731056
 31
0.0
 11
6471.673499589363
 21
1359.553411603018
 31
0.0
  0
SPLINE
  5
49F
100
AcDbEntity
  8
0
  6
CONTINUOUS
 62
           3
100
AcDbSpline
210
0.0
220
0.0
230
1.0
 70
           0
 71
           3
 72
           8
 73
           5
 74
           7
 42
0.00000000001
 43
0.00000000001
 44
0.00000000001
 40
0.0
 40
0.0
 40
0.0
 40
1.2475591451550971
 40
2.2257037084923645
 40
2.9354142011728821
 40
2.9354142011728821
 40
2.9354142011728821
 10
6465.8999967216723
 20
1364.9999946356691
 30
0.0
 10
6465.14434166517
 20
1364.9458933000899
 30
0.0
 10
6464.1669038516511
 20
1364.875913365853
 30
0.0
 10
6463.2266018489527
 20
1364.613063043362
 30
0.0
 10
6463.0132452878424
 20
1364.553421735855
 30
0.0
 11
6465.8999967216723
 21
1364.9999946356691
 31
0.0
 11
6465.1962862228356
 21
1364.9496122852554
 31
0.0
 11
6464.5964648393274
 21
1364.9066679051725
 31
0.0
 11
6464.1380633113704
 21
1364.8455202926298
 31
0.0
 11
6463.6219807028556
 21
1364.7235865336411
 31
0.0
 11
6463.2721074221499
 21
1364.6257835890549
 31
0.0
 11
6463.0132452878424
 21
1364.553421735855
 31
0.0
  0
SPLINE
  5
49E
100
AcDbEntity
  8
0
  6
CONTINUOUS
 62
           3
100
AcDbSpline
210
0.0
220
0.0
230
1.0
 70
           0
 71
           3
 72
           8
 73
           5
 74
           7
 42
0.00000000001
 43
0.00000000001
 44
0.00000000001
 40
0.0
 40
0.0
 40
0.0
 40
1.2321288292603156
 40
2.2113508927684062
 40
2.9387184667242523
 40
2.9387184667242523
 40
2.9387184667242523
 10
6468.7867481555004
 20
1364.553421735855
 30
0.0
 10
6468.0674885010512
 20
1364.7336190184251
 30
0.0
 10
6467.1156260260914
 20
1364.9720906611949
 30
0.0
 10
6466.1387194651534
 20
1364.9945149114501
 30
0.0
 10
6465.8999967216723
 20
1364.9999946356691
 30
0.0
 11
6468.7867481555004
 21
1364.553421735855
 31
0.0
 11
6468.1147128338644
 21
1364.7217878300767
 31
0.0
 11
6467.5371261778564
 21
1364.8664915476011
 31
0.0
 11
6467.0808665470022
 21
1364.9489075788497
 31
0.0
 11
6466.5550879579714
 21
1364.984957445409
 31
0.0
 11
6466.1831309024874
 21
1364.9934954759947
 31
0.0
 11
6465.8999967216723
 21
1364.9999946356691
 31
0.0
  0
SPLINE
  5
49D
100
AcDbEntity
  8
0
  6
CONTINUOUS
 62
           3
100
AcDbSpline
210
0.0
220
0.0
230
1.0
 70
           0
 71
           3
 72
           8
 73
           5
 74
           7
 42
0.00000000001
 43
0.00000000001
 44
0.00000000001
 40
0.0
 40
0.0
 40
0.0
 40
0.7273681394915104
 40
1.7065914567891387
 40
2.938722324035504
 40
2.938722324035504
 40
2.938722324035504
 10
6465.8999967216723
 20
1359.999999404045
 30
0.0
 10
6466.1387195010311
 20
1360.0054789431119
 30
0.0
 10
6467.1156271469799
 20
1360.0279024572369
 30
0.0
 10
6468.0674888562417
 20
1360.266383080507
 30
0.0
 10
6468.7867481553612
 20
1360.4465872051189
 30
0.0
 11
6465.8999967216723
 21
1359.999999404045
 31
0.0
 11
6466.1831310149719
 21
1360.0064983457291
 31
0.0
 11
6466.5550883361511
 21
1360.0150360926482
 31
0.0
 11
6467.08086737551
 21
1360.0510866331697
 31
0.0
 11
6467.53712687193
 21
1360.1335055255568
 31
0.0
 11
6468.114713184943
 21
1360.2782147229223
 31
0.0
 11
6468.7867481553612
 21
1360.4465872051189
 31
0.0
  0
SPLINE
  5
49C
100
AcDbEntity
  8
0
  6
CONTINUOUS
 62
           3
100
AcDbSpline
210
0.0
220
0.0
230
1.0
 70
           0
 71
           3
 72
           8
 73
           5
 74
           7
 42
0.00000000001
 43
0.00000000001
 44
0.00000000001
 40
0.0
 40
0.0
 40
0.0
 40
0.7097126556365796
 40
1.6878594213856855
 40
2.9354211178779113
 40
2.9354211178779113
 40
2.9354211178779113
 10
6463.0132452878424
 20
1360.4465872050209
 30
0.0
 10
6463.2266017037609
 20
1360.386940369925
 30
0.0
 10
6464.1668989125819
 20
1360.1240668476171
 30
0.0
 10
6465.144340064252
 20
1360.0540946716139
 30
0.0
 10
6465.8999967216723
 20
1359.999999404045
 30
0.0
 11
6463.0132452878424
 21
1360.4465872050209
 31
0.0
 11
6463.2721068549226
 21
1360.3742187546127
 31
0.0
 11
6463.6219787243263
 21
1360.2764070735793
 31
0.0
 11
6464.1380594916309
 21
1360.1544641207784
 31
0.0
 11
6464.5964614170316
 21
1360.093315714299
 31
0.0
 11
6465.1962845668022
 21
1360.0503761153927
 31
0.0
 11
6465.8999967216723
 21
1359.999999404045
 31
0.0
  0
SPLINE
  5
49B
100
AcDbEntity
  8
0
  6
CONTINUOUS
 62
           3
100
AcDbSpline
210
0.0
220
0.0
230
1.0
 70
           0
 71
           3
 72
           8
 73
           5
 74
           7
 42
0.00000000001
 43
0.00000000001
 44
0.00000000001
 40
0.0
 40
0.0
 40
0.0
 40
0.2779452695518488
 40
0.7862805426548343
 40
1.5429573554995808
 40
1.5429573554995808
 40
1.5429573554995808
 10
6470.2301237560014
 20
1364.9999946356691
 30
0.0
 10
6470.1959072124728
 20
1364.9995489308999
 30
0.0
 10
6469.7084969152702
 20
1364.993199923349
 30
0.0
 10
6469.2308572149814
 20
1364.76531187963
 30
0.0
 10
6468.7867481555004
 20
1364.553421735855
 30
0.0
 11
6470.2301237560014
 21
1364.9999946356691
 31
0.0
 11
6470.1613872230619
 21
1364.9990992734461
 31
0.0
 11
6470.0236107113014
 21
1364.9973045963152
 31
0.0
 11
6469.7392914141265
 21
1364.9713323318731
 31
0.0
 11
6469.5165611146658
 21
1364.9016248844796
 31
0.0
 11
6469.1912559250322
 21
1364.7464175948987
 31
0.0
 11
6468.7867481555004
 21
1364.553421735855
 31
0.0
  0
SPLINE
  5
49A
100
AcDbEntity
  8
0
  6
CONTINUOUS
 62
           3
100
AcDbSpline
210
0.0
220
0.0
230
1.0
 70
           0
 71
           3
 72
           8
 73
           5
 74
           7
 42
0.00000000001
 43
0.00000000001
 44
0.00000000001
 40
0.0
 40
0.0
 40
0.0
 40
0.2779464854698578
 40
0.7862840844059612
 40
1.5429642659466389
 40
1.5429642659466389
 40
1.5429642659466389
 10
6470.2301237559614
 20
1359.9999994039169
 30
0.0
 10
6470.2643403053617
 20
1360.0004450994199
 30
0.0
 10
6470.7517530244504
 20
1360.0067940036499
 30
0.0
 10
6471.2293915039982
 20
1360.2346897876121
 30
0.0
 10
6471.673499589363
 20
1360.4465872051189
 30
0.0
 11
6470.2301237559614
 21
1359.9999994039169
 31
0.0
 11
6470.2988605017454
 21
1360.0008947499869
 31
0.0
 11
6470.436637640295
 21
1360.0026893971901
 31
0.0
 11
6470.7209580094695
 21
1360.0286623910317
 31
0.0
 11
6470.9436883486806
 21
1360.0983721596372
 31
0.0
 11
6471.26899273651
 21
1360.253584734995
 31
0.0
 11
6471.673499589363
 21
1360.4465872051189
 31
0.0
  0
SPLINE
  5
499
100
AcDbEntity
  8
0
  6
CONTINUOUS
 62
           3
100
AcDbSpline
210
0.0
220
0.0
230
1.0
 70
           0
 71
           3
 72
           8
 73
           5
 74
           7
 42
0.00000000001
 43
0.00000000001
 44
0.00000000001
 40
0.0
 40
0.0
 40
0.0
 40
0.2779462752365683
 40
0.7862820883282782
 40
1.5429577306130584
 40
1.5429577306130584
 40
1.5429577306130584
 10
6461.5698696873433
 20
1364.9999946356691
 30
0.0
 10
6461.5356531390307
 20
1364.999548927786
 30
0.0
 10
6461.0482408408434
 20
1364.9931998506579
 30
0.0
 10
6460.5706021281794
 20
1364.7653118774799
 30
0.0
 10
6460.1264938539707
 20
1364.5534217359129
 30
0.0
 11
6461.5698696873433
 21
1364.9999946356691
 31
0.0
 11
6461.501132902803
 21
1364.9990992640346
 31
0.0
 11
6461.3633556458071
 21
1364.9973045648976
 31
0.0
 11
6461.0790356162597
 21
1364.9713322408559
 31
0.0
 11
6460.8563051375468
 21
1364.9016246972101
 31
0.0
 11
6460.5310008119695
 21
1364.7464175470209
 31
0.0
 11
6460.1264938539707
 21
1364.5534217359129
 31
0.0
  0
SPLINE
  5
498
100
AcDbEntity
  8
0
  6
CONTINUOUS
 62
           3
100
AcDbSpline
210
0.0
220
0.0
230
1.0
 70
           0
 71
           3
 72
           8
 73
           5
 74
           7
 42
0.00000000001
 43
0.00000000001
 44
0.00000000001
 40
0.0
 40
0.0
 40
0.0
 40
0.2779454797470781
 40
0.786282538691369
 40
1.5429638907235461
 40
1.5429638907235461
 40
1.5429638907235461
 10
6461.5698696873433
 20
1359.999999404045
 30
0.0
 10
6461.6040862319214
 20
1360.000445096302
 30
0.0
 10
6462.0914969500291
 20
1360.006793930959
 30
0.0
 10
6462.5691364171944
 20
1360.2346897854659
 30
0.0
 10
6463.0132452878424
 20
1360.4465872050209
 30
0.0
 11
6461.5698696873433
 21
1359.999999404045
 31
0.0
 11
6461.6386061814947
 21
1360.0008947406047
 31
0.0
 11
6461.7763825747907
 21
1360.0026893657696
 31
0.0
 11
6462.0607022116064
 21
1360.0286623000143
 31
0.0
 11
6462.2834323715761
 21
1360.0983719723697
 31
0.0
 11
6462.6087376234518
 21
1360.2535846870805
 31
0.0
 11
6463.0132452878424
 21
1360.4465872050209
 31
0.0
  0
SPLINE
  5
497
100
AcDbEntity
  8
0
  6
CONTINUOUS
 62
           3
100
AcDbSpline
210
0.0
220
0.0
230
1.0
 70
           0
 71
           3
 72
           8
 73
           5
 74
           7
 42
0.00000000001
 43
0.00000000001
 44
0.00000000001
 40
0.0
 40
0.0
 40
0.0
 40
1.2475604207862028
 40
2.2257060852955828
 40
2.9354176594296488
 40
2.9354176594296488
 40
2.9354176594296488
 10
6465.8999967216723
 20
1377.599999308663
 30
0.0
 10
6465.1443408647201
 20
1377.5459010071031
 30
0.0
 10
6464.1669013821584
 20
1377.475924952003
 30
0.0
 10
6463.2266017763604
 20
1377.213063029569
 30
0.0
 10
6463.0132452878424
 20
1377.153418958264
 30
0.0
 11
6465.8999967216723
 21
1377.599999308663
 31
0.0
 11
6465.1962853948298
 21
1377.5496197777957
 31
0.0
 11
6464.5964631282059
 21
1377.5066777883133
 31
0.0
 11
6464.1380614015343
 21
1377.4455297788036
 31
0.0
 11
6463.6219797136109
 21
1377.3235914228949
 31
0.0
 11
6463.2721071385431
 21
1377.2257841100741
 31
0.0
 11
6463.0132452878424
 21
1377.153418958264
 31
0.0
  0
SPLINE
  5
496
100
AcDbEntity
  8
0
  6
CONTINUOUS
 62
           3
100
AcDbSpline
210
0.0
220
0.0
230
1.0
 70
           0
 71
           3
 72
           8
 73
           5
 74
           7
 42
0.00000000001
 43
0.00000000001
 44
0.00000000001
 40
0.0
 40
0.0
 40
0.0
 40
1.2321298483012253
 40
2.2113525386978328
 40
2.9387203954182959
 40
2.9387203954182959
 40
2.9387203954182959
 10
6468.7867481555004
 20
1377.153418958264
 30
0.0
 10
6468.0674886786428
 20
1377.3336196618111
 30
0.0
 10
6467.1156265865311
 20
1377.572095794829
 30
0.0
 10
6466.1387194830904
 20
1377.594519677019
 30
0.0
 10
6465.8999967216723
 20
1377.599999308663
 30
0.0
 11
6468.7867481555004
 21
1377.153418958264
 31
0.0
 11
6468.1147130094159
 21
1377.3217882464403
 31
0.0
 11
6467.5371265248777
 21
1377.4664947038755
 31
0.0
 11
6467.0808669612497
 21
1377.5489121656913
 31
0.0
 11
6466.555088147059
 21
1377.5849623692307
 31
0.0
 11
6466.1831309587287
 21
1377.5935002579831
 31
0.0
 11
6465.8999967216723
 21
1377.599999308663
 31
0.0
  0
SPLINE
  5
495
100
AcDbEntity
  8
0
  6
CONTINUOUS
 62
           3
100
AcDbSpline
210
0.0
220
0.0
230
1.0
 70
           0
 71
           3
 72
           8
 73
           5
 74
           7
 42
0.00000000001
 43
0.00000000001
 44
0.00000000001
 40
0.0
 40
0.0
 40
0.0
 40
0.7273675739559373
 40
1.7065896374635559
 40
2.9387184666017929
 40
2.9387184666017929
 40
2.9387184666017929
 10
6465.8999967216723
 20
1372.600004077038
 30
0.0
 10
6466.1387194651534
 20
1372.605483801261
 30
0.0
 10
6467.1156260260914
 20
1372.627908051516
 30
0.0
 10
6468.0674885010512
 20
1372.8663796942819
 30
0.0
 10
6468.7867481553612
 20
1373.0465769769071
 30
0.0
 11
6465.8999967216723
 21
1372.600004077038
 31
0.0
 11
6466.1831309024883
 21
1372.6065032367155
 31
0.0
 11
6466.5550879579714
 21
1372.6150412673019
 31
0.0
 11
6467.0808665470086
 21
1372.6510911338619
 31
0.0
 11
6467.5371261778782
 21
1372.7335071651137
 31
0.0
 11
6468.1147128338353
 21
1372.8782108826463
 31
0.0
 11
6468.7867481553612
 21
1373.0465769769071
 31
0.0
  0
SPLINE
  5
494
100
AcDbEntity
  8
0
  6
CONTINUOUS
 62
           3
100
AcDbSpline
210
0.0
220
0.0
230
1.0
 70
           0
 71
           3
 72
           8
 73
           5
 74
           7
 42
0.00000000001
 43
0.00000000001
 44
0.00000000001
 40
0.0
 40
0.0
 40
0.0
 40
0.7097104926815585
 40
1.6878550560188339
 40
2.9354142011739226
 40
2.9354142011739226
 40
2.9354142011739226
 10
6463.0132452878424
 20
1373.0465769768559
 30
0.0
 10
6463.2266018489527
 20
1372.986935669345
 30
0.0
 10
6464.1669038516511
 20
1372.7240853468541
 30
0.0
 10
6465.14434166517
 20
1372.6541054126169
 30
0.0
 10
6465.8999967216723
 20
1372.600004077038
 30
0.0
 11
6463.0132452878424
 21
1373.0465769768559
 31
0.0
 11
6463.2721074221508
 21
1372.9742151236528
 31
0.0
 11
6463.6219807028565
 21
1372.8764121790659
 31
0.0
 11
6464.1380633113713
 21
1372.754478420077
 31
0.0
 11
6464.5964648393274
 21
1372.6933308075345
 31
0.0
 11
6465.1962862228347
 21
1372.6503864274514
 31
0.0
 11
6465.8999967216723
 21
1372.600004077038
 31
0.0
  0
SPLINE
  5
493
100
AcDbEntity
  8
0
  6
CONTINUOUS
 62
           3
100
AcDbSpline
210
0.0
220
0.0
230
1.0
 70
           0
 71
           3
 72
           8
 73
           5
 74
           7
 42
0.00000000001
 43
0.00000000001
 44
0.00000000001
 40
0.0
 40
0.0
 40
0.0
 40
0.277945374650874
 40
0.7862815406653324
 40
1.5429606230890529
 40
1.5429606230890529
 40
1.5429606230890529
 10
6470.2301237560014
 20
1377.599999308663
 30
0.0
 10
6470.1959072119489
 20
1377.599553610147
 30
0.0
 10
6469.7084967042892
 20
1377.5932046890409
 30
0.0
 10
6469.2308571205713
 20
1377.3653127399341
 30
0.0
 10
6468.7867481555004
 20
1377.153418958264
 30
0.0
 11
6470.2301237560014
 21
1377.599999308663
 31
0.0
 11
6470.1613872424559
 21
1377.5991039592693
 31
0.0
 11
6470.0236107899254
 21
1377.5973093081202
 31
0.0
 11
6469.7392913229296
 21
1377.571336708776
 31
0.0
 11
6469.5165610932181
 21
1377.5016281489025
 31
0.0
 11
6469.1912558724644
 21
1377.3464181467584
 31
0.0
 11
6468.7867481555004
 21
1377.153418958264
 31
0.0
  0
SPLINE
  5
492
100
AcDbEntity
  8
0
  6
CONTINUOUS
 62
           3
100
AcDbSpline
210
0.0
220
0.0
230
1.0
 70
           0
 71
           3
 72
           8
 73
           5
 74
           7
 42
0.00000000001
 43
0.00000000001
 44
0.00000000001
 40
0.0
 40
0.0
 40
0.0
 40
0.2779462752411331
 40
0.7862820883293334
 40
1.5429577306521414
 40
1.5429577306521414
 40
1.5429577306521414
 10
6470.2301237560014
 20
1372.600004077038
 30
0.0
 10
6470.2643403043212
 20
1372.600449784924
 30
0.0
 10
6470.7517526025031
 20
1372.6067988620489
 30
0.0
 10
6471.2293913151634
 20
1372.834686835231
 30
0.0
 10
6471.673499589363
 20
1373.0465769769071
 30
0.0
 11
6470.2301237560014
 21
1372.600004077038
 31
0.0
 11
6470.2988605405462
 21
1372.6008994486742
 31
0.0
 11
6470.4366377975457
 21
1372.6026941478112
 31
0.0
 11
6470.7209578270858
 21
1372.6286664718509
 31
0.0
 11
6470.9436883057915
 21
1372.6983740154951
 31
0.0
 11
6471.2689926313697
 21
1372.8535811657159
 31
0.0
 11
6471.673499589363
 21
1373.0465769769071
 31
0.0
  0
SPLINE
  5
491
100
AcDbEntity
  8
0
  6
CONTINUOUS
 62
           3
100
AcDbSpline
210
0.0
220
0.0
230
1.0
 70
           0
 71
           3
 72
           8
 73
           5
 74
           7
 42
0.00000000001
 43
0.00000000001
 44
0.00000000001
 40
0.0
 40
0.0
 40
0.0
 40
0.2779463803319262
 40
0.7862830863393439
 40
1.5429609982594812
 40
1.5429609982594812
 40
1.5429609982594812
 10
6461.5698696873433
 20
1377.599999308663
 30
0.0
 10
6461.5356531385032
 20
1377.5995536070329
 30
0.0
 10
6461.0482406298734
 20
1377.5932046163539
 30
0.0
 10
6460.5706020337593
 20
1377.3653127377841
 30
0.0
 10
6460.1264938539707
 20
1377.1534189582021
 30
0.0
 11
6461.5698696873433
 21
1377.599999308663
 31
0.0
 11
6461.5011329221961
 21
1377.5991039498581
 31
0.0
 11
6461.3633557244348
 21
1377.5973092767038
 31
0.0
 11
6461.079035525072
 21
1377.571336617762
 31
0.0
 11
6460.8563051161091
 21
1377.5016279616366
 31
0.0
 11
6460.5310007593998
 21
1377.3464180988519
 31
0.0
 11
6460.1264938539707
 21
1377.1534189582021
 31
0.0
  0
SPLINE
  5
490
100
AcDbEntity
  8
0
  6
CONTINUOUS
 62
           3
100
AcDbSpline
210
0.0
220
0.0
230
1.0
 70
           0
 71
           3
 72
           8
 73
           5
 74
           7
 42
0.00000000001
 43
0.00000000001
 44
0.00000000001
 40
0.0
 40
0.0
 40
0.0
 40
0.2779452695555116
 40
0.7862805426584202
 40
1.5429573554986031
 40
1.5429573554986031
 40
1.5429573554986031
 10
6461.5698696873433
 20
1372.600004077038
 30
0.0
 10
6461.6040862308719
 20
1372.6004497818069
 30
0.0
 10
6462.0914965280817
 20
1372.6067987893621
 30
0.0
 10
6462.5691362283624
 20
1372.8346868330809
 30
0.0
 10
6463.0132452878424
 20
1373.0465769768559
 30
0.0
 11
6461.5698696873433
 21
1372.600004077038
 31
0.0
 11
6461.6386062202837
 21
1372.600899439261
 31
0.0
 11
6461.7763827320468
 21
1372.602694116393
 31
0.0
 11
6462.0607020292227
 21
1372.6286663808371
 31
0.0
 11
6462.2834323286843
 21
1372.6983738282315
 31
0.0
 11
6462.6087375183115
 21
1372.8535811178122
 31
0.0
 11
6463.0132452878424
 21
1373.0465769768559
 31
0.0
  0
SPLINE
  5
48F
100
AcDbEntity
  8
0
  6
CONTINUOUS
 62
           3
100
AcDbSpline
210
0.0
220
0.0
230
1.0
 70
           0
 71
           3
 72
           8
 73
           5
 74
           7
 42
0.00000000001
 43
0.00000000001
 44
0.00000000001
 40
0.0
 40
0.0
 40
0.0
 40
1.2475616964922178
 40
2.2257084622413461
 40
2.9354211178790584
 40
2.9354211178790584
 40
2.9354211178790584
 10
6465.8999967216723
 20
1372.600004077038
 30
0.0
 10
6465.144340064252
 20
1372.545908809469
 30
0.0
 10
6464.1668989125819
 20
1372.4759366334661
 30
0.0
 10
6463.2266017037609
 20
1372.2130631111579
 30
0.0
 10
6463.0132452878424
 20
1372.1534162760579
 30
0.0
 11
6465.8999967216723
 21
1372.600004077038
 31
0.0
 11
6465.1962845668022
 21
1372.54962736569
 31
0.0
 11
6464.5964614170316
 21
1372.5066877667841
 31
0.0
 11
6464.13805949163
 21
1372.445539360305
 31
0.0
 11
6463.6219787243263
 21
1372.3235964075036
 31
0.0
 11
6463.2721068549226
 21
1372.2257847264693
 31
0.0
 11
6463.0132452878424
 21
1372.1534162760579
 31
0.0
  0
SPLINE
  5
48E
100
AcDbEntity
  8
0
  6
CONTINUOUS
 62
           3
100
AcDbSpline
210
0.0
220
0.0
230
1.0
 70
           0
 71
           3
 72
           8
 73
           5
 74
           7
 42
0.00000000001
 43
0.00000000001
 44
0.00000000001
 40
0.0
 40
0.0
 40
0.0
 40
1.2321308673584139
 40
2.2113541846558844
 40
2.9387223241474629
 40
2.9387223241474629
 40
2.9387223241474629
 10
6468.7867481555004
 20
1372.1534162760579
 30
0.0
 10
6468.0674888562417
 20
1372.3336204005759
 30
0.0
 10
6467.1156271469799
 20
1372.5721010238451
 30
0.0
 10
6466.1387195010311
 20
1372.594524537966
 30
0.0
 10
6465.8999967216723
 20
1372.600004077038
 30
0.0
 11
6468.7867481555004
 21
1372.1534162760579
 31
0.0
 11
6468.1147131849721
 21
1372.321788758185
 31
0.0
 11
6467.5371268719082
 21
1372.4664979555309
 31
0.0
 11
6467.0808673755046
 21
1372.5489168479132
 31
0.0
 11
6466.5550883361502
 21
1372.5849673884313
 31
0.0
 11
6466.1831310149719
 21
1372.5935051353504
 31
0.0
 11
6465.8999967216723
 21
1372.600004077038
 31
0.0
  0
SPLINE
  5
48D
100
AcDbEntity
  8
0
  6
CONTINUOUS
 62
           3
100
AcDbSpline
210
0.0
220
0.0
230
1.0
 70
           0
 71
           3
 72
           8
 73
           5
 74
           7
 42
0.00000000001
 43
0.00000000001
 44
0.00000000001
 40
0.0
 40
0.0
 40
0.0
 40
0.7273681394916043
 40
1.7065914567892051
 40
2.938722324030238
 40
2.938722324030238
 40
2.938722324030238
 10
6465.8999967216723
 20
1367.599993944252
 30
0.0
 10
6466.1387195010311
 20
1367.6054734833231
 30
0.0
 10
6467.1156271469799
 20
1367.627896997448
 30
0.0
 10
6468.0674888562417
 20
1367.8663776207179
 30
0.0
 10
6468.7867481553612
 20
1368.046581745308
 30
0.0
 11
6465.8999967216723
 21
1367.599993944252
 31
0.0
 11
6466.183131014971
 21
1367.6064928859394
 31
0.0
 11
6466.5550883361502
 21
1367.6150306328593
 31
0.0
 11
6467.08086737551
 21
1367.6510811733808
 31
0.0
 11
6467.5371268719309
 21
1367.7335000657681
 31
0.0
 11
6468.114713184943
 21
1367.8782092631279
 31
0.0
 11
6468.7867481553612
 21
1368.046581745308
 31
0.0
  0
SPLINE
  5
48C
100
AcDbEntity
  8
0
  6
CONTINUOUS
 62
           3
100
AcDbSpline
210
0.0
220
0.0
230
1.0
 70
           0
 71
           3
 72
           8
 73
           5
 74
           7
 42
0.00000000001
 43
0.00000000001
 44
0.00000000001
 40
0.0
 40
0.0
 40
0.0
 40
0.7097107189133609
 40
1.6878556121187511
 40
2.9354150974106523
 40
2.9354150974106523
 40
2.9354150974106523
 10
6463.0132452878424
 20
1368.0465817452309
 30
0.0
 10
6463.2266018694927
 20
1367.9869406026919
 30
0.0
 10
6464.1669045504614
 20
1367.724090842949
 30
0.0
 10
6465.1443418916824
 20
1367.6541020998629
 30
0.0
 10
6465.8999967216723
 20
1367.599993944252
 30
0.0
 11
6463.0132452878424
 21
1368.0465817452309
 31
0.0
 11
6463.272107507798
 21
1367.9742200752089
 31
0.0
 11
6463.621981004364
 21
1367.8764173502204
 31
0.0
 11
6464.1380638628543
 21
1367.7544828668381
 31
0.0
 11
6464.5964653461269
 21
1367.6933324312331
 31
0.0
 11
6465.1962864627903
 21
1367.6503826438029
 31
0.0
 11
6465.8999967216723
 21
1367.599993944252
 31
0.0
  0
SPLINE
  5
48B
100
AcDbEntity
  8
0
  6
CONTINUOUS
 62
           3
100
AcDbSpline
210
0.0
220
0.0
230
1.0
 70
           0
 71
           3
 72
           8
 73
           5
 74
           7
 42
0.00000000001
 43
0.00000000001
 44
0.00000000001
 40
0.0
 40
0.0
 40
0.0
 40
0.2779454797516371
 40
0.7862825386950116
 40
1.5429638907272794
 40
1.5429638907272794
 40
1.5429638907272794
 10
6470.2301237560014
 20
1372.600004077038
 30
0.0
 10
6470.1959072114214
 20
1372.59955838478
 30
0.0
 10
6469.7084964933083
 20
1372.593209550123
 30
0.0
 10
6469.2308570261512
 20
1372.3653136956159
 30
0.0
 10
6468.7867481555004
 20
1372.1534162760579
 30
0.0
 11
6470.2301237560014
 21
1372.600004077038
 31
0.0
 11
6470.1613872618482
 21
1372.5991087404777
 31
0.0
 11
6470.0236108685485
 21
1372.5973141153122
 31
0.0
 11
6469.7392912317318
 21
1372.5713411810675
 31
0.0
 11
6469.516561071765
 21
1372.5016315087123
 31
0.0
 11
6469.1912558198919
 21
1372.3464187940006
 31
0.0
 11
6468.7867481555004
 21
1372.1534162760579
 31
0.0
  0
SPLINE
  5
48A
100
AcDbEntity
  8
0
  6
CONTINUOUS
 62
           3
100
AcDbSpline
210
0.0
220
0.0
230
1.0
 70
           0
 71
           3
 72
           8
 73
           5
 74
           7
 42
0.00000000001
 43
0.00000000001
 44
0.00000000001
 40
0.0
 40
0.0
 40
0.0
 40
0.2779464854282294
 40
0.7862840843636473
 40
1.5429642658955129
 40
1.5429642658955129
 40
1.5429642658955129
 10
6470.2301237560014
 20
1367.599993944252
 30
0.0
 10
6470.2643403053617
 20
1367.6004396396311
 30
0.0
 10
6470.7517530244504
 20
1367.6067885438611
 30
0.0
 10
6471.2293915039982
 20
1367.83468432782
 30
0.0
 10
6471.673499589363
 20
1368.046581745308
 30
0.0
 11
6470.2301237560014
 21
1367.599993944252
 31
0.0
 11
6470.2988605017508
 21
1367.6008892902287
 31
0.0
 11
6470.4366376402795
 21
1367.602683937401
 31
0.0
 11
6470.7209580094641
 21
1367.6286569312426
 31
0.0
 11
6470.9436883486815
 21
1367.6983666998476
 31
0.0
 11
6471.26899273651
 21
1367.8535792751986
 31
0.0
 11
6471.673499589363
 21
1368.046581745308
 31
0.0
  0
SPLINE
  5
489
100
AcDbEntity
  8
0
  6
CONTINUOUS
 62
           3
100
AcDbSpline
210
0.0
220
0.0
230
1.0
 70
           0
 71
           3
 72
           8
 73
           5
 74
           7
 42
0.00000000001
 43
0.00000000001
 44
0.00000000001
 40
0.0
 40
0.0
 40
0.0
 40
0.2779464854372318
 40
0.7862840843763406
 40
1.5429642658567531
 40
1.5429642658567531
 40
1.5429642658567531
 10
6461.5698696873433
 20
1372.600004077038
 30
0.0
 10
6461.5356531379794
 20
1372.5995583816659
 30
0.0
 10
6461.0482404188797
 20
1372.5932094774359
 30
0.0
 10
6460.5706019393392
 20
1372.3653136934699
 30
0.0
 10
6460.1264938539707
 20
1372.153416276105
 30
0.0
 11
6461.5698696873433
 21
1372.600004077038
 31
0.0
 11
6461.5011329415902
 21
1372.5991087310665
 31
0.0
 11
6461.3633558030551
 21
1372.597314083896
 31
0.0
 11
6461.0790354338633
 21
1372.5713410900526
 31
0.0
 11
6460.8563050946432
 21
1372.5016313214426
 31
0.0
 11
6460.5310007068238
 21
1372.346418746122
 31
0.0
 11
6460.1264938539707
 21
1372.153416276105
 31
0.0
  0
SPLINE
  5
488
100
AcDbEntity
  8
0
  6
CONTINUOUS
 62
           3
100
AcDbSpline
210
0.0
220
0.0
230
1.0
 70
           0
 71
           3
 72
           8
 73
           5
 74
           7
 42
0.00000000001
 43
0.00000000001
 44
0.00000000001
 40
0.0
 40
0.0
 40
0.0
 40
0.2779454797471092
 40
0.7862825386905874
 40
1.5429638907232051
 40
1.5429638907232051
 40
1.5429638907232051
 10
6461.5698696873433
 20
1367.599993944252
 30
0.0
 10
6461.6040862319214
 20
1367.6004396365099
 30
0.0
 10
6462.0914969500291
 20
1367.6067884711699
 30
0.0
 10
6462.5691364171944
 20
1367.8346843256729
 30
0.0
 10
6463.0132452878424
 20
1368.0465817452309
 30
0.0
 11
6461.5698696873433
 21
1367.599993944252
 31
0.0
 11
6461.6386061814937
 21
1367.6008892808127
 31
0.0
 11
6461.7763825747907
 21
1367.6026839059787
 31
0.0
 11
6462.0607022116064
 21
1367.6286568402243
 31
0.0
 11
6462.2834323715751
 21
1367.698366512579
 31
0.0
 11
6462.6087376234518
 21
1367.8535792272892
 31
0.0
 11
6463.0132452878424
 21
1368.0465817452309
 31
0.0
  0
SPLINE
  5
487
100
AcDbEntity
  8
0
  6
CONTINUOUS
 62
           3
100
AcDbSpline
210
0.0
220
0.0
230
1.0
 70
           0
 71
           3
 72
           8
 73
           5
 74
           7
 42
0.00000000001
 43
0.00000000001
 44
0.00000000001
 40
0.0
 40
0.0
 40
0.0
 40
0.4813884775056248
 40
1.3325655942399366
 40
2.5594910572534291
 40
2.5594910572534291
 40
2.5594910572534291
 10
6463.3999967775517
 20
1384.1999992728961
 30
0.0
 10
6463.4592615843931
 20
1384.20044497155
 30
0.0
 10
6464.3034817008293
 20
1384.2067938958239
 30
0.0
 10
6465.1307775679588
 20
1384.434685841723
 30
0.0
 10
6465.8999967216723
 20
1384.6465796232919
 30
0.0
 11
6463.3999967775517
 21
1384.1999992728961
 31
0.0
 11
6463.5206888783669
 21
1384.2009069331054
 31
0.0
 11
6463.7642355671278
 21
1384.2027385164256
 31
0.0
 11
6464.2533839007065
 21
1384.2291158106389
 31
0.0
 11
6464.6423366340423
 21
1384.3001369344822
 31
0.0
 11
6465.2009721229078
 21
1384.4540220603049
 31
0.0
 11
6465.8999967216723
 21
1384.6465796232919
 31
0.0
  0
SPLINE
  5
486
100
AcDbEntity
  8
0
  6
CONTINUOUS
 62
           3
100
AcDbSpline
210
0.0
220
0.0
230
1.0
 70
           0
 71
           3
 72
           8
 73
           5
 74
           7
 42
0.00000000001
 43
0.00000000001
 44
0.00000000001
 40
0.0
 40
0.0
 40
0.0
 40
0.4813883392837732
 40
1.3325653926426326
 40
2.5594910488304481
 40
2.5594910488304481
 40
2.5594910488304481
 10
6468.3999966657602
 20
1384.1999992728961
 30
0.0
 10
6468.4592614719431
 20
1384.2004449713061
 30
0.0
 10
6469.3034813132899
 20
1384.206793890062
 30
0.0
 10
6470.1307773327781
 20
1384.434685841552
 30
0.0
 10
6470.8999966098627
 20
1384.646579623299
 30
0.0
 11
6468.3999966657602
 21
1384.1999992728961
 31
0.0
 11
6468.5206887308796
 21
1384.2009069323462
 31
0.0
 11
6468.7642353138726
 21
1384.2027385138767
 31
0.0
 11
6469.2533835507402
 21
1384.2291158030575
 31
0.0
 11
6469.6423362625128
 21
1384.3001369182302
 31
0.0
 11
6470.2009718844829
 21
1384.454022056158
 31
0.0
 11
6470.8999966098627
 21
1384.646579623299
 31
0.0
  0
SPLINE
  5
485
100
AcDbEntity
  8
0
  6
CONTINUOUS
 62
           3
100
AcDbSpline
210
0.0
220
0.0
230
1.0
 70
           0
 71
           3
 72
           8
 73
           5
 74
           7
 42
0.00000000001
 43
0.00000000001
 44
0.00000000001
 40
0.0
 40
0.0
 40
0.0
 40
0.0169507227493568
 40
0.147615155370886
 40
0.4465803504028827
 40
0.4465803504028827
 40
0.4465803504028827
 10
6460.899996833431
 20
1384.1999992728961
 30
0.0
 10
6460.899996833431
 20
1384.2056076981789
 30
0.0
 10
6460.899996833431
 20
1384.228292293112
 30
0.0
 10
6460.899996833431
 20
1384.466936563422
 30
0.0
 10
6460.8999968334711
 20
1384.646579623299
 30
0.0
 11
6460.899996833431
 21
1384.1999992728961
 31
0.0
 11
6460.8999968334319
 21
1384.2048568127279
 31
0.0
 11
6460.899996833431
 21
1384.2082125816573
 31
0.0
 11
6460.899996833431
 21
1384.2414172487547
 31
0.0
 11
6460.8999968334319
 21
1384.3008718271369
 31
0.0
 11
6460.8999968334419
 21
1384.47033114432
 31
0.0
 11
6460.8999968334711
 21
1384.646579623299
 31
0.0
  0
SPLINE
  5
484
100
AcDbEntity
  8
0
  6
CONTINUOUS
 62
           3
100
AcDbSpline
210
0.0
220
0.0
230
1.0
 70
           0
 71
           3
 72
           8
 73
           5
 74
           7
 42
0.00000000001
 43
0.00000000001
 44
0.00000000001
 40
0.0
 40
0.0
 40
0.0
 40
0.2989651950319967
 40
0.4296296276535259
 40
0.4465803504028827
 40
0.4465803504028827
 40
0.4465803504028827
 10
6470.8999966098627
 20
1384.646579623299
 30
0.0
 10
6470.89999660991
 20
1384.466936563422
 30
0.0
 10
6470.89999660991
 20
1384.228292293112
 30
0.0
 10
6470.89999660991
 20
1384.2056076981789
 30
0.0
 10
6470.89999660991
 20
1384.1999992728961
 30
0.0
 11
6470.8999966098627
 21
1384.646579623299
 31
0.0
 11
6470.8999966098982
 21
1384.47033114432
 31
0.0
 11
6470.89999660991
 21
1384.3008718271369
 31
0.0
 11
6470.89999660991
 21
1384.2414172487547
 31
0.0
 11
6470.89999660991
 21
1384.2082125816573
 31
0.0
 11
6470.8999966099109
 21
1384.2048568127279
 31
0.0
 11
6470.89999660991
 21
1384.1999992728961
 31
0.0
  0
CIRCLE
  5
483
100
AcDbEntity
  8
1
  6
CONTINUOUS
 62
           4
100
AcDbCircle
 10
0.0
 20
5935.0
 40
100.9476
  0
CIRCLE
  5
482
100
AcDbEntity
  8
1
  6
CONTINUOUS
 62
           4
100
AcDbCircle
 10
0.0
 20
5935.0
 40
125.0
  0
CIRCLE
  5
481
100
AcDbEntity
  8
1
  6
CONTINUOUS
 62
           7
100
AcDbCircle
 10
0.0
 20
5935.0
 40
399.999999999999
  0
CIRCLE
  5
480
100
AcDbEntity
  8
1
  6
CONTINUOUS
 62
           3
100
AcDbCircle
 10
-1241.527744678122
 20
1295.200848327049
 40
40.0
  0
CIRCLE
  5
47F
100
AcDbEntity
  8
1
  6
CONTINUOUS
 62
           7
100
AcDbCircle
 10
-2200.0
 20
4685.0
 40
45.0
  0
CIRCLE
  5
47E
100
AcDbEntity
  8
1
  6
CONTINUOUS
 62
           7
100
AcDbCircle
 10
1300.0
 20
4685.0
 40
45.0
  0
CIRCLE
  5
47D
100
AcDbEntity
  8
1
  6
CONTINUOUS
 62
           7
100
AcDbCircle
 10
-450.0
 20
4685.0
 40
45.0
  0
CIRCLE
  5
47C
100
AcDbEntity
  8
1
  6
CONTINUOUS
 62
           7
100
AcDbCircle
 10
6850.0
 20
600.000000000002
 40
15.0
  0
CIRCLE
  5
47B
100
AcDbEntity
  8
1
  6
CONTINUOUS
 62
           2
100
AcDbCircle
 10
6850.0
 20
600.000000000002
 40
8.35
  0
CIRCLE
  5
47A
100
AcDbEntity
  8
1
  6
CONTINUOUS
 62
           7
100
AcDbCircle
 10
5649.999999999998
 20
1500.000000000002
 40
9.25
  0
CIRCLE
  5
479
100
AcDbEntity
  8
1
  6
CONTINUOUS
 62
           7
100
AcDbCircle
 10
5649.999999999998
 20
1500.000000000002
 40
40.0
  0
CIRCLE
  5
478
100
AcDbEntity
  8
1
  6
CONTINUOUS
 62
           7
100
AcDbCircle
 10
5879.999999999998
 20
1500.000000000002
 40
40.0
  0
CIRCLE
  5
477
100
AcDbEntity
  8
1
  6
CONTINUOUS
 62
           7
100
AcDbCircle
 10
5879.999999999998
 20
1515.000000000002
 40
10.0
  0
CIRCLE
  5
476
100
AcDbEntity
  8
1
  6
CONTINUOUS
 62
           7
100
AcDbCircle
 10
5879.999999999998
 20
1485.000000000002
 40
10.0
  0
ARC
  5
475
100
AcDbEntity
  8
1
  6
CONTINUOUS
 62
           7
100
AcDbCircle
 10
0.0
 20
5935.0
 40
150.0
100
AcDbArc
 50
-90.0
 51
-23.882765003116
  0
ARC
  5
474
100
AcDbEntity
  8
1
  6
CONTINUOUS
 62
           7
100
AcDbCircle
 10
0.0
 20
5935.0
 40
132.84
100
AcDbArc
 50
-75.809724714479
 51
-75.809724714479
  0
ARC
  5
473
100
AcDbEntity
  8
1
  6
CONTINUOUS
 62
           7
100
AcDbCircle
 10
0.0
 20
5935.0
 40
150.000000000001
100
AcDbArc
 50
23.882765003116
 51
-90.0
  0
ARC
  5
472
100
AcDbEntity
  8
0
  6
CONTINUOUS
 62
           7
100
AcDbCircle
 10
44.999999999996
 20
5912.0
 40
469.999999999996
100
AcDbArc
 50
31.359627184827
 51
72.547531235071
  0
ARC
  5
471
100
AcDbEntity
  8
1
  6
CONTINUOUS
 62
           7
100
AcDbCircle
 10
181.182082628213
 20
6361.83823800455
 40
5.000000000002
100
AcDbArc
 50
163.461829900476
 51
-17.147702543115
  0
ARC
  5
470
100
AcDbEntity
  8
1
  6
CONTINUOUS
 62
           7
100
AcDbCircle
 10
529.981720683263
 20
5860.515926598166
 40
4.999999999999
100
AcDbArc
 50
89.793306572326
 51
-90.727565944082
  0
ARC
  5
46F
100
AcDbEntity
  8
0
  6
CONTINUOUS
 62
           7
100
AcDbCircle
 10
-20.000000000004
 20
5865.0
 40
550.000000000001
100
AcDbArc
 50
-65.3714141245
 51
-0.988002202365
  0
ARC
  5
46E
100
AcDbEntity
  8
0
  6
CONTINUOUS
 62
           7
100
AcDbCircle
 10
-20.000000000004
 20
5865.0
 40
550.000000000004
100
AcDbArc
 50
0.053742830624
 51
18.194147279427
  0
ARC
  5
46D
100
AcDbEntity
  8
1
  6
CONTINUOUS
 62
           7
100
AcDbCircle
 10
500.919408978727
 20
6041.473707246298
 40
5.000000000001
100
AcDbArc
 50
108.975456054169
 51
-71.545416462349
  0
ARC
  5
46C
100
AcDbEntity
  8
0
  6
CONTINUOUS
 62
           7
100
AcDbCircle
 10
-68.000000000004
 20
5975.0
 40
670.0
100
AcDbArc
 50
180.0
 51
-177.004902602006
  0
ARC
  5
46B
100
AcDbEntity
  8
1
  6
CONTINUOUS
 62
           7
100
AcDbCircle
 10
-736.804904288238
 20
5935.0
 40
5.0
100
AcDbArc
 50
-86.363530447536
 51
93.208888116186
  0
ARC
  5
46A
100
AcDbEntity
  8
0
  6
CONTINUOUS
 62
           7
100
AcDbCircle
 10
-68.000000000004
 20
5974.999999999998
 40
669.999999999997
100
AcDbArc
 50
-176.149739729349
 51
-90.0
  0
ARC
  5
469
100
AcDbEntity
  8
0
  6
CONTINUOUS
 62
           7
100
AcDbCircle
 10
-20.000000000004
 20
5865.0
 40
550.000000000002
100
AcDbArc
 50
19.235892312416
 51
32.0167313156
  0
ARC
  5
468
100
AcDbEntity
  8
0
  6
CONTINUOUS
 62
           7
100
AcDbCircle
 10
44.999999999996
 20
5912.0
 40
469.999999999995
100
AcDbArc
 50
73.766596122265
 51
91.7405042324
  0
ARC
  5
467
100
AcDbEntity
  8
0
  6
CONTINUOUS
 62
           7
100
AcDbCircle
 10
-68.000000000004
 20
5975.0
 40
670.0
100
AcDbArc
 50
-90.0
 51
-65.560184603744
  0
ARC
  5
466
100
AcDbEntity
  8
7
  6
CONTINUOUS
 62
           7
100
AcDbCircle
 10
-113.959999999999
 20
3178.133628400005
 40
7.440000000001
100
AcDbArc
 50
122.681915000002
 51
180.0
  0
ARC
  5
465
100
AcDbEntity
  8
7
  6
CONTINUOUS
 62
           7
100
AcDbCircle
 10
-88.52
 20
3204.160000000004
 40
3.84
100
AcDbArc
 50
90.0
 51
180.0
  0
ARC
  5
464
100
AcDbEntity
  8
7
  6
CONTINUOUS
 62
           7
100
AcDbCircle
 10
-94.759999999998
 20
3204.449360800003
 40
2.399999999999
100
AcDbArc
 50
-54.999999999961
 51
0.0
  0
ARC
  5
463
100
AcDbEntity
  8
7
  6
CONTINUOUS
 62
           7
100
AcDbCircle
 10
85.52
 20
3204.160000000004
 40
3.84
100
AcDbArc
 50
0.0
 51
90.0
  0
ARC
  5
462
100
AcDbEntity
  8
7
  6
CONTINUOUS
 62
           7
100
AcDbCircle
 10
91.759999999998
 20
3204.449360800003
 40
2.399999999998
100
AcDbArc
 50
180.0
 51
-124.999999999967
  0
ARC
  5
461
100
AcDbEntity
  8
7
  6
CONTINUOUS
 62
           7
100
AcDbCircle
 10
116.5078244
 20
3184.600000000004
 40
2.399999999996
100
AcDbArc
 50
-124.99999999998
 51
-90.0
  0
ARC
  5
460
100
AcDbEntity
  8
7
  6
CONTINUOUS
 62
           7
100
AcDbCircle
 10
117.560000000001
 20
3178.360000000006
 40
3.839999999997
100
AcDbArc
 50
0.0
 51
90.0
  0
ARC
  5
45F
100
AcDbEntity
  8
7
  6
CONTINUOUS
 62
           7
100
AcDbCircle
 10
7167.560000000009
 20
3178.360000000003
 40
3.84
100
AcDbArc
 50
0.0
 51
90.0
  0
ARC
  5
45E
100
AcDbEntity
  8
7
  6
CONTINUOUS
 62
           7
100
AcDbCircle
 10
7166.507824400011
 20
3184.600000000002
 40
2.399999999999
100
AcDbArc
 50
-125.000000000032
 51
-90.0
  0
ARC
  5
45D
100
AcDbEntity
  8
7
  6
CONTINUOUS
 62
           7
100
AcDbCircle
 10
7141.760000000006
 20
3204.449360800001
 40
2.400000000001
100
AcDbArc
 50
180.0
 51
-125.000000000032
  0
ARC
  5
45C
100
AcDbEntity
  8
7
  6
CONTINUOUS
 62
           7
100
AcDbCircle
 10
7135.520000000008
 20
3204.160000000002
 40
3.839999999997
100
AcDbArc
 50
0.0
 51
90.0
  0
ARC
  5
45B
100
AcDbEntity
  8
7
  6
CONTINUOUS
 62
           7
100
AcDbCircle
 10
6955.240000000005
 20
3204.449360800001
 40
2.399999999999
100
AcDbArc
 50
-54.999999999967
 51
0.0
  0
ARC
  5
45A
100
AcDbEntity
  8
7
  6
CONTINUOUS
 62
           7
100
AcDbCircle
 10
6961.480000000007
 20
3204.160000000002
 40
3.84
100
AcDbArc
 50
90.0
 51
180.0
  0
ARC
  5
459
100
AcDbEntity
  8
7
  6
CONTINUOUS
 62
           7
100
AcDbCircle
 10
6936.040000000008
 20
3178.133628400003
 40
7.440000000001
100
AcDbArc
 50
122.681915000004
 51
180.0
  0
ARC
  5
458
100
AcDbEntity
  8
0
  6
CONTINUOUS
 62
           3
100
AcDbCircle
 10
6465.899996721672
 20
1355.000000000218
 40
4.0
100
AcDbArc
 50
180.0
 51
0.0
  0
ARC
  5
457
100
AcDbEntity
  8
0
  6
CONTINUOUS
 62
           3
100
AcDbCircle
 10
6465.899996721672
 20
1315.000000000055
 40
45.999999999971
100
AcDbArc
 50
180.0
 51
0.0
  0
ARC
  5
456
100
AcDbEntity
  8
0
  6
CONTINUOUS
 62
           3
100
AcDbCircle
 10
6465.899996721672
 20
1315.000000000055
 40
53.999999999964
100
AcDbArc
 50
180.0
 51
0.0
  0
ARC
  5
455
100
AcDbEntity
  8
0
  6
CONTINUOUS
 62
           3
100
AcDbCircle
 10
6459.42649402987
 20
1389.999999999993
 40
0.900000000001
100
AcDbArc
 50
-117.266044450466
 51
-90.0
  0
ARC
  5
454
100
AcDbEntity
  8
0
  6
CONTINUOUS
 62
           3
100
AcDbCircle
 10
6472.37349941346
 20
1389.999999999993
 40
0.900000000002
100
AcDbArc
 50
-90.0
 51
-62.733955549533
  0
ARC
  5
453
100
AcDbEntity
  8
0
  6
CONTINUOUS
 62
           3
100
AcDbCircle
 10
6407.899996721812
 20
1530.999999999876
 40
0.999999999996
100
AcDbArc
 50
-90.0
 51
90.0
  0
ARC
  5
452
100
AcDbEntity
  8
0
  6
CONTINUOUS
 62
           3
100
AcDbCircle
 10
6523.89999672152
 20
1530.999999999876
 40
1.0
100
AcDbArc
 50
90.0
 51
-90.0
  0
ARC
  5
451
100
AcDbEntity
  8
0
  6
CONTINUOUS
 62
           3
100
AcDbCircle
 10
6523.89999672152
 20
1508.999999999993
 40
1.0
100
AcDbArc
 50
90.0
 51
-90.0
  0
ARC
  5
450
100
AcDbEntity
  8
0
  6
CONTINUOUS
 62
           3
100
AcDbCircle
 10
6523.89999672152
 20
1431.000000000058
 40
0.999999999997
100
AcDbArc
 50
90.0
 51
-90.0
  0
ARC
  5
44F
100
AcDbEntity
  8
0
  6
CONTINUOUS
 62
           3
100
AcDbCircle
 10
6523.89999672152
 20
1409.000000000175
 40
1.0
100
AcDbArc
 50
90.0
 51
-90.0
  0
ARC
  5
44E
100
AcDbEntity
  8
0
  6
CONTINUOUS
 62
           3
100
AcDbCircle
 10
6407.899996721812
 20
1409.000000000175
 40
0.999999999997
100
AcDbArc
 50
-90.0
 51
90.0
  0
ARC
  5
44D
100
AcDbEntity
  8
0
  6
CONTINUOUS
 62
           3
100
AcDbCircle
 10
6407.899996721812
 20
1431.000000000058
 40
1.0
100
AcDbArc
 50
-90.0
 51
90.0
  0
ARC
  5
44C
100
AcDbEntity
  8
0
  6
CONTINUOUS
 62
           3
100
AcDbCircle
 10
6407.899996721812
 20
1508.999999999993
 40
0.999999999997
100
AcDbArc
 50
-90.0
 51
90.0
  0
ARC
  5
44B
100
AcDbEntity
  8
0
  6
CONTINUOUS
 62
           3
100
AcDbCircle
 10
6403.399996721822
 20
1368.000000000109
 40
2.49999999999
100
AcDbArc
 50
0.0
 51
180.0
  0
ARC
  5
44A
100
AcDbEntity
  8
0
  6
CONTINUOUS
 62
           3
100
AcDbCircle
 10
6403.399996721822
 20
1631.999999999895
 40
2.5
100
AcDbArc
 50
180.0
 51
0.0
  0
ARC
  5
449
100
AcDbEntity
  8
0
  6
CONTINUOUS
 62
           3
100
AcDbCircle
 10
6528.399996721512
 20
1631.999999999895
 40
2.499999999992
100
AcDbArc
 50
180.0
 51
0.0
  0
ARC
  5
448
100
AcDbEntity
  8
0
  6
CONTINUOUS
 62
           3
100
AcDbCircle
 10
6528.399996721512
 20
1368.000000000109
 40
2.5
100
AcDbArc
 50
0.0
 51
180.0
  0
ARC
  5
447
100
AcDbEntity
  8
1
  6
CONTINUOUS
 62
           3
100
AcDbCircle
 10
6970.16356769104
 20
1924.999999999996
 40
5.871834995065
100
AcDbArc
 50
-90.0
 51
0.0
  0
ARC
  5
446
100
AcDbEntity
  8
1
  6
CONTINUOUS
 62
           3
100
AcDbCircle
 10
6970.16356769104
 20
1924.999999999996
 40
5.871834995069
100
AcDbArc
 50
38.599713917924
 51
90.0
  0
ARC
  5
445
100
AcDbEntity
  8
1
  6
CONTINUOUS
 62
           3
100
AcDbCircle
 10
6970.16356769104
 20
1924.999999999996
 40
5.871834995061
100
AcDbArc
 50
0.0
 51
38.599713917924
  0
ARC
  5
444
100
AcDbEntity
  8
1
  6
CONTINUOUS
 62
           3
100
AcDbCircle
 10
6970.16356769104
 20
1924.999999999996
 40
9.5
100
AcDbArc
 50
0.0
 51
125.916957371437
  0
ARC
  5
443
100
AcDbEntity
  8
1
  6
CONTINUOUS
 62
           3
100
AcDbCircle
 10
6970.16356769104
 20
1924.999999999996
 40
9.499999999998
100
AcDbArc
 50
-124.797812779181
 51
0.0
  0
ARC
  5
442
100
AcDbEntity
  8
1
  6
CONTINUOUS
 62
           3
100
AcDbCircle
 10
-1241.527744678122
 20
1295.200848327049
 40
28.75000000001
100
AcDbArc
 50
83.827497999999
 51
96.172501999989
  0
ARC
  5
441
100
AcDbEntity
  8
1
  6
CONTINUOUS
 62
           3
100
AcDbCircle
 10
-1241.527744678122
 20
1295.200848327049
 40
28.749999999987
100
AcDbArc
 50
-96.172501999994
 51
-83.827497999994
  0
ARC
  5
440
100
AcDbEntity
  8
1
  6
CONTINUOUS
 62
           3
100
AcDbCircle
 10
-1241.527744678122
 20
1295.200848327049
 40
10.75
100
AcDbArc
 50
0.0
 51
61.226493000003
  0
ARC
  5
43F
100
AcDbEntity
  8
1
  6
CONTINUOUS
 62
           3
100
AcDbCircle
 10
-1241.527744678122
 20
1295.200848327049
 40
10.749999999999
100
AcDbArc
 50
-61.226493000019
 51
0.0
  0
ARC
  5
43E
100
AcDbEntity
  8
1
  6
CONTINUOUS
 62
           3
100
AcDbCircle
 10
-1241.527744678122
 20
1295.200848327049
 40
10.749999999991
100
AcDbArc
 50
118.773506999973
 51
-118.773506999957
  0
ARC
  5
43D
100
AcDbEntity
  8
1
  6
CONTINUOUS
 62
           3
100
AcDbCircle
 10
-1237.489442678123
 20
1295.200848327049
 40
9.999999999999
100
AcDbArc
 50
174.99320699997
 51
-174.993207000022
  0
ARC
  5
43C
100
AcDbEntity
  8
1
  6
CONTINUOUS
 62
           3
100
AcDbCircle
 10
-1245.566047678116
 20
1295.200848327049
 40
9.999999999998
100
AcDbArc
 50
-5.006792999978
 51
5.00679300003
  0
ARC
  5
43B
100
AcDbEntity
  8
1
  6
CONTINUOUS
 62
           3
100
AcDbCircle
 10
-1244.565247678122
 20
1323.287074327051
 40
0.499999999998
100
AcDbArc
 50
96.172501999334
 51
174.993206998791
  0
ARC
  5
43A
100
AcDbEntity
  8
1
  6
CONTINUOUS
 62
           3
100
AcDbCircle
 10
-1238.490241678123
 20
1323.287074327051
 40
0.500000000005
100
AcDbArc
 50
5.006793001129
 51
83.827497998153
  0
ARC
  5
439
100
AcDbEntity
  8
1
  6
CONTINUOUS
 62
           3
100
AcDbCircle
 10
-1244.565247678122
 20
1267.114622327059
 40
0.499999999996
100
AcDbArc
 50
-174.9932069997
 51
-96.172501999309
  0
ARC
  5
438
100
AcDbEntity
  8
1
  6
CONTINUOUS
 62
           3
100
AcDbCircle
 10
-1238.490241678123
 20
1267.114622327059
 40
0.500000000002
100
AcDbArc
 50
-83.827497998178
 51
-5.00679300022
  0
ARC
  5
437
100
AcDbEntity
  8
1
  6
CONTINUOUS
 62
           7
100
AcDbCircle
 10
5649.999999999998
 20
1500.000000000002
 40
52.500000000001
100
AcDbArc
 50
148.774146998023
 51
-148.774146998023
  0
ARC
  5
436
100
AcDbEntity
  8
1
  6
CONTINUOUS
 62
           7
100
AcDbCircle
 10
5649.999999999998
 20
1500.000000000002
 40
52.499999999998
100
AcDbArc
 50
58.774146998026
 51
121.225853001972
  0
ARC
  5
435
100
AcDbEntity
  8
1
  6
CONTINUOUS
 62
           7
100
AcDbCircle
 10
5649.999999999998
 20
1500.000000000002
 40
52.5
100
AcDbArc
 50
0.0
 51
31.225853001975
  0
ARC
  5
434
100
AcDbEntity
  8
1
  6
CONTINUOUS
 62
           7
100
AcDbCircle
 10
5605.338834764832
 20
1455.338834764832
 40
12.5
100
AcDbArc
 50
135.000000000017
 51
-45.000000000001
  0
ARC
  5
433
100
AcDbEntity
  8
1
  6
CONTINUOUS
 62
           7
100
AcDbCircle
 10
5605.338834764832
 20
1544.661165235162
 40
12.500000000004
100
AcDbArc
 50
45.000000000034
 51
-135.000000000046
  0
ARC
  5
432
100
AcDbEntity
  8
1
  6
CONTINUOUS
 62
           7
100
AcDbCircle
 10
5694.661165235168
 20
1544.661165235162
 40
12.499999999991
100
AcDbArc
 50
-44.999999999965
 51
134.999999999972
  0
ARC
  5
431
100
AcDbEntity
  8
1
  6
CONTINUOUS
 62
           7
100
AcDbCircle
 10
5649.999999999998
 20
1500.000000000002
 40
52.500000000005
100
AcDbArc
 50
-121.225853001967
 51
-58.774146998031
  0
ARC
  5
430
100
AcDbEntity
  8
1
  6
CONTINUOUS
 62
           7
100
AcDbCircle
 10
5649.999999999998
 20
1500.000000000002
 40
52.500000000003
100
AcDbArc
 50
-31.225853001975
 51
0.0
  0
ARC
  5
42F
100
AcDbEntity
  8
1
  6
CONTINUOUS
 62
           7
100
AcDbCircle
 10
5694.661165235168
 20
1455.338834764832
 40
12.499999999998
100
AcDbArc
 50
-135.000000000005
 51
44.999999999995
  0
ARC
  5
42E
100
AcDbEntity
  8
1
  6
CONTINUOUS
 62
           7
100
AcDbCircle
 10
5924.661165235168
 20
1455.338834764832
 40
12.499999999998
100
AcDbArc
 50
-135.000000000002
 51
44.999999999995
  0
ARC
  5
42D
100
AcDbEntity
  8
1
  6
CONTINUOUS
 62
           7
100
AcDbCircle
 10
5879.999999999998
 20
1500.000000000002
 40
52.500000000003
100
AcDbArc
 50
-31.225853001975
 51
0.0
  0
ARC
  5
42C
100
AcDbEntity
  8
1
  6
CONTINUOUS
 62
           7
100
AcDbCircle
 10
5879.999999999998
 20
1500.000000000002
 40
52.500000000005
100
AcDbArc
 50
-121.225853001967
 51
-58.77414699803
  0
ARC
  5
42B
100
AcDbEntity
  8
1
  6
CONTINUOUS
 62
           7
100
AcDbCircle
 10
5924.661165235168
 20
1544.661165235162
 40
12.499999999991
100
AcDbArc
 50
-44.999999999965
 51
134.999999999969
  0
ARC
  5
42A
100
AcDbEntity
  8
1
  6
CONTINUOUS
 62
           7
100
AcDbCircle
 10
5835.338834764832
 20
1544.661165235162
 40
12.500000000004
100
AcDbArc
 50
45.000000000034
 51
-135.000000000046
  0
ARC
  5
429
100
AcDbEntity
  8
1
  6
CONTINUOUS
 62
           7
100
AcDbCircle
 10
5835.338834764832
 20
1455.338834764832
 40
12.5
100
AcDbArc
 50
135.000000000017
 51
-45.000000000001
  0
ARC
  5
428
100
AcDbEntity
  8
1
  6
CONTINUOUS
 62
           7
100
AcDbCircle
 10
5879.999999999998
 20
1500.000000000002
 40
52.5
100
AcDbArc
 50
0.0
 51
31.225853001975
  0
ARC
  5
427
100
AcDbEntity
  8
1
  6
CONTINUOUS
 62
           7
100
AcDbCircle
 10
5879.999999999998
 20
1500.000000000002
 40
52.499999999999
100
AcDbArc
 50
58.774146998025
 51
121.225853001972
  0
ARC
  5
426
100
AcDbEntity
  8
1
  6
CONTINUOUS
 62
           7
100
AcDbCircle
 10
5879.999999999998
 20
1500.000000000002
 40
52.500000000001
100
AcDbArc
 50
148.774146998023
 51
-148.774146998023
  0
ARC
  5
425
100
AcDbEntity
  8
1
  6
CONTINUOUS
 62
           7
100
AcDbCircle
 10
-119.499363867686
 20
5895.0
 40
710.126818226704
100
AcDbArc
 50
-80.312233948152
 51
-80.298955578721
  0
ARC
  5
424
100
AcDbEntity
  8
1
  6
CONTINUOUS
 62
           7
100
AcDbCircle
 10
2579.0
 20
4535.0
 40
17.0
100
AcDbArc
 50
-90.0
 51
90.0
  0
ARC
  5
423
100
AcDbEntity
  8
1
  6
CONTINUOUS
 62
           7
100
AcDbCircle
 10
2579.0
 20
4765.0
 40
17.0
100
AcDbArc
 50
-90.0
 51
90.0
  0
LINE
  5
422
100
AcDbEntity
  8
1
  6
CONTINUOUS
 62
           4
100
AcDbLine
 10
134.432661752784
 20
5877.500000000002
 11
117.908702762044
 21
5877.500000000002
  0
LINE
  5
421
100
AcDbEntity
  8
1
  6
CONTINUOUS
 62
           4
100
AcDbLine
 10
134.432661752784
 20
5992.500000000002
 11
117.908702762044
 21
5992.500000000002
  0
LINE
  5
420
100
AcDbEntity
  8
1
  6
CONTINUOUS
 62
           7
100
AcDbLine
 10
185.0
 20
5871.500000000002
 11
144.824966598197
 21
5871.500000000002
  0
LINE
  5
41F
100
AcDbEntity
  8
1
  6
CONTINUOUS
 62
           7
100
AcDbLine
 10
144.824966598197
 20
5998.500000000002
 11
185.0
 21
5998.500000000002
  0
LINE
  5
41E
100
AcDbEntity
  8
1
  6
CONTINUOUS
 62
           7
100
AcDbLine
 10
132.824966598197
 20
5883.500000000002
 11
132.824966598197
 21
5986.500000000002
  0
LINE
  5
41D
100
AcDbEntity
  8
1
  6
CONTINUOUS
 62
           7
100
AcDbLine
 10
197.0
 20
5986.500000000002
 11
197.0
 21
5883.500000000002
  0
LINE
  5
41C
100
AcDbEntity
  8
1
  6
DOT_CENTER
 62
           2
100
AcDbLine
 10
-365.0
 20
6578.027293831616
 11
-365.0
 21
6131.695406410117
  0
LINE
  5
41B
100
AcDbEntity
  8
1
  6
CONTINUOUS
 62
           7
100
AcDbLine
 10
226.0
 20
5709.0
 11
226.0
 21
6195.0
  0
LINE
  5
41A
100
AcDbEntity
  8
1
  6
CONTINUOUS
 62
           7
100
AcDbLine
 10
-226.0
 20
5709.0
 11
260.0
 21
5709.0
  0
LINE
  5
419
100
AcDbEntity
  8
1
  6
CONTINUOUS
 62
           7
100
AcDbLine
 10
226.0
 20
6161.0
 11
-260.0
 21
6161.0
  0
LINE
  5
418
100
AcDbEntity
  8
1
  6
CONTINUOUS
 62
           7
100
AcDbLine
 10
-226.0
 20
6161.0
 11
-226.0
 21
5675.0
  0
LINE
  5
417
100
AcDbEntity
  8
0
  6
CONTINUOUS
 62
           7
100
AcDbLine
 10
30.724756890082
 20
6381.783160015504
 11
-0.000000000004
 21
6435.0
  0
LINE
  5
416
100
AcDbEntity
  8
0
  6
CONTINUOUS
 62
           7
100
AcDbLine
 10
-730.0
 20
6435.0
 11
-738.000000000004
 21
6425.0
  0
LINE
  5
415
100
AcDbEntity
  8
0
  6
CONTINUOUS
 62
           7
100
AcDbLine
 10
-738.000000000004
 20
6425.0
 11
-738.000000000004
 21
5975.0
  0
LINE
  5
414
100
AcDbEntity
  8
0
  6
CONTINUOUS
 62
           7
100
AcDbLine
 10
-730.0
 20
6445.0
 11
-730.0
 21
6435.0
  0
LINE
  5
413
100
AcDbEntity
  8
1
  6
CONTINUOUS
 62
           7
100
AcDbLine
 10
-0.000000000004
 20
6435.0
 11
-0.000000000004
 21
6445.0
  0
LINE
  5
412
100
AcDbEntity
  8
0
  6
CONTINUOUS
 62
           7
100
AcDbLine
 10
-0.000000000004
 20
6435.0
 11
-0.000000000004
 21
6445.0
  0
LINE
  5
411
100
AcDbEntity
  8
1
  6
CONTINUOUS
 62
           7
100
AcDbLine
 10
-729.116882454317
 20
5935.883117545687
 11
-220.0
 21
6445.0
  0
LINE
  5
410
100
AcDbEntity
  8
1
  6
CONTINUOUS
 62
           7
100
AcDbLine
 10
495.999999999996
 20
6043.000159772888
 11
182.0
 21
6357.0
  0
LINE
  5
40F
100
AcDbEntity
  8
1
  6
CONTINUOUS
 62
           7
100
AcDbLine
 10
-729.116882454317
 20
5935.883117545687
 11
-63.022294576589
 21
5269.788529667958
  0
LINE
  5
40E
100
AcDbEntity
  8
1
  6
CONTINUOUS
 62
           7
100
AcDbLine
 10
527.411867714178
 20
5860.222691958725
 11
-63.022294576589
 21
5269.788529667958
  0
LINE
  5
40D
100
AcDbEntity
  8
1
  6
CONTINUOUS
 62
           7
100
AcDbLine
 10
-769.000000000004
 20
6520.0
 11
-764.0
 21
6524.999999999998
  0
LINE
  5
40C
100
AcDbEntity
  8
1
  6
CONTINUOUS
 62
           7
100
AcDbLine
 10
40.999999999996
 20
6520.0
 11
35.999999999996
 21
6525.0
  0
LINE
  5
40B
100
AcDbEntity
  8
1
  6
CONTINUOUS
 62
           7
100
AcDbLine
 10
-764.0
 20
6524.999999999998
 11
35.999999999996
 21
6525.0
  0
LINE
  5
40A
100
AcDbEntity
  8
1
  6
CONTINUOUS
 62
           7
100
AcDbLine
 10
-769.000000000004
 20
6485.0
 11
-769.000000000004
 21
6520.0
  0
LINE
  5
409
100
AcDbEntity
  8
1
  6
CONTINUOUS
 62
           7
100
AcDbLine
 10
40.999999999996
 20
6520.0
 11
40.999999999996
 21
6485.0
  0
LINE
  5
408
100
AcDbEntity
  8
1
  6
CONTINUOUS
 62
           4
100
AcDbLine
 10
-769.0
 20
6489.499999999998
 11
40.999999999996
 21
6489.5
  0
LINE
  5
407
100
AcDbEntity
  8
1
  6
CONTINUOUS
 62
           4
100
AcDbLine
 10
40.999999999996
 20
6480.5
 11
-769.0
 21
6480.5
  0
LINE
  5
406
100
AcDbEntity
  8
1
  6
CONTINUOUS
 62
           7
100
AcDbLine
 10
40.999999999996
 20
6485.0
 11
40.999999999996
 21
6450.0
  0
LINE
  5
405
100
AcDbEntity
  8
1
  6
CONTINUOUS
 62
           7
100
AcDbLine
 10
-769.000000000004
 20
6450.0
 11
-769.000000000004
 21
6485.0
  0
LINE
  5
404
100
AcDbEntity
  8
1
  6
CONTINUOUS
 62
           7
100
AcDbLine
 10
35.999999999996
 20
6445.0
 11
-764.0
 21
6445.0
  0
LINE
  5
403
100
AcDbEntity
  8
1
  6
CONTINUOUS
 62
           7
100
AcDbLine
 10
35.999999999996
 20
6445.0
 11
40.999999999996
 21
6450.0
  0
LINE
  5
402
100
AcDbEntity
  8
1
  6
CONTINUOUS
 62
           7
100
AcDbLine
 10
-764.0
 20
6445.0
 11
-769.000000000004
 21
6450.0
  0
LINE
  5
401
100
AcDbEntity
  8
1
  6
CONTINUOUS
 62
           7
100
AcDbLine
 10
-769.000000000004
 20
6485.0
 11
40.999999999996
 21
6485.0
  0
LINE
  5
400
100
AcDbEntity
  8
1
  6
CONTINUOUS
 62
           7
100
AcDbLine
 10
197.0
 20
2940.5
 11
197.0
 21
2864.5
  0
LINE
  5
3FF
100
AcDbEntity
  8
1
  6
CONTINUOUS
 62
           7
100
AcDbLine
 10
122.496396800001
 20
2864.5
 11
122.496396800001
 21
2940.5
  0
LINE
  5
3FE
100
AcDbEntity
  8
1
  6
CONTINUOUS
 62
           7
100
AcDbLine
 10
134.496396800001
 20
2952.5
 11
185.0
 21
2952.5
  0
LINE
  5
3FD
100
AcDbEntity
  8
1
  6
CONTINUOUS
 62
           7
100
AcDbLine
 10
185.0
 20
2852.5
 11
134.496396800001
 21
2852.5
  0
LINE
  5
3FC
100
AcDbEntity
  8
7
  6
CONTINUOUS
 62
           7
100
AcDbLine
 10
-93.383417599998
 20
3202.483396000004
 11
-117.977411600001
 21
3184.395737200004
  0
LINE
  5
3FB
100
AcDbEntity
  8
7
  6
CONTINUOUS
 62
           7
100
AcDbLine
 10
-125.0
 20
3112.186819200002
 11
-125.0
 21
3145.231865248048
  0
LINE
  5
3FA
100
AcDbEntity
  8
7
  6
CONTINUOUS
 62
           7
100
AcDbLine
 10
125.0
 20
3112.186819200002
 11
-125.0
 21
3112.186819200002
  0
LINE
  5
3F9
100
AcDbEntity
  8
7
  6
CONTINUOUS
 62
           7
100
AcDbLine
 10
121.399999999998
 20
3178.360000000006
 11
125.0
 21
3145.231865248048
  0
LINE
  5
3F8
100
AcDbEntity
  8
7
  6
CONTINUOUS
 62
           7
100
AcDbLine
 10
-120.190427599999
 20
3182.200000000005
 11
117.560000000001
 21
3182.200000000005
  0
LINE
  5
3F7
100
AcDbEntity
  8
7
  6
CONTINUOUS
 62
           7
100
AcDbLine
 10
90.3834164
 20
3202.483396000004
 11
115.131240799998
 21
3182.634035200007
  0
LINE
  5
3F6
100
AcDbEntity
  8
7
  6
CONTINUOUS
 62
           7
100
AcDbLine
 10
-88.52
 20
3208.000000000004
 11
85.52
 21
3208.000000000004
  0
LINE
  5
3F5
100
AcDbEntity
  8
2
  6
CONTINUOUS
 62
           7
100
AcDbLine
 10
122.496396800001
 20
2740.403984566909
 11
109.242370399999
 21
2708.603984566908
  0
LINE
  5
3F4
100
AcDbEntity
  8
2
  6
CONTINUOUS
 62
           7
100
AcDbLine
 10
122.496396800001
 20
2740.403984566909
 11
122.496396800001
 21
3098.386819200003
  0
LINE
  5
3F3
100
AcDbEntity
  8
2
  6
CONTINUOUS
 62
           4
100
AcDbLine
 10
109.242370399999
 20
2708.603984566908
 11
-112.242370399999
 21
2708.603984566908
  0
LINE
  5
3F2
100
AcDbEntity
  8
2
  6
CONTINUOUS
 62
           7
100
AcDbLine
 10
122.496396800001
 20
3098.386819200003
 11
116.744649199998
 21
3112.186819200002
  0
LINE
  5
3F1
100
AcDbEntity
  8
2
  6
CONTINUOUS
 62
           4
100
AcDbLine
 10
-107.060000000001
 20
2708.603984566908
 11
-107.060000000001
 21
2704.503984566908
  0
LINE
  5
3F0
100
AcDbEntity
  8
2
  6
CONTINUOUS
 62
           7
100
AcDbLine
 10
-125.496396800001
 20
2740.403984566909
 11
-125.496396800001
 21
3098.386819200003
  0
LINE
  5
3EF
100
AcDbEntity
  8
2
  6
CONTINUOUS
 62
           7
100
AcDbLine
 10
-119.744649199998
 20
3112.186819200002
 11
-125.496396800001
 21
3098.386819200003
  0
LINE
  5
3EE
100
AcDbEntity
  8
2
  6
CONTINUOUS
 62
           7
100
AcDbLine
 10
-112.242370399999
 20
2708.603984566908
 11
-125.496396800001
 21
2740.403984566909
  0
LINE
  5
3ED
100
AcDbEntity
  8
1
  6
CONTINUOUS
 62
           7
100
AcDbLine
 10
125.0
 20
3145.231865248048
 11
-125.0
 21
3145.231865248048
  0
LINE
  5
3EC
100
AcDbEntity
  8
7
  6
CONTINUOUS
 62
           7
100
AcDbLine
 10
-125.0
 20
3145.231865248048
 11
-121.399999999998
 21
3178.133628400005
  0
LINE
  5
3EB
100
AcDbEntity
  8
7
  6
CONTINUOUS
 62
           7
100
AcDbLine
 10
125.0
 20
3145.231865248048
 11
125.0
 21
3112.186819200002
  0
LINE
  5
3EA
100
AcDbEntity
  8
2
  6
CONTINUOUS
 62
           4
100
AcDbLine
 10
104.060000000001
 20
2704.503984566908
 11
104.060000000001
 21
2708.603984566908
  0
LINE
  5
3E9
100
AcDbEntity
  8
1
  6
CONTINUOUS
 62
           2
100
AcDbLine
 10
-630.593032057175
 20
2593.0
 11
-630.593032057175
 21
2233.0
  0
LINE
  5
3E8
100
AcDbEntity
  8
1
  6
CONTINUOUS
 62
           2
100
AcDbLine
 10
-313.160800656588
 20
2593.0
 11
-630.593032057175
 21
2593.0
  0
LINE
  5
3E7
100
AcDbEntity
  8
1
  6
CONTINUOUS
 62
           2
100
AcDbLine
 10
-313.160800656588
 20
2233.0
 11
-313.160800656588
 21
2593.0
  0
LINE
  5
3E6
100
AcDbEntity
  8
1
  6
CONTINUOUS
 62
           2
100
AcDbLine
 10
-630.593032057175
 20
2233.0
 11
-313.160800656588
 21
2233.0
  0
LINE
  5
3E5
100
AcDbEntity
  8
976
  6
CONTINUOUS
 62
           7
100
AcDbLine
 10
-731.116882454317
 20
2165.5
 11
-731.116882454317
 21
2150.7
  0
LINE
  5
3E4
100
AcDbEntity
  8
976
  6
CONTINUOUS
 62
           7
100
AcDbLine
 10
-731.116882454317
 20
2698.503984566909
 11
-731.116882454317
 21
2660.503984566909
  0
LINE
  5
3E3
100
AcDbEntity
  8
1
  6
CONTINUOUS
 62
           7
100
AcDbLine
 10
-730.0
 20
2165.3
 11
-730.0
 21
2660.503984566909
  0
LINE
  5
3E2
100
AcDbEntity
  8
1
  6
CONTINUOUS
 62
           4
100
AcDbLine
 10
-750.0
 20
2160.2
 11
-771.0
 21
2160.2
  0
LINE
  5
3E1
100
AcDbEntity
  8
1
  6
CONTINUOUS
 62
           7
100
AcDbLine
 10
-750.0
 20
2164.699999999999
 11
-771.0
 21
2164.699999999999
  0
LINE
  5
3E0
100
AcDbEntity
  8
1
  6
CONTINUOUS
 62
           2
100
AcDbLine
 10
522.588132285819
 20
2593.0
 11
483.68171576356
 21
2593.0
  0
LINE
  5
3DF
100
AcDbEntity
  8
1
  6
CONTINUOUS
 62
           2
100
AcDbLine
 10
483.68171576356
 20
2593.0
 11
483.68171576356
 21
2233.0
  0
LINE
  5
3DE
100
AcDbEntity
  8
1
  6
CONTINUOUS
 62
           2
100
AcDbLine
 10
483.68171576356
 20
2233.0
 11
522.588132285819
 21
2233.0
  0
LINE
  5
3DD
100
AcDbEntity
  8
976
  6
CONTINUOUS
 62
           7
100
AcDbLine
 10
530.0
 20
2698.503984566909
 11
-731.116882454317
 21
2698.503984566909
  0
LINE
  5
3DC
100
AcDbEntity
  8
976
  6
CONTINUOUS
 62
           7
100
AcDbLine
 10
-63.022294576589
 20
2165.5
 11
-63.022294576589
 21
2150.7
  0
LINE
  5
3DB
100
AcDbEntity
  8
976
  6
CONTINUOUS
 62
           7
100
AcDbLine
 10
-63.022294576589
 20
2698.503984566909
 11
-63.022294576589
 21
2660.503984566909
  0
LINE
  5
3DA
100
AcDbEntity
  8
976
  6
CONTINUOUS
 62
           7
100
AcDbLine
 10
498.588132285819
 20
2698.503984566909
 11
498.588132285819
 21
2660.503984566909
  0
LINE
  5
3D9
100
AcDbEntity
  8
976
  6
CONTINUOUS
 62
           7
100
AcDbLine
 10
498.588132285819
 20
2165.5
 11
498.588132285819
 21
2150.7
  0
LINE
  5
3D8
100
AcDbEntity
  8
1
  6
CONTINUOUS
 62
           4
100
AcDbLine
 10
-771.0
 20
2665.80398456691
 11
-750.0
 21
2665.80398456691
  0
LINE
  5
3D7
100
AcDbEntity
  8
1
  6
CONTINUOUS
 62
           7
100
AcDbLine
 10
-771.0
 20
2701.30398456691
 11
-750.0
 21
2701.30398456691
  0
LINE
  5
3D6
100
AcDbEntity
  8
1
  6
CONTINUOUS
 62
           7
100
AcDbLine
 10
-771.0
 20
2661.30398456691
 11
-750.0
 21
2661.30398456691
  0
LINE
  5
3D5
100
AcDbEntity
  8
976
  6
CONTINUOUS
 62
           7
100
AcDbLine
 10
532.588132285819
 20
2165.5
 11
-405.0
 21
2165.5
  0
LINE
  5
3D4
100
AcDbEntity
  8
976
  6
CONTINUOUS
 62
           7
100
AcDbLine
 10
532.588132285819
 20
2660.503984566908
 11
-740.0
 21
2660.503984566908
  0
LINE
  5
3D3
100
AcDbEntity
  8
1
  6
CONTINUOUS
 62
           4
100
AcDbLine
 10
260.0
 20
2698.503984566909
 11
260.0
 21
2699.503984566909
  0
LINE
  5
3D2
100
AcDbEntity
  8
1
  6
CONTINUOUS
 62
           4
100
AcDbLine
 10
-260.0
 20
2698.503984566909
 11
-260.0
 21
2699.503984566909
  0
LINE
  5
3D1
100
AcDbEntity
  8
1
  6
CONTINUOUS
 62
           4
100
AcDbLine
 10
-260.0
 20
2699.503984566909
 11
-255.0
 21
2704.503984566909
  0
LINE
  5
3D0
100
AcDbEntity
  8
1
  6
CONTINUOUS
 62
           4
100
AcDbLine
 10
255.0
 20
2704.503984566909
 11
-255.0
 21
2704.503984566909
  0
LINE
  5
3CF
100
AcDbEntity
  8
1
  6
CONTINUOUS
 62
           4
100
AcDbLine
 10
255.0
 20
2704.503984566909
 11
260.0
 21
2699.503984566909
  0
LINE
  5
3CE
100
AcDbEntity
  8
976
  6
CONTINUOUS
 62
           7
100
AcDbLine
 10
530.0
 20
2698.503984566909
 11
530.0
 21
2660.503984566909
  0
LINE
  5
3CD
100
AcDbEntity
  8
976
  6
CONTINUOUS
 62
           7
100
AcDbLine
 10
530.0
 20
2165.5
 11
530.0
 21
2150.7
  0
LINE
  5
3CC
100
AcDbEntity
  8
1
  6
CONTINUOUS
 62
           7
100
AcDbLine
 10
522.588132285819
 20
2165.3
 11
522.588132285819
 21
2660.503984566909
  0
LINE
  5
3CB
100
AcDbEntity
  8
1
  6
CONTINUOUS
 62
           7
100
AcDbLine
 10
-771.0
 20
2150.5
 11
-771.0
 21
2701.30398456691
  0
LINE
  5
3CA
100
AcDbEntity
  8
976
  6
CONTINUOUS
 62
           7
100
AcDbLine
 10
-495.0
 20
2165.5
 11
-740.0
 21
2165.5
  0
LINE
  5
3C9
100
AcDbEntity
  8
2
  6
CONTINUOUS
 62
           7
100
AcDbLine
 10
7172.496396800008
 20
2739.600000000002
 11
7172.496396800008
 21
3098.386819200003
  0
LINE
  5
3C8
100
AcDbEntity
  8
7
  6
CONTINUOUS
 62
           7
100
AcDbLine
 10
7175.000000000007
 20
3145.231865248045
 11
7175.000000000007
 21
3112.186819200002
  0
LINE
  5
3C7
100
AcDbEntity
  8
7
  6
CONTINUOUS
 62
           7
100
AcDbLine
 10
6925.000000000007
 20
3145.231865248045
 11
6928.60000000001
 21
3178.133628400003
  0
LINE
  5
3C6
100
AcDbEntity
  8
1
  6
CONTINUOUS
 62
           7
100
AcDbLine
 10
7175.000000000007
 20
3145.231865248045
 11
6925.000000000007
 21
3145.231865248045
  0
LINE
  5
3C5
100
AcDbEntity
  8
2
  6
CONTINUOUS
 62
           7
100
AcDbLine
 10
6937.757629600004
 20
2707.800000000001
 11
6924.503603200006
 21
2739.600000000002
  0
LINE
  5
3C4
100
AcDbEntity
  8
2
  6
CONTINUOUS
 62
           7
100
AcDbLine
 10
6924.503603200006
 20
3098.386819200003
 11
6924.503603200006
 21
2739.600000000002
  0
LINE
  5
3C3
100
AcDbEntity
  8
2
  6
CONTINUOUS
 62
           7
100
AcDbLine
 10
6930.255350800007
 20
3112.186819200002
 11
6924.503603200006
 21
3098.386819200003
  0
LINE
  5
3C2
100
AcDbEntity
  8
2
  6
CONTINUOUS
 62
           4
100
AcDbLine
 10
6942.94000000001
 20
2707.800000000001
 11
6942.94000000001
 21
2703.700000000001
  0
LINE
  5
3C1
100
AcDbEntity
  8
2
  6
CONTINUOUS
 62
           7
100
AcDbLine
 10
7172.496396800008
 20
3098.386819200003
 11
7166.744649200005
 21
3112.186819200002
  0
LINE
  5
3C0
100
AcDbEntity
  8
2
  6
CONTINUOUS
 62
           4
100
AcDbLine
 10
7159.242370400007
 20
2707.800000000001
 11
6937.757629600004
 21
2707.800000000001
  0
LINE
  5
3BF
100
AcDbEntity
  8
2
  6
CONTINUOUS
 62
           7
100
AcDbLine
 10
7172.496396800008
 20
2739.600000000002
 11
7159.242370400007
 21
2707.800000000001
  0
LINE
  5
3BE
100
AcDbEntity
  8
7
  6
CONTINUOUS
 62
           7
100
AcDbLine
 10
7050.000000000007
 20
3208.000000000002
 11
7135.520000000008
 21
3208.000000000002
  0
LINE
  5
3BD
100
AcDbEntity
  8
7
  6
CONTINUOUS
 62
           7
100
AcDbLine
 10
7140.383416400007
 20
3202.483396000002
 11
7165.131240800009
 21
3182.634035200003
  0
LINE
  5
3BC
100
AcDbEntity
  8
7
  6
CONTINUOUS
 62
           7
100
AcDbLine
 10
6929.809572400009
 20
3182.200000000003
 11
7167.560000000009
 21
3182.200000000003
  0
LINE
  5
3BB
100
AcDbEntity
  8
7
  6
CONTINUOUS
 62
           7
100
AcDbLine
 10
7171.400000000009
 20
3178.360000000003
 11
7175.000000000007
 21
3145.231865248045
  0
LINE
  5
3BA
100
AcDbEntity
  8
7
  6
CONTINUOUS
 62
           7
100
AcDbLine
 10
7175.000000000007
 20
3112.186819200002
 11
6925.000000000007
 21
3112.186819200002
  0
LINE
  5
3B9
100
AcDbEntity
  8
7
  6
CONTINUOUS
 62
           7
100
AcDbLine
 10
6925.000000000007
 20
3112.186819200002
 11
6925.000000000007
 21
3145.231865248045
  0
LINE
  5
3B8
100
AcDbEntity
  8
7
  6
CONTINUOUS
 62
           7
100
AcDbLine
 10
7050.000000000007
 20
3208.000000000002
 11
6961.480000000007
 21
3208.000000000002
  0
LINE
  5
3B7
100
AcDbEntity
  8
7
  6
CONTINUOUS
 62
           7
100
AcDbLine
 10
6956.616582400005
 20
3202.483396000002
 11
6932.022588400007
 21
3184.395737200002
  0
LINE
  5
3B6
100
AcDbEntity
  8
1
  6
CONTINUOUS
 62
           7
100
AcDbLine
 10
7101.500000000007
 20
2852.500000000002
 11
6998.500000000007
 21
2852.500000000002
  0
LINE
  5
3B5
100
AcDbEntity
  8
1
  6
CONTINUOUS
 62
           7
100
AcDbLine
 10
6998.500000000007
 20
2952.500000000002
 11
7101.500000000007
 21
2952.500000000002
  0
LINE
  5
3B4
100
AcDbEntity
  8
1
  6
CONTINUOUS
 62
           7
100
AcDbLine
 10
6986.500000000007
 20
2864.500000000002
 11
6986.500000000007
 21
2940.500000000002
  0
LINE
  5
3B3
100
AcDbEntity
  8
1
  6
CONTINUOUS
 62
           7
100
AcDbLine
 10
7113.500000000007
 20
2940.500000000002
 11
7113.500000000007
 21
2864.500000000002
  0
LINE
  5
3B2
100
AcDbEntity
  8
2
  6
CONTINUOUS
 62
           4
100
AcDbLine
 10
7154.060000000009
 20
2703.700000000001
 11
7154.060000000009
 21
2707.800000000001
  0
LINE
  5
3B1
100
AcDbEntity
  8
1
  6
CONTINUOUS
 62
           7
100
AcDbLine
 10
7640.000000000007
 20
2665.000000000002
 11
7640.000000000007
 21
2161.000000000002
  0
LINE
  5
3B0
100
AcDbEntity
  8
976
  6
CONTINUOUS
 62
           7
100
AcDbLine
 10
7560.000000000007
 20
2659.700000000001
 11
6374.788529667967
 21
2659.700000000001
  0
LINE
  5
3AF
100
AcDbEntity
  8
1
  6
CONTINUOUS
 62
           7
100
AcDbLine
 10
7640.000000000007
 20
2165.500000000002
 11
7600.000000000007
 21
2165.500000000002
  0
LINE
  5
3AE
100
AcDbEntity
  8
1
  6
CONTINUOUS
 62
           4
100
AcDbLine
 10
7605.500000000007
 20
2665.000000000002
 11
7640.000000000007
 21
2665.000000000002
  0
LINE
  5
3AD
100
AcDbEntity
  8
1
  6
DOT_CENTER
 62
           2
100
AcDbLine
 10
7050.000000000007
 20
2036.871335955673
 11
7050.000000000007
 21
3249.943017367196
  0
LINE
  5
3AC
100
AcDbEntity
  8
1
  6
CONTINUOUS
 62
           2
100
AcDbLine
 10
7185.513456000914
 20
2593.000000000002
 11
6774.486543999097
 21
2593.000000000002
  0
LINE
  5
3AB
100
AcDbEntity
  8
1
  6
CONTINUOUS
 62
           2
100
AcDbLine
 10
7185.513456000914
 20
2233.000000000002
 11
7185.513456000914
 21
2593.000000000002
  0
LINE
  5
3AA
100
AcDbEntity
  8
1
  6
CONTINUOUS
 62
           2
100
AcDbLine
 10
6774.486543999097
 20
2233.000000000002
 11
7185.513456000914
 21
2233.000000000002
  0
LINE
  5
3A9
100
AcDbEntity
  8
1
  6
CONTINUOUS
 62
           2
100
AcDbLine
 10
6774.486543999097
 20
2593.000000000002
 11
6774.486543999097
 21
2233.000000000002
  0
LINE
  5
3A8
100
AcDbEntity
  8
976
  6
CONTINUOUS
 62
           7
100
AcDbLine
 10
7158.000159772895
 20
2128.300000000005
 11
7556.440677966108
 21
2128.300000000003
  0
LINE
  5
3A7
100
AcDbEntity
  8
976
  6
CONTINUOUS
 62
           7
100
AcDbLine
 10
6975.222691958734
 20
2128.300000000005
 11
6975.22269195873
 21
2166.300000000005
  0
LINE
  5
3A6
100
AcDbEntity
  8
976
  6
CONTINUOUS
 62
           7
100
AcDbLine
 10
7158.000159772895
 20
2128.300000000005
 11
7158.000159772895
 21
2166.300000000005
  0
LINE
  5
3A5
100
AcDbEntity
  8
976
  6
CONTINUOUS
 62
           7
100
AcDbLine
 10
7472.000000000007
 20
2128.300000000005
 11
7472.000000000007
 21
2166.300000000005
  0
LINE
  5
3A4
100
AcDbEntity
  8
976
  6
CONTINUOUS
 62
           7
100
AcDbLine
 10
6975.222691958734
 20
2697.700000000001
 11
6374.788529667967
 21
2697.700000000001
  0
LINE
  5
3A3
100
AcDbEntity
  8
976
  6
CONTINUOUS
 62
           7
100
AcDbLine
 10
6975.22269195873
 20
2659.700000000001
 11
6975.222691958734
 21
2697.700000000001
  0
LINE
  5
3A2
100
AcDbEntity
  8
976
  6
CONTINUOUS
 62
           7
100
AcDbLine
 10
7158.000159772895
 20
2659.700000000001
 11
7158.000159772895
 21
2697.700000000001
  0
LINE
  5
3A1
100
AcDbEntity
  8
976
  6
CONTINUOUS
 62
           7
100
AcDbLine
 10
7472.000000000007
 20
2659.700000000001
 11
7472.000000000007
 21
2697.700000000001
  0
LINE
  5
3A0
100
AcDbEntity
  8
976
  6
CONTINUOUS
 62
           7
100
AcDbLine
 10
7560.000000000007
 20
2659.700000000001
 11
7560.000000000007
 21
2692.700000000001
  0
LINE
  5
39F
100
AcDbEntity
  8
1
  6
CONTINUOUS
 62
           4
100
AcDbLine
 10
7594.500000000007
 20
2161.000000000002
 11
7560.000000000007
 21
2161.000000000002
  0
LINE
  5
39E
100
AcDbEntity
  8
1
  6
CONTINUOUS
 62
           7
100
AcDbLine
 10
7605.500000000007
 20
2165.500000000002
 11
7640.000000000007
 21
2165.500000000002
  0
LINE
  5
39D
100
AcDbEntity
  8
1
  6
CONTINUOUS
 62
           4
100
AcDbLine
 10
7595.500000000007
 20
2125.500000000002
 11
7600.000000000007
 21
2125.500000000002
  0
LINE
  5
39C
100
AcDbEntity
  8
1
  6
CONTINUOUS
 62
           4
100
AcDbLine
 10
7595.500000000007
 20
2160.000000000002
 11
7595.500000000007
 21
2125.500000000002
  0
LINE
  5
39B
100
AcDbEntity
  8
1
  6
CONTINUOUS
 62
           4
100
AcDbLine
 10
7640.000000000007
 20
2161.000000000002
 11
7605.500000000007
 21
2161.000000000002
  0
LINE
  5
39A
100
AcDbEntity
  8
1
  6
CONTINUOUS
 62
           4
100
AcDbLine
 10
7604.500000000007
 20
2125.500000000002
 11
7604.500000000007
 21
2160.000000000002
  0
LINE
  5
399
100
AcDbEntity
  8
1
  6
CONTINUOUS
 62
           4
100
AcDbLine
 10
7600.000000000007
 20
2125.500000000002
 11
7604.500000000007
 21
2125.500000000002
  0
LINE
  5
398
100
AcDbEntity
  8
1
  6
CONTINUOUS
 62
           4
100
AcDbLine
 10
7560.000000000007
 20
2665.000000000002
 11
7594.500000000007
 21
2665.000000000002
  0
LINE
  5
397
100
AcDbEntity
  8
1
  6
CONTINUOUS
 62
           4
100
AcDbLine
 10
7595.500000000007
 20
2700.500000000002
 11
7595.500000000007
 21
2666.000000000002
  0
LINE
  5
396
100
AcDbEntity
  8
1
  6
CONTINUOUS
 62
           4
100
AcDbLine
 10
7600.000000000007
 20
2700.500000000002
 11
7595.500000000007
 21
2700.500000000002
  0
LINE
  5
395
100
AcDbEntity
  8
1
  6
CONTINUOUS
 62
           4
100
AcDbLine
 10
7604.500000000007
 20
2700.500000000002
 11
7600.000000000007
 21
2700.500000000002
  0
LINE
  5
394
100
AcDbEntity
  8
1
  6
CONTINUOUS
 62
           4
100
AcDbLine
 10
7604.500000000007
 20
2666.000000000002
 11
7604.500000000007
 21
2700.500000000002
  0
LINE
  5
393
100
AcDbEntity
  8
1
  6
CONTINUOUS
 62
           7
100
AcDbLine
 10
7600.000000000007
 20
2700.500000000002
 11
7600.000000000007
 21
2125.500000000002
  0
LINE
  5
392
100
AcDbEntity
  8
1
  6
CONTINUOUS
 62
           4
100
AcDbLine
 10
7604.300000000007
 20
2165.500000000002
 11
7604.300000000007
 21
2660.500000000002
  0
LINE
  5
391
100
AcDbEntity
  8
1
  6
CONTINUOUS
 62
           4
100
AcDbLine
 10
7595.700000000004
 20
2660.500000000002
 11
7595.700000000004
 21
2165.500000000002
  0
LINE
  5
390
100
AcDbEntity
  8
1
  6
CONTINUOUS
 62
           7
100
AcDbLine
 10
7600.000000000007
 20
2165.500000000002
 11
7560.000000000007
 21
2165.500000000002
  0
LINE
  5
38F
100
AcDbEntity
  8
1
  6
CONTINUOUS
 62
           7
100
AcDbLine
 10
7560.000000000007
 20
2660.500000000002
 11
7600.000000000007
 21
2660.500000000002
  0
LINE
  5
38E
100
AcDbEntity
  8
1
  6
CONTINUOUS
 62
           7
100
AcDbLine
 10
7560.000000000007
 20
2161.000000000002
 11
7560.000000000007
 21
2665.000000000002
  0
LINE
  5
38D
100
AcDbEntity
  8
1
  6
CONTINUOUS
 62
           7
100
AcDbLine
 10
7600.000000000007
 20
2660.500000000002
 11
7640.000000000007
 21
2660.500000000002
  0
LINE
  5
38C
100
AcDbEntity
  8
1
  6
CONTINUOUS
 62
           7
100
AcDbLine
 10
6420.000000000007
 20
2659.700000000001
 11
6420.000000000007
 21
2166.300000000003
  0
LINE
  5
38B
100
AcDbEntity
  8
1
  6
CONTINUOUS
 62
           7
100
AcDbLine
 10
7560.000000000007
 20
2165.500000000002
 11
7594.500000000007
 21
2165.500000000002
  0
LINE
  5
38A
100
AcDbEntity
  8
1
  6
CONTINUOUS
 62
           7
100
AcDbLine
 10
7594.500000000007
 20
2660.500000000002
 11
7560.000000000007
 21
2660.500000000002
  0
LINE
  5
389
100
AcDbEntity
  8
1
  6
CONTINUOUS
 62
           7
100
AcDbLine
 10
7640.000000000007
 20
2660.500000000002
 11
7605.500000000007
 21
2660.500000000002
  0
LINE
  5
388
100
AcDbEntity
  8
1
  6
CONTINUOUS
 62
           7
100
AcDbLine
 10
7560.000000000007
 20
2133.300000000003
 11
7556.440677966108
 21
2128.300000000003
  0
LINE
  5
387
100
AcDbEntity
  8
1
  6
CONTINUOUS
 62
           7
100
AcDbLine
 10
7560.000000000007
 20
2692.700000000001
 11
7556.440677966108
 21
2697.700000000001
  0
LINE
  5
386
100
AcDbEntity
  8
976
  6
CONTINUOUS
 62
           7
100
AcDbLine
 10
6374.788529667967
 20
2128.300000000003
 11
6374.788529667967
 21
2166.300000000003
  0
LINE
  5
385
100
AcDbEntity
  8
976
  6
CONTINUOUS
 62
           7
100
AcDbLine
 10
6374.788529667967
 20
2659.700000000001
 11
6374.788529667967
 21
2697.700000000001
  0
LINE
  5
384
100
AcDbEntity
  8
976
  6
CONTINUOUS
 62
           7
100
AcDbLine
 10
6374.788529667967
 20
2128.300000000003
 11
6975.222691958734
 21
2128.300000000005
  0
LINE
  5
383
100
AcDbEntity
  8
976
  6
CONTINUOUS
 62
           7
100
AcDbLine
 10
7560.000000000007
 20
2166.300000000003
 11
7560.000000000007
 21
2133.300000000003
  0
LINE
  5
382
100
AcDbEntity
  8
976
  6
CONTINUOUS
 62
           7
100
AcDbLine
 10
7560.000000000007
 20
2166.300000000003
 11
6374.788529667967
 21
2166.300000000003
  0
LINE
  5
381
100
AcDbEntity
  8
976
  6
CONTINUOUS
 62
           7
100
AcDbLine
 10
7556.440677966108
 20
2697.700000000001
 11
7158.000159772895
 21
2697.700000000001
  0
LINE
  5
380
100
AcDbEntity
  8
1
  6
CONTINUOUS
 62
           4
100
AcDbLine
 10
6790.000000000007
 20
2698.700000000001
 11
6795.000000000007
 21
2703.700000000001
  0
LINE
  5
37F
100
AcDbEntity
  8
1
  6
CONTINUOUS
 62
           4
100
AcDbLine
 10
7305.000000000007
 20
2703.700000000001
 11
6795.000000000007
 21
2703.700000000001
  0
LINE
  5
37E
100
AcDbEntity
  8
1
  6
CONTINUOUS
 62
           4
100
AcDbLine
 10
7305.000000000007
 20
2703.700000000001
 11
7310.000000000007
 21
2698.700000000001
  0
LINE
  5
37D
100
AcDbEntity
  8
1
  6
CONTINUOUS
 62
           4
100
AcDbLine
 10
7310.000000000007
 20
2698.700000000001
 11
7310.000000000007
 21
2697.700000000001
  0
LINE
  5
37C
100
AcDbEntity
  8
1
  6
CONTINUOUS
 62
           4
100
AcDbLine
 10
6790.000000000007
 20
2698.700000000001
 11
6790.000000000007
 21
2697.700000000001
  0
LINE
  5
37B
100
AcDbEntity
  8
0
  6
CONTINUOUS
 62
           7
100
AcDbLine
 10
6716.800000000007
 20
2128.300000000003
 11
6716.800000000007
 21
2081.000000000002
  0
LINE
  5
37A
100
AcDbEntity
  8
0
  6
CONTINUOUS
 62
           7
100
AcDbLine
 10
7383.200000000008
 20
2081.000000000002
 11
7383.200000000008
 21
2128.300000000003
  0
LINE
  5
379
100
AcDbEntity
  8
1
  6
CONTINUOUS
 62
           4
100
AcDbLine
 10
6677.500000000007
 20
2081.000000000002
 11
7422.500000000007
 21
2081.000000000002
  0
LINE
  5
378
100
AcDbEntity
  8
1
  6
CONTINUOUS
 62
           7
100
AcDbLine
 10
7422.500000000007
 20
2075.000000000002
 11
6677.500000000007
 21
2075.000000000002
  0
LINE
  5
377
100
AcDbEntity
  8
1
  6
CONTINUOUS
 62
           4
100
AcDbLine
 10
6677.500000000007
 20
2075.000000000002
 11
6677.500000000007
 21
2081.000000000002
  0
LINE
  5
376
100
AcDbEntity
  8
1
  6
CONTINUOUS
 62
           4
100
AcDbLine
 10
7422.500000000007
 20
2081.000000000002
 11
7422.500000000007
 21
2075.000000000002
  0
LINE
  5
375
100
AcDbEntity
  8
1
  6
CONTINUOUS
 62
           3
100
AcDbLine
 10
6947.499999999999
 20
1920.999999999996
 11
6799.899998122323
 21
1920.999999999996
  0
LINE
  5
374
100
AcDbEntity
  8
1
  6
CONTINUOUS
 62
           3
100
AcDbLine
 10
6947.499999999999
 20
1928.999999999996
 11
6799.89999681093
 21
1928.999999999996
  0
LINE
  5
373
100
AcDbEntity
  8
0
  6
CONTINUOUS
 62
           3
100
AcDbLine
 10
6419.899996632411
 20
1314.999997615953
 11
6419.899996632411
 21
1364.999994635811
  0
LINE
  5
372
100
AcDbEntity
  8
0
  6
CONTINUOUS
 62
           3
100
AcDbLine
 10
6460.126493853971
 20
1355.44657707222
 11
6460.899996833471
 21
1355.000004172318
  0
LINE
  5
371
100
AcDbEntity
  8
0
  6
CONTINUOUS
 62
           3
100
AcDbLine
 10
6470.899996609863
 20
1355.000004172318
 11
6471.673499589363
 21
1355.44657707222
  0
LINE
  5
370
100
AcDbEntity
  8
0
  6
CONTINUOUS
 62
           3
100
AcDbLine
 10
6460.899996833471
 20
1359.999999403917
 11
6460.126493853971
 21
1359.553411603018
  0
LINE
  5
36F
100
AcDbEntity
  8
0
  6
CONTINUOUS
 62
           3
100
AcDbLine
 10
6471.673499589363
 20
1359.553411603018
 11
6470.899996609863
 21
1359.999999403917
  0
LINE
  5
36E
100
AcDbEntity
  8
0
  6
CONTINUOUS
 62
           3
100
AcDbLine
 10
6460.899996833471
 20
1364.999994635811
 11
6460.126493853971
 21
1364.553421735913
  0
LINE
  5
36D
100
AcDbEntity
  8
0
  6
CONTINUOUS
 62
           3
100
AcDbLine
 10
6471.673499589363
 20
1364.553421735913
 11
6470.899996609863
 21
1364.999994635811
  0
LINE
  5
36C
100
AcDbEntity
  8
0
  6
CONTINUOUS
 62
           3
100
AcDbLine
 10
6470.899996609863
 20
1359.999999403917
 11
6471.673499589363
 21
1360.446587205119
  0
LINE
  5
36B
100
AcDbEntity
  8
0
  6
CONTINUOUS
 62
           3
100
AcDbLine
 10
6460.126493853971
 20
1360.446587205119
 11
6460.899996833471
 21
1359.999999403917
  0
LINE
  5
36A
100
AcDbEntity
  8
0
  6
CONTINUOUS
 62
           3
100
AcDbLine
 10
6460.899996833471
 20
1377.599999308601
 11
6460.126493853971
 21
1377.153418958202
  0
LINE
  5
369
100
AcDbEntity
  8
0
  6
CONTINUOUS
 62
           3
100
AcDbLine
 10
6471.673499589363
 20
1377.153418958202
 11
6470.899996609863
 21
1377.599999308601
  0
LINE
  5
368
100
AcDbEntity
  8
0
  6
CONTINUOUS
 62
           3
100
AcDbLine
 10
6470.899996609863
 20
1372.600004077005
 11
6471.673499589363
 21
1373.046576976907
  0
LINE
  5
367
100
AcDbEntity
  8
0
  6
CONTINUOUS
 62
           3
100
AcDbLine
 10
6460.126493853971
 20
1373.046576976907
 11
6460.899996833471
 21
1372.600004077005
  0
LINE
  5
366
100
AcDbEntity
  8
0
  6
CONTINUOUS
 62
           3
100
AcDbLine
 10
6460.899996833471
 20
1372.600004077005
 11
6460.126493853971
 21
1372.153416276105
  0
LINE
  5
365
100
AcDbEntity
  8
0
  6
CONTINUOUS
 62
           3
100
AcDbLine
 10
6471.673499589363
 20
1372.153416276105
 11
6470.899996609863
 21
1372.600004077005
  0
LINE
  5
364
100
AcDbEntity
  8
0
  6
CONTINUOUS
 62
           3
100
AcDbLine
 10
6470.899996609863
 20
1367.59999394411
 11
6471.673499589363
 21
1368.046581745308
  0
LINE
  5
363
100
AcDbEntity
  8
0
  6
CONTINUOUS
 62
           3
100
AcDbLine
 10
6460.126493853971
 20
1368.046581745308
 11
6460.899996833471
 21
1367.59999394411
  0
LINE
  5
362
100
AcDbEntity
  8
0
  6
CONTINUOUS
 62
           3
100
AcDbLine
 10
6511.89999681093
 20
1640.999999999996
 11
6511.89999681093
 21
1635.000005364193
  0
LINE
  5
361
100
AcDbEntity
  8
0
  6
CONTINUOUS
 62
           3
100
AcDbLine
 10
6511.89999681093
 20
1633.399993180992
 11
6511.89999681093
 21
1550.00000074496
  0
LINE
  5
360
100
AcDbEntity
  8
0
  6
CONTINUOUS
 62
           3
100
AcDbLine
 10
6511.89999681093
 20
1548.799999058061
 11
6511.89999681093
 21
1391.199998557589
  0
LINE
  5
35F
100
AcDbEntity
  8
0
  6
CONTINUOUS
 62
           3
100
AcDbLine
 10
6511.89999681093
 20
1390.000000596094
 11
6511.89999681093
 21
1366.60000681871
  0
LINE
  5
35E
100
AcDbEntity
  8
0
  6
CONTINUOUS
 62
           3
100
AcDbLine
 10
6511.89999681093
 20
1364.999994635811
 11
6511.89999681093
 21
1314.999997615953
  0
LINE
  5
35D
100
AcDbEntity
  8
0
  6
CONTINUOUS
 62
           3
100
AcDbLine
 10
6519.899998122323
 20
1314.999997615953
 11
6519.899998122323
 21
1364.999994635811
  0
LINE
  5
35C
100
AcDbEntity
  8
0
  6
CONTINUOUS
 62
           3
100
AcDbLine
 10
6519.899998122323
 20
1366.60000681871
 11
6519.899998122323
 21
1390.000000596094
  0
LINE
  5
35B
100
AcDbEntity
  8
0
  6
CONTINUOUS
 62
           3
100
AcDbLine
 10
6519.899998122323
 20
1391.199998557589
 11
6519.899998122323
 21
1548.799999058061
  0
LINE
  5
35A
100
AcDbEntity
  8
0
  6
CONTINUOUS
 62
           3
100
AcDbLine
 10
6519.899998122323
 20
1550.00000074496
 11
6519.899998122323
 21
1633.399993180992
  0
LINE
  5
359
100
AcDbEntity
  8
0
  6
CONTINUOUS
 62
           3
100
AcDbLine
 10
6519.899998122323
 20
1635.000005364193
 11
6519.899998122323
 21
1640.999999999996
  0
LINE
  5
358
100
AcDbEntity
  8
0
  6
CONTINUOUS
 62
           3
100
AcDbLine
 10
6411.899995321011
 20
1665.000006556365
 11
6411.899995321011
 21
1635.000005364193
  0
LINE
  5
357
100
AcDbEntity
  8
0
  6
CONTINUOUS
 62
           3
100
AcDbLine
 10
6411.899995321011
 20
1633.399993180992
 11
6411.899995321011
 21
1550.00000074496
  0
LINE
  5
356
100
AcDbEntity
  8
0
  6
CONTINUOUS
 62
           3
100
AcDbLine
 10
6411.899995321011
 20
1548.799999058061
 11
6411.899995321011
 21
1391.199998557589
  0
LINE
  5
355
100
AcDbEntity
  8
0
  6
CONTINUOUS
 62
           3
100
AcDbLine
 10
6411.899995321011
 20
1390.000000596094
 11
6411.899995321011
 21
1366.60000681871
  0
LINE
  5
354
100
AcDbEntity
  8
0
  6
CONTINUOUS
 62
           3
100
AcDbLine
 10
6411.899995321011
 20
1364.999994635811
 11
6411.899995321011
 21
1314.999997615953
  0
LINE
  5
353
100
AcDbEntity
  8
0
  6
CONTINUOUS
 62
           3
100
AcDbLine
 10
6419.899996632411
 20
1366.60000681871
 11
6419.899996632411
 21
1390.000000596094
  0
LINE
  5
352
100
AcDbEntity
  8
0
  6
CONTINUOUS
 62
           3
100
AcDbLine
 10
6419.899996632411
 20
1391.199998557589
 11
6419.899996632411
 21
1548.799999058061
  0
LINE
  5
351
100
AcDbEntity
  8
0
  6
CONTINUOUS
 62
           3
100
AcDbLine
 10
6419.899996632411
 20
1550.00000074496
 11
6419.899996632411
 21
1633.399993180992
  0
LINE
  5
350
100
AcDbEntity
  8
0
  6
CONTINUOUS
 62
           3
100
AcDbLine
 10
6419.899996632411
 20
1635.000005364193
 11
6419.899996632411
 21
1665.000006556365
  0
LINE
  5
34F
100
AcDbEntity
  8
0
  6
CONTINUOUS
 62
           3
100
AcDbLine
 10
6468.89999674776
 20
1366.60000681871
 11
6468.89999674776
 21
1367.59999394411
  0
LINE
  5
34E
100
AcDbEntity
  8
0
  6
CONTINUOUS
 62
           3
100
AcDbLine
 10
6468.89999674776
 20
1377.599999308601
 11
6468.89999674776
 21
1384.199999272896
  0
LINE
  5
34D
100
AcDbEntity
  8
0
  6
CONTINUOUS
 62
           3
100
AcDbLine
 10
6468.89999674776
 20
1390.000000596094
 11
6468.89999674776
 21
1392.957426607591
  0
LINE
  5
34C
100
AcDbEntity
  8
0
  6
CONTINUOUS
 62
           3
100
AcDbLine
 10
6468.89999674776
 20
1394.792847335488
 11
6468.89999674776
 21
1633.399993180992
  0
LINE
  5
34B
100
AcDbEntity
  8
0
  6
CONTINUOUS
 62
           3
100
AcDbLine
 10
6468.89999674776
 20
1635.000005364193
 11
6468.89999674776
 21
1637.422651052289
  0
LINE
  5
34A
100
AcDbEntity
  8
0
  6
CONTINUOUS
 62
           3
100
AcDbLine
 10
6462.899996695574
 20
1637.422651052289
 11
6462.899996695574
 21
1635.000005364193
  0
LINE
  5
349
100
AcDbEntity
  8
0
  6
CONTINUOUS
 62
           3
100
AcDbLine
 10
6462.899996695574
 20
1633.399993180992
 11
6462.899996695574
 21
1394.792847335488
  0
LINE
  5
348
100
AcDbEntity
  8
0
  6
CONTINUOUS
 62
           3
100
AcDbLine
 10
6462.899996695574
 20
1392.957426607591
 11
6462.899996695574
 21
1390.000000596094
  0
LINE
  5
347
100
AcDbEntity
  8
0
  6
CONTINUOUS
 62
           3
100
AcDbLine
 10
6462.899996695574
 20
1384.199999272896
 11
6462.899996695574
 21
1377.599999308601
  0
LINE
  5
346
100
AcDbEntity
  8
0
  6
CONTINUOUS
 62
           3
100
AcDbLine
 10
6462.899996695574
 20
1367.59999394411
 11
6462.899996695574
 21
1366.60000681871
  0
LINE
  5
345
100
AcDbEntity
  8
0
  6
CONTINUOUS
 62
           3
100
AcDbLine
 10
6468.89999674776
 20
1637.422651052289
 11
6467.899996816558
 21
1638.422653078989
  0
LINE
  5
344
100
AcDbEntity
  8
0
  6
CONTINUOUS
 62
           3
100
AcDbLine
 10
6463.899996626772
 20
1638.422653078989
 11
6462.899996695574
 21
1637.422651052289
  0
LINE
  5
343
100
AcDbEntity
  8
0
  6
CONTINUOUS
 62
           3
100
AcDbLine
 10
6462.399996613573
 20
1394.79999989289
 11
6457.899996341773
 21
1394.79999989289
  0
LINE
  5
342
100
AcDbEntity
  8
0
  6
CONTINUOUS
 62
           3
100
AcDbLine
 10
6473.899997101561
 20
1394.79999989289
 11
6469.39999682976
 21
1394.79999989289
  0
LINE
  5
341
100
AcDbEntity
  8
0
  6
CONTINUOUS
 62
           3
100
AcDbLine
 10
6459.42649402987
 20
1389.099999999991
 11
6472.37349941346
 21
1389.099999999991
  0
LINE
  5
340
100
AcDbEntity
  8
0
  6
CONTINUOUS
 62
           3
100
AcDbLine
 10
6408.899996692008
 20
1393.79999786619
 11
6411.899995321011
 21
1393.79999786619
  0
LINE
  5
33F
100
AcDbEntity
  8
0
  6
CONTINUOUS
 62
           3
100
AcDbLine
 10
6419.899996632411
 20
1393.79999786619
 11
6457.899996341773
 21
1393.79999786619
  0
LINE
  5
33E
100
AcDbEntity
  8
0
  6
CONTINUOUS
 62
           3
100
AcDbLine
 10
6473.899997101561
 20
1393.79999786619
 11
6511.89999681093
 21
1393.79999786619
  0
LINE
  5
33D
100
AcDbEntity
  8
0
  6
CONTINUOUS
 62
           3
100
AcDbLine
 10
6519.899998122323
 20
1393.79999786619
 11
6522.899996751322
 21
1393.79999786619
  0
LINE
  5
33C
100
AcDbEntity
  8
0
  6
CONTINUOUS
 62
           3
100
AcDbLine
 10
6408.899996692008
 20
1543.800000101364
 11
6408.899996692008
 21
1393.79999786619
  0
LINE
  5
33B
100
AcDbEntity
  8
0
  6
CONTINUOUS
 62
           3
100
AcDbLine
 10
6522.899996751322
 20
1543.800000101364
 11
6519.899998122323
 21
1543.800000101364
  0
LINE
  5
33A
100
AcDbEntity
  8
0
  6
CONTINUOUS
 62
           3
100
AcDbLine
 10
6511.89999681093
 20
1543.800000101364
 11
6468.89999674776
 21
1543.800000101364
  0
LINE
  5
339
100
AcDbEntity
  8
0
  6
CONTINUOUS
 62
           3
100
AcDbLine
 10
6462.899996695574
 20
1543.800000101364
 11
6419.899996632411
 21
1543.800000101364
  0
LINE
  5
338
100
AcDbEntity
  8
0
  6
CONTINUOUS
 62
           3
100
AcDbLine
 10
6411.899995321011
 20
1543.800000101364
 11
6408.899996692008
 21
1543.800000101364
  0
LINE
  5
337
100
AcDbEntity
  8
0
  6
CONTINUOUS
 62
           3
100
AcDbLine
 10
6522.899996751322
 20
1393.79999786619
 11
6522.899996751322
 21
1543.800000101364
  0
LINE
  5
336
100
AcDbEntity
  8
0
  6
CONTINUOUS
 62
           3
100
AcDbLine
 10
6468.786748155361
 20
1355.44657707222
 11
6468.7867481555
 21
1359.553411603065
  0
LINE
  5
335
100
AcDbEntity
  8
0
  6
CONTINUOUS
 62
           3
100
AcDbLine
 10
6468.786748155361
 20
1355.44657707222
 11
6465.899996721672
 21
1355.000004172318
  0
LINE
  5
334
100
AcDbEntity
  8
0
  6
CONTINUOUS
 62
           3
100
AcDbLine
 10
6463.013245287842
 20
1355.446577072238
 11
6463.013245287969
 21
1359.553411603018
  0
LINE
  5
333
100
AcDbEntity
  8
0
  6
CONTINUOUS
 62
           3
100
AcDbLine
 10
6463.013245287969
 20
1359.553411603018
 11
6465.899996721672
 21
1359.999999404045
  0
LINE
  5
332
100
AcDbEntity
  8
0
  6
CONTINUOUS
 62
           3
100
AcDbLine
 10
6465.899996721672
 20
1355.000004172318
 11
6470.230123756001
 21
1355.000004172416
  0
LINE
  5
331
100
AcDbEntity
  8
0
  6
CONTINUOUS
 62
           3
100
AcDbLine
 10
6461.569869687343
 20
1355.000004172416
 11
6465.899996721672
 21
1355.000004172318
  0
LINE
  5
330
100
AcDbEntity
  8
0
  6
CONTINUOUS
 62
           3
100
AcDbLine
 10
6461.569869687343
 20
1359.999999404045
 11
6465.899996721672
 21
1359.999999404045
  0
LINE
  5
32F
100
AcDbEntity
  8
0
  6
CONTINUOUS
 62
           3
100
AcDbLine
 10
6468.7867481555
 20
1359.553411603065
 11
6470.230123755961
 21
1359.999999403917
  0
LINE
  5
32E
100
AcDbEntity
  8
0
  6
CONTINUOUS
 62
           3
100
AcDbLine
 10
6465.899996721672
 20
1359.999999404045
 11
6470.230123755961
 21
1359.999999403917
  0
LINE
  5
32D
100
AcDbEntity
  8
0
  6
CONTINUOUS
 62
           3
100
AcDbLine
 10
6460.126493853971
 20
1355.44657707222
 11
6460.126493853971
 21
1359.553411603018
  0
LINE
  5
32C
100
AcDbEntity
  8
0
  6
CONTINUOUS
 62
           3
100
AcDbLine
 10
6471.673499589363
 20
1355.44657707222
 11
6471.673499589363
 21
1359.553411603018
  0
LINE
  5
32B
100
AcDbEntity
  8
0
  6
CONTINUOUS
 62
           3
100
AcDbLine
 10
6471.673499589363
 20
1355.44657707222
 11
6470.230123756001
 21
1355.000004172416
  0
LINE
  5
32A
100
AcDbEntity
  8
0
  6
CONTINUOUS
 62
           3
100
AcDbLine
 10
6460.899996833471
 20
1355.000004172318
 11
6461.569869687343
 21
1355.000004172416
  0
LINE
  5
329
100
AcDbEntity
  8
0
  6
CONTINUOUS
 62
           3
100
AcDbLine
 10
6470.899996609863
 20
1355.000004172318
 11
6470.230123756001
 21
1355.000004172416
  0
LINE
  5
328
100
AcDbEntity
  8
0
  6
CONTINUOUS
 62
           3
100
AcDbLine
 10
6460.899996833471
 20
1359.999999403917
 11
6461.569869687343
 21
1359.999999404045
  0
LINE
  5
327
100
AcDbEntity
  8
0
  6
CONTINUOUS
 62
           3
100
AcDbLine
 10
6468.7867481555
 20
1364.553421735855
 11
6468.786748155361
 21
1360.446587205119
  0
LINE
  5
326
100
AcDbEntity
  8
0
  6
CONTINUOUS
 62
           3
100
AcDbLine
 10
6463.013245287842
 20
1364.553421735855
 11
6463.013245287842
 21
1360.446587205021
  0
LINE
  5
325
100
AcDbEntity
  8
0
  6
CONTINUOUS
 62
           3
100
AcDbLine
 10
6471.673499589363
 20
1364.553421735913
 11
6470.230123756001
 21
1364.999994635669
  0
LINE
  5
324
100
AcDbEntity
  8
0
  6
CONTINUOUS
 62
           3
100
AcDbLine
 10
6471.673499589363
 20
1364.553421735913
 11
6471.673499589363
 21
1360.446587205119
  0
LINE
  5
323
100
AcDbEntity
  8
0
  6
CONTINUOUS
 62
           3
100
AcDbLine
 10
6468.786748155361
 20
1360.446587205119
 11
6470.230123755961
 21
1359.999999403917
  0
LINE
  5
322
100
AcDbEntity
  8
0
  6
CONTINUOUS
 62
           3
100
AcDbLine
 10
6463.013245287842
 20
1364.553421735855
 11
6461.569869687343
 21
1364.999994635669
  0
LINE
  5
321
100
AcDbEntity
  8
0
  6
CONTINUOUS
 62
           3
100
AcDbLine
 10
6460.126493853971
 20
1360.446587205119
 11
6461.569869687343
 21
1359.999999404045
  0
LINE
  5
320
100
AcDbEntity
  8
0
  6
CONTINUOUS
 62
           3
100
AcDbLine
 10
6460.126493853971
 20
1364.553421735913
 11
6460.126493853971
 21
1360.446587205119
  0
LINE
  5
31F
100
AcDbEntity
  8
0
  6
CONTINUOUS
 62
           3
100
AcDbLine
 10
6468.7867481555
 20
1377.153418958264
 11
6468.786748155361
 21
1373.046576976907
  0
LINE
  5
31E
100
AcDbEntity
  8
0
  6
CONTINUOUS
 62
           3
100
AcDbLine
 10
6463.013245287842
 20
1377.153418958264
 11
6463.013245287842
 21
1373.046576976856
  0
LINE
  5
31D
100
AcDbEntity
  8
0
  6
CONTINUOUS
 62
           3
100
AcDbLine
 10
6471.673499589363
 20
1377.153418958202
 11
6470.230123756001
 21
1377.599999308663
  0
LINE
  5
31C
100
AcDbEntity
  8
0
  6
CONTINUOUS
 62
           3
100
AcDbLine
 10
6471.673499589363
 20
1377.153418958202
 11
6471.673499589363
 21
1373.046576976907
  0
LINE
  5
31B
100
AcDbEntity
  8
0
  6
CONTINUOUS
 62
           3
100
AcDbLine
 10
6468.786748155361
 20
1373.046576976907
 11
6470.230123756001
 21
1372.600004077038
  0
LINE
  5
31A
100
AcDbEntity
  8
0
  6
CONTINUOUS
 62
           3
100
AcDbLine
 10
6470.230123756001
 20
1377.599999308663
 11
6465.899996721672
 21
1377.599999308663
  0
LINE
  5
319
100
AcDbEntity
  8
0
  6
CONTINUOUS
 62
           3
100
AcDbLine
 10
6463.013245287842
 20
1377.153418958264
 11
6461.569869687343
 21
1377.599999308663
  0
LINE
  5
318
100
AcDbEntity
  8
0
  6
CONTINUOUS
 62
           3
100
AcDbLine
 10
6460.126493853971
 20
1373.046576976907
 11
6461.569869687343
 21
1372.600004077038
  0
LINE
  5
317
100
AcDbEntity
  8
0
  6
CONTINUOUS
 62
           3
100
AcDbLine
 10
6460.126493853971
 20
1377.153418958202
 11
6460.126493853971
 21
1373.046576976907
  0
LINE
  5
316
100
AcDbEntity
  8
0
  6
CONTINUOUS
 62
           3
100
AcDbLine
 10
6465.899996721672
 20
1377.599999308663
 11
6461.569869687343
 21
1377.599999308663
  0
LINE
  5
315
100
AcDbEntity
  8
0
  6
CONTINUOUS
 62
           3
100
AcDbLine
 10
6470.230123756001
 20
1372.600004077038
 11
6465.899996721672
 21
1372.600004077038
  0
LINE
  5
314
100
AcDbEntity
  8
0
  6
CONTINUOUS
 62
           3
100
AcDbLine
 10
6465.899996721672
 20
1372.600004077038
 11
6461.569869687343
 21
1372.600004077038
  0
LINE
  5
313
100
AcDbEntity
  8
0
  6
CONTINUOUS
 62
           3
100
AcDbLine
 10
6461.569869687343
 20
1377.599999308663
 11
6460.899996833471
 21
1377.599999308601
  0
LINE
  5
312
100
AcDbEntity
  8
0
  6
CONTINUOUS
 62
           3
100
AcDbLine
 10
6470.899996609863
 20
1377.599999308601
 11
6470.230123756001
 21
1377.599999308663
  0
LINE
  5
311
100
AcDbEntity
  8
0
  6
CONTINUOUS
 62
           3
100
AcDbLine
 10
6470.899996609863
 20
1372.600004077005
 11
6470.230123756001
 21
1372.600004077038
  0
LINE
  5
310
100
AcDbEntity
  8
0
  6
CONTINUOUS
 62
           3
100
AcDbLine
 10
6468.7867481555
 20
1372.153416276058
 11
6468.786748155361
 21
1368.046581745308
  0
LINE
  5
30F
100
AcDbEntity
  8
0
  6
CONTINUOUS
 62
           3
100
AcDbLine
 10
6463.013245287842
 20
1372.153416276058
 11
6463.013245287842
 21
1368.046581745231
  0
LINE
  5
30E
100
AcDbEntity
  8
0
  6
CONTINUOUS
 62
           3
100
AcDbLine
 10
6471.673499589363
 20
1372.153416276105
 11
6470.230123756001
 21
1372.600004077038
  0
LINE
  5
30D
100
AcDbEntity
  8
0
  6
CONTINUOUS
 62
           3
100
AcDbLine
 10
6471.673499589363
 20
1372.153416276105
 11
6471.673499589363
 21
1368.046581745308
  0
LINE
  5
30C
100
AcDbEntity
  8
0
  6
CONTINUOUS
 62
           3
100
AcDbLine
 10
6468.786748155361
 20
1368.046581745308
 11
6470.230123756001
 21
1367.599993944252
  0
LINE
  5
30B
100
AcDbEntity
  8
0
  6
CONTINUOUS
 62
           3
100
AcDbLine
 10
6463.013245287842
 20
1372.153416276058
 11
6461.569869687343
 21
1372.600004077038
  0
LINE
  5
30A
100
AcDbEntity
  8
0
  6
CONTINUOUS
 62
           3
100
AcDbLine
 10
6460.126493853971
 20
1368.046581745308
 11
6461.569869687343
 21
1367.599993944252
  0
LINE
  5
309
100
AcDbEntity
  8
0
  6
CONTINUOUS
 62
           3
100
AcDbLine
 10
6460.126493853971
 20
1372.153416276105
 11
6460.126493853971
 21
1368.046581745308
  0
LINE
  5
308
100
AcDbEntity
  8
0
  6
CONTINUOUS
 62
           3
100
AcDbLine
 10
6465.899996721672
 20
1367.599993944252
 11
6461.569869687343
 21
1367.599993944252
  0
LINE
  5
307
100
AcDbEntity
  8
0
  6
CONTINUOUS
 62
           3
100
AcDbLine
 10
6470.230123756001
 20
1367.599993944252
 11
6465.899996721672
 21
1367.599993944252
  0
LINE
  5
306
100
AcDbEntity
  8
0
  6
CONTINUOUS
 62
           3
100
AcDbLine
 10
6461.569869687343
 20
1372.600004077038
 11
6460.899996833471
 21
1372.600004077005
  0
LINE
  5
305
100
AcDbEntity
  8
0
  6
CONTINUOUS
 62
           3
100
AcDbLine
 10
6470.899996609863
 20
1367.59999394411
 11
6470.230123756001
 21
1367.599993944252
  0
LINE
  5
304
100
AcDbEntity
  8
0
  6
CONTINUOUS
 62
           3
100
AcDbLine
 10
6461.569869687343
 20
1367.599993944252
 11
6460.899996833471
 21
1367.59999394411
  0
LINE
  5
303
100
AcDbEntity
  8
0
  6
CONTINUOUS
 62
           3
100
AcDbLine
 10
6415.899995976709
 20
1665.000006556365
 11
6419.899996632411
 21
1665.000006556365
  0
LINE
  5
302
100
AcDbEntity
  8
0
  6
CONTINUOUS
 62
           3
100
AcDbLine
 10
6411.899995321011
 20
1665.000006556365
 11
6415.899995976709
 21
1665.000006556365
  0
LINE
  5
301
100
AcDbEntity
  8
0
  6
CONTINUOUS
 62
           3
100
AcDbLine
 10
6462.899996695574
 20
1637.422651052289
 11
6468.89999674776
 21
1637.422651052289
  0
LINE
  5
300
100
AcDbEntity
  8
0
  6
CONTINUOUS
 62
           3
100
AcDbLine
 10
6467.899996816558
 20
1638.422653078989
 11
6463.899996626772
 21
1638.422653078989
  0
LINE
  5
2FF
100
AcDbEntity
  8
0
  6
CONTINUOUS
 62
           3
100
AcDbLine
 10
6473.899997101561
 20
1389.200001954992
 11
6469.39999682976
 21
1389.200001954992
  0
LINE
  5
2FE
100
AcDbEntity
  8
0
  6
CONTINUOUS
 62
           3
100
AcDbLine
 10
6462.399996613573
 20
1394.792847335488
 11
6469.39999682976
 21
1394.792847335488
  0
LINE
  5
2FD
100
AcDbEntity
  8
0
  6
CONTINUOUS
 62
           3
100
AcDbLine
 10
6462.399996613573
 20
1389.200001954992
 11
6457.899996341773
 21
1389.200001954992
  0
LINE
  5
2FC
100
AcDbEntity
  8
0
  6
CONTINUOUS
 62
           3
100
AcDbLine
 10
6469.39999682976
 20
1394.79999989289
 11
6469.39999682976
 21
1389.200001954992
  0
LINE
  5
2FB
100
AcDbEntity
  8
0
  6
CONTINUOUS
 62
           3
100
AcDbLine
 10
6462.399996613573
 20
1389.200001954992
 11
6462.399996613573
 21
1394.79999989289
  0
LINE
  5
2FA
100
AcDbEntity
  8
0
  6
CONTINUOUS
 62
           3
100
AcDbLine
 10
6457.899996341773
 20
1394.79999989289
 11
6457.899996341773
 21
1389.200001954992
  0
LINE
  5
2F9
100
AcDbEntity
  8
0
  6
CONTINUOUS
 62
           3
100
AcDbLine
 10
6473.899997101561
 20
1394.79999989289
 11
6473.899997101561
 21
1389.200001954992
  0
LINE
  5
2F8
100
AcDbEntity
  8
0
  6
CONTINUOUS
 62
           3
100
AcDbLine
 10
6469.39999682976
 20
1392.24646985529
 11
6468.89999674776
 21
1392.24646985529
  0
LINE
  5
2F7
100
AcDbEntity
  8
0
  6
CONTINUOUS
 62
           3
100
AcDbLine
 10
6462.899996695574
 20
1392.24646985529
 11
6462.399996613573
 21
1392.24646985529
  0
LINE
  5
2F6
100
AcDbEntity
  8
0
  6
CONTINUOUS
 62
           3
100
AcDbLine
 10
6469.39999682976
 20
1393.990144133488
 11
6462.399996613573
 21
1393.990144133488
  0
LINE
  5
2F5
100
AcDbEntity
  8
0
  6
CONTINUOUS
 62
           3
100
AcDbLine
 10
6462.399996613573
 20
1390.000000596094
 11
6469.39999682976
 21
1390.000000596094
  0
LINE
  5
2F4
100
AcDbEntity
  8
0
  6
CONTINUOUS
 62
           3
100
AcDbLine
 10
6462.399996613573
 20
1389.200001954992
 11
6469.39999682976
 21
1389.200001954992
  0
LINE
  5
2F3
100
AcDbEntity
  8
0
  6
CONTINUOUS
 62
           3
100
AcDbLine
 10
6465.899996721672
 20
1384.646579623292
 11
6468.39999666576
 21
1384.199999272896
  0
LINE
  5
2F2
100
AcDbEntity
  8
0
  6
CONTINUOUS
 62
           3
100
AcDbLine
 10
6463.399996777552
 20
1384.199999272896
 11
6468.39999666576
 21
1384.199999272896
  0
LINE
  5
2F1
100
AcDbEntity
  8
0
  6
CONTINUOUS
 62
           3
100
AcDbLine
 10
6465.899996721672
 20
1384.646579623292
 11
6465.899996721672
 21
1389.100000262191
  0
LINE
  5
2F0
100
AcDbEntity
  8
0
  6
CONTINUOUS
 62
           3
100
AcDbLine
 10
6460.899996833471
 20
1384.646579623299
 11
6463.399996777552
 21
1384.199999272896
  0
LINE
  5
2EF
100
AcDbEntity
  8
0
  6
CONTINUOUS
 62
           3
100
AcDbLine
 10
6460.899996833471
 20
1384.646579623299
 11
6460.899996833471
 21
1389.100000262191
  0
LINE
  5
2EE
100
AcDbEntity
  8
0
  6
CONTINUOUS
 62
           3
100
AcDbLine
 10
6470.899996609863
 20
1384.646579623299
 11
6470.899996609863
 21
1389.100000262191
  0
LINE
  5
2ED
100
AcDbEntity
  8
0
  6
CONTINUOUS
 62
           3
100
AcDbLine
 10
6460.899996833431
 20
1384.199999272896
 11
6463.399996777552
 21
1384.199999272896
  0
LINE
  5
2EC
100
AcDbEntity
  8
0
  6
CONTINUOUS
 62
           3
100
AcDbLine
 10
6468.39999666576
 20
1384.199999272896
 11
6470.89999660991
 21
1384.199999272896
  0
LINE
  5
2EB
100
AcDbEntity
  8
0
  6
CONTINUOUS
 62
           3
100
AcDbLine
 10
6473.899997101561
 20
1388.276241719792
 11
6470.899996609863
 21
1388.276241719792
  0
LINE
  5
2EA
100
AcDbEntity
  8
0
  6
CONTINUOUS
 62
           3
100
AcDbLine
 10
6460.899996833471
 20
1388.276241719792
 11
6457.899996341773
 21
1388.276241719792
  0
LINE
  5
2E9
100
AcDbEntity
  8
0
  6
CONTINUOUS
 62
           3
100
AcDbLine
 10
6457.899996341773
 20
1389.200001954992
 11
6457.899996341773
 21
1388.276241719792
  0
LINE
  5
2E8
100
AcDbEntity
  8
0
  6
CONTINUOUS
 62
           3
100
AcDbLine
 10
6473.899997101561
 20
1389.200001954992
 11
6473.899997101561
 21
1388.276241719792
  0
LINE
  5
2E7
100
AcDbEntity
  8
0
  6
CONTINUOUS
 62
           3
100
AcDbLine
 10
6435.899997392188
 20
1550.00000074496
 11
6445.899997168584
 21
1550.00000074496
  0
LINE
  5
2E6
100
AcDbEntity
  8
0
  6
CONTINUOUS
 62
           3
100
AcDbLine
 10
6445.899997168584
 20
1548.799999058061
 11
6445.899997168584
 21
1550.00000074496
  0
LINE
  5
2E5
100
AcDbEntity
  8
0
  6
CONTINUOUS
 62
           3
100
AcDbLine
 10
6435.899997392188
 20
1548.799999058061
 11
6445.899997168584
 21
1548.799999058061
  0
LINE
  5
2E4
100
AcDbEntity
  8
0
  6
CONTINUOUS
 62
           3
100
AcDbLine
 10
6435.899997392188
 20
1548.799999058061
 11
6435.899997392188
 21
1550.00000074496
  0
LINE
  5
2E3
100
AcDbEntity
  8
0
  6
CONTINUOUS
 62
           3
100
AcDbLine
 10
6485.89999627475
 20
1548.799999058061
 11
6485.89999627475
 21
1550.00000074496
  0
LINE
  5
2E2
100
AcDbEntity
  8
0
  6
CONTINUOUS
 62
           3
100
AcDbLine
 10
6471.149996650863
 20
1548.799999058061
 11
6485.89999627475
 21
1548.799999058061
  0
LINE
  5
2E1
100
AcDbEntity
  8
0
  6
CONTINUOUS
 62
           3
100
AcDbLine
 10
6471.149996650863
 20
1550.00000074496
 11
6485.89999627475
 21
1550.00000074496
  0
LINE
  5
2E0
100
AcDbEntity
  8
0
  6
CONTINUOUS
 62
           3
100
AcDbLine
 10
6445.899997168584
 20
1548.799999058061
 11
6460.649996792471
 21
1548.799999058061
  0
LINE
  5
2DF
100
AcDbEntity
  8
0
  6
CONTINUOUS
 62
           3
100
AcDbLine
 10
6445.899997168584
 20
1550.00000074496
 11
6460.649996792471
 21
1550.00000074496
  0
LINE
  5
2DE
100
AcDbEntity
  8
0
  6
CONTINUOUS
 62
           3
100
AcDbLine
 10
6445.899997168584
 20
1391.199998557589
 11
6445.899997168584
 21
1390.000000596094
  0
LINE
  5
2DD
100
AcDbEntity
  8
0
  6
CONTINUOUS
 62
           3
100
AcDbLine
 10
6445.899997168584
 20
1390.000000596094
 11
6457.899996341773
 21
1390.000000596094
  0
LINE
  5
2DC
100
AcDbEntity
  8
0
  6
CONTINUOUS
 62
           3
100
AcDbLine
 10
6445.899997168584
 20
1391.199998557589
 11
6457.899996341773
 21
1391.199998557589
  0
LINE
  5
2DB
100
AcDbEntity
  8
0
  6
CONTINUOUS
 62
           3
100
AcDbLine
 10
6469.14999678876
 20
1390.000000596094
 11
6469.14999678876
 21
1391.199998557589
  0
LINE
  5
2DA
100
AcDbEntity
  8
0
  6
CONTINUOUS
 62
           3
100
AcDbLine
 10
6469.14999678876
 20
1391.199998557589
 11
6469.39999682976
 21
1391.199998557589
  0
LINE
  5
2D9
100
AcDbEntity
  8
0
  6
CONTINUOUS
 62
           3
100
AcDbLine
 10
6495.899996051142
 20
1548.799999058061
 11
6495.899996051142
 21
1550.00000074496
  0
LINE
  5
2D8
100
AcDbEntity
  8
0
  6
CONTINUOUS
 62
           3
100
AcDbLine
 10
6495.899996051142
 20
1548.799999058061
 11
6485.89999627475
 21
1548.799999058061
  0
LINE
  5
2D7
100
AcDbEntity
  8
0
  6
CONTINUOUS
 62
           3
100
AcDbLine
 10
6495.899996051142
 20
1550.00000074496
 11
6485.89999627475
 21
1550.00000074496
  0
LINE
  5
2D6
100
AcDbEntity
  8
0
  6
CONTINUOUS
 62
           3
100
AcDbLine
 10
6469.14999678876
 20
1548.799999058061
 11
6469.14999678876
 21
1550.00000074496
  0
LINE
  5
2D5
100
AcDbEntity
  8
0
  6
CONTINUOUS
 62
           3
100
AcDbLine
 10
6471.149996650863
 20
1548.799999058061
 11
6469.14999678876
 21
1548.799999058061
  0
LINE
  5
2D4
100
AcDbEntity
  8
0
  6
CONTINUOUS
 62
           3
100
AcDbLine
 10
6469.14999678876
 20
1550.00000074496
 11
6471.149996650863
 21
1550.00000074496
  0
LINE
  5
2D3
100
AcDbEntity
  8
0
  6
CONTINUOUS
 62
           3
100
AcDbLine
 10
6435.899997392188
 20
1391.199998557589
 11
6435.899997392188
 21
1390.000000596094
  0
LINE
  5
2D2
100
AcDbEntity
  8
0
  6
CONTINUOUS
 62
           3
100
AcDbLine
 10
6435.899997392188
 20
1390.000000596094
 11
6445.899997168584
 21
1390.000000596094
  0
LINE
  5
2D1
100
AcDbEntity
  8
0
  6
CONTINUOUS
 62
           3
100
AcDbLine
 10
6435.899997392188
 20
1391.199998557589
 11
6445.899997168584
 21
1391.199998557589
  0
LINE
  5
2D0
100
AcDbEntity
  8
0
  6
CONTINUOUS
 62
           3
100
AcDbLine
 10
6485.89999627475
 20
1391.199998557589
 11
6485.89999627475
 21
1390.000000596094
  0
LINE
  5
2CF
100
AcDbEntity
  8
0
  6
CONTINUOUS
 62
           3
100
AcDbLine
 10
6473.899997101561
 20
1390.000000596094
 11
6485.89999627475
 21
1390.000000596094
  0
LINE
  5
2CE
100
AcDbEntity
  8
0
  6
CONTINUOUS
 62
           3
100
AcDbLine
 10
6473.899997101561
 20
1391.199998557589
 11
6485.89999627475
 21
1391.199998557589
  0
LINE
  5
2CD
100
AcDbEntity
  8
0
  6
CONTINUOUS
 62
           3
100
AcDbLine
 10
6462.649996654573
 20
1550.00000074496
 11
6462.649996654573
 21
1548.799999058061
  0
LINE
  5
2CC
100
AcDbEntity
  8
0
  6
CONTINUOUS
 62
           3
100
AcDbLine
 10
6462.649996654573
 20
1548.799999058061
 11
6460.649996792471
 21
1548.799999058061
  0
LINE
  5
2CB
100
AcDbEntity
  8
0
  6
CONTINUOUS
 62
           3
100
AcDbLine
 10
6460.649996792471
 20
1550.00000074496
 11
6462.649996654573
 21
1550.00000074496
  0
LINE
  5
2CA
100
AcDbEntity
  8
0
  6
CONTINUOUS
 62
           3
100
AcDbLine
 10
6495.899996051142
 20
1391.199998557589
 11
6495.899996051142
 21
1390.000000596094
  0
LINE
  5
2C9
100
AcDbEntity
  8
0
  6
CONTINUOUS
 62
           3
100
AcDbLine
 10
6495.899996051142
 20
1390.000000596094
 11
6485.89999627475
 21
1390.000000596094
  0
LINE
  5
2C8
100
AcDbEntity
  8
0
  6
CONTINUOUS
 62
           3
100
AcDbLine
 10
6495.899996051142
 20
1391.199998557589
 11
6485.89999627475
 21
1391.199998557589
  0
LINE
  5
2C7
100
AcDbEntity
  8
0
  6
CONTINUOUS
 62
           3
100
AcDbLine
 10
6462.649996654573
 20
1391.199998557589
 11
6462.649996654573
 21
1390.000000596094
  0
LINE
  5
2C6
100
AcDbEntity
  8
0
  6
CONTINUOUS
 62
           3
100
AcDbLine
 10
6462.399996613573
 20
1391.199998557589
 11
6462.649996654573
 21
1391.199998557589
  0
LINE
  5
2C5
100
AcDbEntity
  8
0
  6
CONTINUOUS
 62
           3
100
AcDbLine
 10
6412.89999734771
 20
1390.000000596094
 11
6412.89999734771
 21
1391.199998557589
  0
LINE
  5
2C4
100
AcDbEntity
  8
0
  6
CONTINUOUS
 62
           3
100
AcDbLine
 10
6410.89999701971
 20
1390.000000596094
 11
6412.89999734771
 21
1390.000000596094
  0
LINE
  5
2C3
100
AcDbEntity
  8
0
  6
CONTINUOUS
 62
           3
100
AcDbLine
 10
6412.89999734771
 20
1391.199998557589
 11
6410.89999701971
 21
1391.199998557589
  0
LINE
  5
2C2
100
AcDbEntity
  8
0
  6
CONTINUOUS
 62
           3
100
AcDbLine
 10
6418.899998331101
 20
1391.199998557589
 11
6418.899998331101
 21
1390.000000596094
  0
LINE
  5
2C1
100
AcDbEntity
  8
0
  6
CONTINUOUS
 62
           3
100
AcDbLine
 10
6418.899998331101
 20
1390.000000596094
 11
6420.8999949337
 21
1390.000000596094
  0
LINE
  5
2C0
100
AcDbEntity
  8
0
  6
CONTINUOUS
 62
           3
100
AcDbLine
 10
6420.8999949337
 20
1391.199998557589
 11
6418.899998331101
 21
1391.199998557589
  0
LINE
  5
2BF
100
AcDbEntity
  8
0
  6
CONTINUOUS
 62
           3
100
AcDbLine
 10
6518.899996095918
 20
1550.00000074496
 11
6518.899996095918
 21
1548.799999058061
  0
LINE
  5
2BE
100
AcDbEntity
  8
0
  6
CONTINUOUS
 62
           3
100
AcDbLine
 10
6518.899996095918
 20
1548.799999058061
 11
6520.89999642362
 21
1548.799999058061
  0
LINE
  5
2BD
100
AcDbEntity
  8
0
  6
CONTINUOUS
 62
           3
100
AcDbLine
 10
6520.89999642362
 20
1550.00000074496
 11
6518.899996095918
 21
1550.00000074496
  0
LINE
  5
2BC
100
AcDbEntity
  8
0
  6
CONTINUOUS
 62
           3
100
AcDbLine
 10
6512.899995112231
 20
1548.799999058061
 11
6512.899995112231
 21
1550.00000074496
  0
LINE
  5
2BB
100
AcDbEntity
  8
0
  6
CONTINUOUS
 62
           3
100
AcDbLine
 10
6510.89999850963
 20
1548.799999058061
 11
6512.899995112231
 21
1548.799999058061
  0
LINE
  5
2BA
100
AcDbEntity
  8
0
  6
CONTINUOUS
 62
           3
100
AcDbLine
 10
6512.899995112231
 20
1550.00000074496
 11
6510.89999850963
 21
1550.00000074496
  0
LINE
  5
2B9
100
AcDbEntity
  8
0
  6
CONTINUOUS
 62
           3
100
AcDbLine
 10
6518.899996095918
 20
1390.000000596094
 11
6518.899996095918
 21
1391.199998557589
  0
LINE
  5
2B8
100
AcDbEntity
  8
0
  6
CONTINUOUS
 62
           3
100
AcDbLine
 10
6520.89999642362
 20
1390.000000596094
 11
6518.899996095918
 21
1390.000000596094
  0
LINE
  5
2B7
100
AcDbEntity
  8
0
  6
CONTINUOUS
 62
           3
100
AcDbLine
 10
6518.899996095918
 20
1391.199998557589
 11
6520.89999642362
 21
1391.199998557589
  0
LINE
  5
2B6
100
AcDbEntity
  8
0
  6
CONTINUOUS
 62
           3
100
AcDbLine
 10
6512.899995112231
 20
1391.199998557589
 11
6512.899995112231
 21
1390.000000596094
  0
LINE
  5
2B5
100
AcDbEntity
  8
0
  6
CONTINUOUS
 62
           3
100
AcDbLine
 10
6512.899995112231
 20
1390.000000596094
 11
6510.89999850963
 21
1390.000000596094
  0
LINE
  5
2B4
100
AcDbEntity
  8
0
  6
CONTINUOUS
 62
           3
100
AcDbLine
 10
6510.89999850963
 20
1391.199998557589
 11
6512.899995112231
 21
1391.199998557589
  0
LINE
  5
2B3
100
AcDbEntity
  8
0
  6
CONTINUOUS
 62
           3
100
AcDbLine
 10
6412.89999734771
 20
1550.00000074496
 11
6412.89999734771
 21
1548.799999058061
  0
LINE
  5
2B2
100
AcDbEntity
  8
0
  6
CONTINUOUS
 62
           3
100
AcDbLine
 10
6412.89999734771
 20
1548.799999058061
 11
6410.89999701971
 21
1548.799999058061
  0
LINE
  5
2B1
100
AcDbEntity
  8
0
  6
CONTINUOUS
 62
           3
100
AcDbLine
 10
6410.89999701971
 20
1550.00000074496
 11
6412.89999734771
 21
1550.00000074496
  0
LINE
  5
2B0
100
AcDbEntity
  8
0
  6
CONTINUOUS
 62
           3
100
AcDbLine
 10
6418.899998331101
 20
1548.799999058061
 11
6418.899998331101
 21
1550.00000074496
  0
LINE
  5
2AF
100
AcDbEntity
  8
0
  6
CONTINUOUS
 62
           3
100
AcDbLine
 10
6420.8999949337
 20
1548.799999058061
 11
6418.899998331101
 21
1548.799999058061
  0
LINE
  5
2AE
100
AcDbEntity
  8
0
  6
CONTINUOUS
 62
           3
100
AcDbLine
 10
6418.899998331101
 20
1550.00000074496
 11
6420.8999949337
 21
1550.00000074496
  0
LINE
  5
2AD
100
AcDbEntity
  8
0
  6
CONTINUOUS
 62
           3
100
AcDbLine
 10
6420.8999949337
 20
1390.000000596094
 11
6435.899997392188
 21
1390.000000596094
  0
LINE
  5
2AC
100
AcDbEntity
  8
0
  6
CONTINUOUS
 62
           3
100
AcDbLine
 10
6420.8999949337
 20
1391.199998557589
 11
6435.899997392188
 21
1391.199998557589
  0
LINE
  5
2AB
100
AcDbEntity
  8
0
  6
CONTINUOUS
 62
           3
100
AcDbLine
 10
6525.899995380619
 20
1391.199998557589
 11
6525.899995380619
 21
1390.000000596094
  0
LINE
  5
2AA
100
AcDbEntity
  8
0
  6
CONTINUOUS
 62
           3
100
AcDbLine
 10
6525.899995380619
 20
1390.000000596094
 11
6520.89999642362
 21
1390.000000596094
  0
LINE
  5
2A9
100
AcDbEntity
  8
0
  6
CONTINUOUS
 62
           3
100
AcDbLine
 10
6520.89999642362
 20
1391.199998557589
 11
6525.899995380619
 21
1391.199998557589
  0
LINE
  5
2A8
100
AcDbEntity
  8
0
  6
CONTINUOUS
 62
           3
100
AcDbLine
 10
6420.8999949337
 20
1548.799999058061
 11
6435.899997392188
 21
1548.799999058061
  0
LINE
  5
2A7
100
AcDbEntity
  8
0
  6
CONTINUOUS
 62
           3
100
AcDbLine
 10
6420.8999949337
 20
1550.00000074496
 11
6435.899997392188
 21
1550.00000074496
  0
LINE
  5
2A6
100
AcDbEntity
  8
0
  6
CONTINUOUS
 62
           3
100
AcDbLine
 10
6510.89999850963
 20
1390.000000596094
 11
6495.899996051142
 21
1390.000000596094
  0
LINE
  5
2A5
100
AcDbEntity
  8
0
  6
CONTINUOUS
 62
           3
100
AcDbLine
 10
6510.89999850963
 20
1391.199998557589
 11
6495.899996051142
 21
1391.199998557589
  0
LINE
  5
2A4
100
AcDbEntity
  8
0
  6
CONTINUOUS
 62
           3
100
AcDbLine
 10
6525.899995380619
 20
1548.799999058061
 11
6525.899995380619
 21
1550.00000074496
  0
LINE
  5
2A3
100
AcDbEntity
  8
0
  6
CONTINUOUS
 62
           3
100
AcDbLine
 10
6520.89999642362
 20
1548.799999058061
 11
6525.899995380619
 21
1548.799999058061
  0
LINE
  5
2A2
100
AcDbEntity
  8
0
  6
CONTINUOUS
 62
           3
100
AcDbLine
 10
6525.899995380619
 20
1550.00000074496
 11
6520.89999642362
 21
1550.00000074496
  0
LINE
  5
2A1
100
AcDbEntity
  8
0
  6
CONTINUOUS
 62
           3
100
AcDbLine
 10
6510.89999850963
 20
1548.799999058061
 11
6495.899996051142
 21
1548.799999058061
  0
LINE
  5
2A0
100
AcDbEntity
  8
0
  6
CONTINUOUS
 62
           3
100
AcDbLine
 10
6510.89999850963
 20
1550.00000074496
 11
6495.899996051142
 21
1550.00000074496
  0
LINE
  5
29F
100
AcDbEntity
  8
0
  6
CONTINUOUS
 62
           3
100
AcDbLine
 10
6405.899998062711
 20
1548.799999058061
 11
6405.899998062711
 21
1550.00000074496
  0
LINE
  5
29E
100
AcDbEntity
  8
0
  6
CONTINUOUS
 62
           3
100
AcDbLine
 10
6410.89999701971
 20
1548.799999058061
 11
6405.899998062711
 21
1548.799999058061
  0
LINE
  5
29D
100
AcDbEntity
  8
0
  6
CONTINUOUS
 62
           3
100
AcDbLine
 10
6405.899998062711
 20
1550.00000074496
 11
6410.89999701971
 21
1550.00000074496
  0
LINE
  5
29C
100
AcDbEntity
  8
0
  6
CONTINUOUS
 62
           3
100
AcDbLine
 10
6405.899998062711
 20
1391.199998557589
 11
6405.899998062711
 21
1390.000000596094
  0
LINE
  5
29B
100
AcDbEntity
  8
0
  6
CONTINUOUS
 62
           3
100
AcDbLine
 10
6405.899998062711
 20
1390.000000596094
 11
6410.89999701971
 21
1390.000000596094
  0
LINE
  5
29A
100
AcDbEntity
  8
0
  6
CONTINUOUS
 62
           3
100
AcDbLine
 10
6410.89999701971
 20
1391.199998557589
 11
6405.899998062711
 21
1391.199998557589
  0
LINE
  5
299
100
AcDbEntity
  8
0
  6
CONTINUOUS
 62
           3
100
AcDbLine
 10
6469.14999678876
 20
1391.199998557589
 11
6468.89999674776
 21
1391.199998557589
  0
LINE
  5
298
100
AcDbEntity
  8
0
  6
CONTINUOUS
 62
           3
100
AcDbLine
 10
6462.899996695574
 20
1391.199998557589
 11
6462.649996654573
 21
1391.199998557589
  0
LINE
  5
297
100
AcDbEntity
  8
0
  6
CONTINUOUS
 62
           3
100
AcDbLine
 10
6462.649996654573
 20
1548.799999058061
 11
6462.899996695574
 21
1548.799999058061
  0
LINE
  5
296
100
AcDbEntity
  8
0
  6
CONTINUOUS
 62
           3
100
AcDbLine
 10
6468.89999674776
 20
1548.799999058061
 11
6469.14999678876
 21
1548.799999058061
  0
LINE
  5
295
100
AcDbEntity
  8
0
  6
CONTINUOUS
 62
           3
100
AcDbLine
 10
6462.649996654573
 20
1550.00000074496
 11
6462.899996695574
 21
1550.00000074496
  0
LINE
  5
294
100
AcDbEntity
  8
0
  6
CONTINUOUS
 62
           3
100
AcDbLine
 10
6468.89999674776
 20
1550.00000074496
 11
6469.14999678876
 21
1550.00000074496
  0
LINE
  5
293
100
AcDbEntity
  8
0
  6
CONTINUOUS
 62
           3
100
AcDbLine
 10
6525.899995380619
 20
1391.199998557589
 11
6525.899995380619
 21
1391.699999570788
  0
LINE
  5
292
100
AcDbEntity
  8
0
  6
CONTINUOUS
 62
           3
100
AcDbLine
 10
6405.899998062711
 20
1391.199998557589
 11
6405.899998062711
 21
1391.699999570788
  0
LINE
  5
291
100
AcDbEntity
  8
0
  6
CONTINUOUS
 62
           3
100
AcDbLine
 10
6405.899998062711
 20
1548.799999058061
 11
6405.899998062711
 21
1548.300001770262
  0
LINE
  5
290
100
AcDbEntity
  8
0
  6
CONTINUOUS
 62
           3
100
AcDbLine
 10
6525.899995380619
 20
1548.799999058061
 11
6525.899995380619
 21
1548.300001770262
  0
LINE
  5
28F
100
AcDbEntity
  8
0
  6
CONTINUOUS
 62
           3
100
AcDbLine
 10
6525.899995380619
 20
1529.999999329477
 11
6524.199996405622
 21
1529.999999329477
  0
LINE
  5
28E
100
AcDbEntity
  8
0
  6
CONTINUOUS
 62
           3
100
AcDbLine
 10
6525.899995380619
 20
1509.999999776392
 11
6525.899995380619
 21
1529.999999329477
  0
LINE
  5
28D
100
AcDbEntity
  8
0
  6
CONTINUOUS
 62
           3
100
AcDbLine
 10
6524.199996405622
 20
1509.999999776392
 11
6525.82480412102
 21
1509.999999776392
  0
LINE
  5
28C
100
AcDbEntity
  8
0
  6
CONTINUOUS
 62
           3
100
AcDbLine
 10
6407.899998390712
 20
1532.000001519875
 11
6405.899998062711
 21
1532.000001519875
  0
LINE
  5
28B
100
AcDbEntity
  8
0
  6
CONTINUOUS
 62
           3
100
AcDbLine
 10
6405.899998062711
 20
1548.300001770262
 11
6405.899998062711
 21
1532.000001519875
  0
LINE
  5
28A
100
AcDbEntity
  8
0
  6
CONTINUOUS
 62
           3
100
AcDbLine
 10
6525.899995380619
 20
1548.300001770262
 11
6525.899995380619
 21
1532.000001519875
  0
LINE
  5
289
100
AcDbEntity
  8
0
  6
CONTINUOUS
 62
           3
100
AcDbLine
 10
6523.89999505262
 20
1532.000001519875
 11
6525.899995380619
 21
1532.000001519875
  0
LINE
  5
288
100
AcDbEntity
  8
0
  6
CONTINUOUS
 62
           3
100
AcDbLine
 10
6524.199996405622
 20
1529.999999329477
 11
6523.89999505262
 21
1529.999999329477
  0
LINE
  5
287
100
AcDbEntity
  8
0
  6
CONTINUOUS
 62
           3
100
AcDbLine
 10
6523.89999505262
 20
1509.999999776392
 11
6524.199996405622
 21
1509.999999776392
  0
LINE
  5
286
100
AcDbEntity
  8
0
  6
CONTINUOUS
 62
           3
100
AcDbLine
 10
6525.899995380619
 20
1508.000000379896
 11
6523.89999505262
 21
1508.000000379896
  0
LINE
  5
285
100
AcDbEntity
  8
0
  6
CONTINUOUS
 62
           3
100
AcDbLine
 10
6525.899995380619
 20
1508.000000379896
 11
6525.899995380619
 21
1431.999996304556
  0
LINE
  5
284
100
AcDbEntity
  8
0
  6
CONTINUOUS
 62
           3
100
AcDbLine
 10
6525.899995380619
 20
1431.999996304556
 11
6523.89999505262
 21
1431.999996304556
  0
LINE
  5
283
100
AcDbEntity
  8
0
  6
CONTINUOUS
 62
           3
100
AcDbLine
 10
6523.89999505262
 20
1429.999999701959
 11
6524.199996405622
 21
1429.999999701959
  0
LINE
  5
282
100
AcDbEntity
  8
0
  6
CONTINUOUS
 62
           3
100
AcDbLine
 10
6524.199996405622
 20
1409.999996423776
 11
6523.89999505262
 21
1409.999996423776
  0
LINE
  5
281
100
AcDbEntity
  8
0
  6
CONTINUOUS
 62
           3
100
AcDbLine
 10
6523.89999505262
 20
1407.999999821179
 11
6525.899995380619
 21
1407.999999821179
  0
LINE
  5
280
100
AcDbEntity
  8
0
  6
CONTINUOUS
 62
           3
100
AcDbLine
 10
6525.899995380619
 20
1391.699999570788
 11
6525.899995380619
 21
1407.999999821179
  0
LINE
  5
27F
100
AcDbEntity
  8
0
  6
CONTINUOUS
 62
           3
100
AcDbLine
 10
6405.899998062711
 20
1391.699999570788
 11
6405.899998062711
 21
1407.999999821179
  0
LINE
  5
27E
100
AcDbEntity
  8
0
  6
CONTINUOUS
 62
           3
100
AcDbLine
 10
6407.899998390712
 20
1407.999999821179
 11
6405.899998062711
 21
1407.999999821179
  0
LINE
  5
27D
100
AcDbEntity
  8
0
  6
CONTINUOUS
 62
           3
100
AcDbLine
 10
6407.599997037713
 20
1409.999996423776
 11
6407.899998390712
 21
1409.999996423776
  0
LINE
  5
27C
100
AcDbEntity
  8
0
  6
CONTINUOUS
 62
           3
100
AcDbLine
 10
6407.899998390712
 20
1429.999999701959
 11
6407.599997037713
 21
1429.999999701959
  0
LINE
  5
27B
100
AcDbEntity
  8
0
  6
CONTINUOUS
 62
           3
100
AcDbLine
 10
6405.899998062711
 20
1431.999996304556
 11
6407.899998390712
 21
1431.999996304556
  0
LINE
  5
27A
100
AcDbEntity
  8
0
  6
CONTINUOUS
 62
           3
100
AcDbLine
 10
6405.899998062711
 20
1508.000000379896
 11
6405.899998062711
 21
1431.999996304556
  0
LINE
  5
279
100
AcDbEntity
  8
0
  6
CONTINUOUS
 62
           3
100
AcDbLine
 10
6405.899998062711
 20
1508.000000379896
 11
6407.899998390712
 21
1508.000000379896
  0
LINE
  5
278
100
AcDbEntity
  8
0
  6
CONTINUOUS
 62
           3
100
AcDbLine
 10
6407.899998390712
 20
1509.999999776392
 11
6407.599997037713
 21
1509.999999776392
  0
LINE
  5
277
100
AcDbEntity
  8
0
  6
CONTINUOUS
 62
           3
100
AcDbLine
 10
6407.599997037713
 20
1529.999999329477
 11
6407.899998390712
 21
1529.999999329477
  0
LINE
  5
276
100
AcDbEntity
  8
0
  6
CONTINUOUS
 62
           3
100
AcDbLine
 10
6405.899998062711
 20
1429.999999701959
 11
6405.899998062711
 21
1409.999996423776
  0
LINE
  5
275
100
AcDbEntity
  8
0
  6
CONTINUOUS
 62
           3
100
AcDbLine
 10
6407.599997037713
 20
1429.999999701959
 11
6405.899998062711
 21
1429.999999701959
  0
LINE
  5
274
100
AcDbEntity
  8
0
  6
CONTINUOUS
 62
           3
100
AcDbLine
 10
6405.975189322321
 20
1409.999996423776
 11
6407.599997037713
 21
1409.999996423776
  0
LINE
  5
273
100
AcDbEntity
  8
0
  6
CONTINUOUS
 62
           3
100
AcDbLine
 10
6407.599997037713
 20
1509.999999776392
 11
6405.975189322321
 21
1509.999999776392
  0
LINE
  5
272
100
AcDbEntity
  8
0
  6
CONTINUOUS
 62
           3
100
AcDbLine
 10
6405.899998062711
 20
1509.999999776392
 11
6405.899998062711
 21
1529.999999329477
  0
LINE
  5
271
100
AcDbEntity
  8
0
  6
CONTINUOUS
 62
           3
100
AcDbLine
 10
6405.899998062711
 20
1529.999999329477
 11
6407.599997037713
 21
1529.999999329477
  0
LINE
  5
270
100
AcDbEntity
  8
0
  6
CONTINUOUS
 62
           3
100
AcDbLine
 10
6525.899995380619
 20
1429.999999701959
 11
6525.899995380619
 21
1409.999996423776
  0
LINE
  5
26F
100
AcDbEntity
  8
0
  6
CONTINUOUS
 62
           3
100
AcDbLine
 10
6524.199996405622
 20
1429.999999701959
 11
6525.899995380619
 21
1429.999999701959
  0
LINE
  5
26E
100
AcDbEntity
  8
0
  6
CONTINUOUS
 62
           3
100
AcDbLine
 10
6525.82480412102
 20
1409.999996423776
 11
6524.199996405622
 21
1409.999996423776
  0
LINE
  5
26D
100
AcDbEntity
  8
0
  6
CONTINUOUS
 62
           3
100
AcDbLine
 10
6412.89999734771
 20
1364.999994635811
 11
6412.89999734771
 21
1366.60000681871
  0
LINE
  5
26C
100
AcDbEntity
  8
0
  6
CONTINUOUS
 62
           3
100
AcDbLine
 10
6410.89999701971
 20
1364.999994635811
 11
6412.89999734771
 21
1364.999994635811
  0
LINE
  5
26B
100
AcDbEntity
  8
0
  6
CONTINUOUS
 62
           3
100
AcDbLine
 10
6412.89999734771
 20
1366.60000681871
 11
6410.89999701971
 21
1366.60000681871
  0
LINE
  5
26A
100
AcDbEntity
  8
0
  6
CONTINUOUS
 62
           3
100
AcDbLine
 10
6410.89999701971
 20
1635.000005364193
 11
6412.89999734771
 21
1635.000005364193
  0
LINE
  5
269
100
AcDbEntity
  8
0
  6
CONTINUOUS
 62
           3
100
AcDbLine
 10
6412.89999734771
 20
1635.000005364193
 11
6412.89999734771
 21
1633.399993180992
  0
LINE
  5
268
100
AcDbEntity
  8
0
  6
CONTINUOUS
 62
           3
100
AcDbLine
 10
6412.89999734771
 20
1633.399993180992
 11
6410.89999701971
 21
1633.399993180992
  0
LINE
  5
267
100
AcDbEntity
  8
0
  6
CONTINUOUS
 62
           3
100
AcDbLine
 10
6418.899998331101
 20
1633.399993180992
 11
6418.899998331101
 21
1635.000005364193
  0
LINE
  5
266
100
AcDbEntity
  8
0
  6
CONTINUOUS
 62
           3
100
AcDbLine
 10
6418.899998331101
 20
1635.000005364193
 11
6420.8999949337
 21
1635.000005364193
  0
LINE
  5
265
100
AcDbEntity
  8
0
  6
CONTINUOUS
 62
           3
100
AcDbLine
 10
6420.8999949337
 20
1633.399993180992
 11
6418.899998331101
 21
1633.399993180992
  0
LINE
  5
264
100
AcDbEntity
  8
0
  6
CONTINUOUS
 62
           3
100
AcDbLine
 10
6418.899998331101
 20
1364.999994635811
 11
6420.8999949337
 21
1364.999994635811
  0
LINE
  5
263
100
AcDbEntity
  8
0
  6
CONTINUOUS
 62
           3
100
AcDbLine
 10
6418.899998331101
 20
1366.60000681871
 11
6418.899998331101
 21
1364.999994635811
  0
LINE
  5
262
100
AcDbEntity
  8
0
  6
CONTINUOUS
 62
           3
100
AcDbLine
 10
6420.8999949337
 20
1366.60000681871
 11
6418.899998331101
 21
1366.60000681871
  0
LINE
  5
261
100
AcDbEntity
  8
0
  6
CONTINUOUS
 62
           3
100
AcDbLine
 10
6420.8999949337
 20
1364.999994635811
 11
6510.89999850963
 21
1364.999994635811
  0
LINE
  5
260
100
AcDbEntity
  8
0
  6
CONTINUOUS
 62
           3
100
AcDbLine
 10
6420.8999949337
 20
1366.60000681871
 11
6510.89999850963
 21
1366.60000681871
  0
LINE
  5
25F
100
AcDbEntity
  8
0
  6
CONTINUOUS
 62
           3
100
AcDbLine
 10
6420.8999949337
 20
1635.000005364193
 11
6510.89999850963
 21
1635.000005364193
  0
LINE
  5
25E
100
AcDbEntity
  8
0
  6
CONTINUOUS
 62
           3
100
AcDbLine
 10
6420.8999949337
 20
1633.399993180992
 11
6510.89999850963
 21
1633.399993180992
  0
LINE
  5
25D
100
AcDbEntity
  8
0
  6
CONTINUOUS
 62
           3
100
AcDbLine
 10
6405.899998062711
 20
1366.60000681871
 11
6405.899998062711
 21
1364.999994635811
  0
LINE
  5
25C
100
AcDbEntity
  8
0
  6
CONTINUOUS
 62
           3
100
AcDbLine
 10
6405.899998062711
 20
1364.999994635811
 11
6410.89999701971
 21
1364.999994635811
  0
LINE
  5
25B
100
AcDbEntity
  8
0
  6
CONTINUOUS
 62
           3
100
AcDbLine
 10
6410.89999701971
 20
1366.60000681871
 11
6405.899998062711
 21
1366.60000681871
  0
LINE
  5
25A
100
AcDbEntity
  8
0
  6
CONTINUOUS
 62
           3
100
AcDbLine
 10
6405.899998062711
 20
1633.399993180992
 11
6405.899998062711
 21
1635.000005364193
  0
LINE
  5
259
100
AcDbEntity
  8
0
  6
CONTINUOUS
 62
           3
100
AcDbLine
 10
6405.899998062711
 20
1635.000005364193
 11
6410.89999701971
 21
1635.000005364193
  0
LINE
  5
258
100
AcDbEntity
  8
0
  6
CONTINUOUS
 62
           3
100
AcDbLine
 10
6410.89999701971
 20
1633.399993180992
 11
6405.899998062711
 21
1633.399993180992
  0
LINE
  5
257
100
AcDbEntity
  8
0
  6
CONTINUOUS
 62
           3
100
AcDbLine
 10
6518.899996095918
 20
1635.000005364193
 11
6518.899996095918
 21
1633.399993180992
  0
LINE
  5
256
100
AcDbEntity
  8
0
  6
CONTINUOUS
 62
           3
100
AcDbLine
 10
6520.89999642362
 20
1635.000005364193
 11
6518.899996095918
 21
1635.000005364193
  0
LINE
  5
255
100
AcDbEntity
  8
0
  6
CONTINUOUS
 62
           3
100
AcDbLine
 10
6518.899996095918
 20
1633.399993180992
 11
6520.89999642362
 21
1633.399993180992
  0
LINE
  5
254
100
AcDbEntity
  8
0
  6
CONTINUOUS
 62
           3
100
AcDbLine
 10
6518.899996095918
 20
1364.999994635811
 11
6518.899996095918
 21
1366.60000681871
  0
LINE
  5
253
100
AcDbEntity
  8
0
  6
CONTINUOUS
 62
           3
100
AcDbLine
 10
6520.89999642362
 20
1364.999994635811
 11
6518.899996095918
 21
1364.999994635811
  0
LINE
  5
252
100
AcDbEntity
  8
0
  6
CONTINUOUS
 62
           3
100
AcDbLine
 10
6518.899996095918
 20
1366.60000681871
 11
6520.89999642362
 21
1366.60000681871
  0
LINE
  5
251
100
AcDbEntity
  8
0
  6
CONTINUOUS
 62
           3
100
AcDbLine
 10
6512.899995112231
 20
1633.399993180992
 11
6512.899995112231
 21
1635.000005364193
  0
LINE
  5
250
100
AcDbEntity
  8
0
  6
CONTINUOUS
 62
           3
100
AcDbLine
 10
6512.899995112231
 20
1635.000005364193
 11
6510.89999850963
 21
1635.000005364193
  0
LINE
  5
24F
100
AcDbEntity
  8
0
  6
CONTINUOUS
 62
           3
100
AcDbLine
 10
6510.89999850963
 20
1633.399993180992
 11
6512.899995112231
 21
1633.399993180992
  0
LINE
  5
24E
100
AcDbEntity
  8
0
  6
CONTINUOUS
 62
           3
100
AcDbLine
 10
6512.899995112231
 20
1366.60000681871
 11
6512.899995112231
 21
1364.999994635811
  0
LINE
  5
24D
100
AcDbEntity
  8
0
  6
CONTINUOUS
 62
           3
100
AcDbLine
 10
6512.899995112231
 20
1364.999994635811
 11
6510.89999850963
 21
1364.999994635811
  0
LINE
  5
24C
100
AcDbEntity
  8
0
  6
CONTINUOUS
 62
           3
100
AcDbLine
 10
6510.89999850963
 20
1366.60000681871
 11
6512.899995112231
 21
1366.60000681871
  0
LINE
  5
24B
100
AcDbEntity
  8
0
  6
CONTINUOUS
 62
           3
100
AcDbLine
 10
6525.899995380619
 20
1366.60000681871
 11
6525.899995380619
 21
1364.999994635811
  0
LINE
  5
24A
100
AcDbEntity
  8
0
  6
CONTINUOUS
 62
           3
100
AcDbLine
 10
6525.899995380619
 20
1364.999994635811
 11
6520.89999642362
 21
1364.999994635811
  0
LINE
  5
249
100
AcDbEntity
  8
0
  6
CONTINUOUS
 62
           3
100
AcDbLine
 10
6520.89999642362
 20
1366.60000681871
 11
6525.899995380619
 21
1366.60000681871
  0
LINE
  5
248
100
AcDbEntity
  8
0
  6
CONTINUOUS
 62
           3
100
AcDbLine
 10
6525.899995380619
 20
1633.399993180992
 11
6525.899995380619
 21
1635.000005364193
  0
LINE
  5
247
100
AcDbEntity
  8
0
  6
CONTINUOUS
 62
           3
100
AcDbLine
 10
6525.899995380619
 20
1635.000005364193
 11
6520.89999642362
 21
1635.000005364193
  0
LINE
  5
246
100
AcDbEntity
  8
0
  6
CONTINUOUS
 62
           3
100
AcDbLine
 10
6520.89999642362
 20
1633.399993180992
 11
6525.899995380619
 21
1633.399993180992
  0
LINE
  5
245
100
AcDbEntity
  8
0
  6
CONTINUOUS
 62
           3
100
AcDbLine
 10
6525.899995380619
 20
1633.399993180992
 11
6525.899995380619
 21
1632.69999623299
  0
LINE
  5
244
100
AcDbEntity
  8
0
  6
CONTINUOUS
 62
           3
100
AcDbLine
 10
6405.899998062711
 20
1633.399993180992
 11
6405.899998062711
 21
1632.69999623299
  0
LINE
  5
243
100
AcDbEntity
  8
0
  6
CONTINUOUS
 62
           3
100
AcDbLine
 10
6525.899995380619
 20
1366.60000681871
 11
6525.899995380619
 21
1367.30000376701
  0
LINE
  5
242
100
AcDbEntity
  8
0
  6
CONTINUOUS
 62
           3
100
AcDbLine
 10
6405.899998062711
 20
1366.60000681871
 11
6405.899998062711
 21
1367.30000376701
  0
LINE
  5
241
100
AcDbEntity
  8
0
  6
CONTINUOUS
 62
           3
100
AcDbLine
 10
6385.499999189232
 20
1364.999994635811
 11
6383.399993443331
 21
1364.999994635811
  0
LINE
  5
240
100
AcDbEntity
  8
0
  6
CONTINUOUS
 62
           3
100
AcDbLine
 10
6383.399993443331
 20
1635.000005364193
 11
6383.399993443331
 21
1364.999994635811
  0
LINE
  5
23F
100
AcDbEntity
  8
0
  6
CONTINUOUS
 62
           3
100
AcDbLine
 10
6385.499999189232
 20
1635.000005364193
 11
6383.399993443331
 21
1635.000005364193
  0
LINE
  5
23E
100
AcDbEntity
  8
0
  6
CONTINUOUS
 62
           3
100
AcDbLine
 10
6527.399998420223
 20
1490.000000223608
 11
6525.899995380619
 21
1490.000000223608
  0
LINE
  5
23D
100
AcDbEntity
  8
0
  6
CONTINUOUS
 62
           3
100
AcDbLine
 10
6524.399996066123
 20
1431.999996304556
 11
6524.399996066123
 21
1429.999999701959
  0
LINE
  5
23C
100
AcDbEntity
  8
0
  6
CONTINUOUS
 62
           3
100
AcDbLine
 10
6525.82480412102
 20
1409.999996423776
 11
6527.399998420223
 21
1409.999996423776
  0
LINE
  5
23B
100
AcDbEntity
  8
0
  6
CONTINUOUS
 62
           3
100
AcDbLine
 10
6527.399998420223
 20
1409.999996423776
 11
6527.399998420223
 21
1490.000000223608
  0
LINE
  5
23A
100
AcDbEntity
  8
0
  6
CONTINUOUS
 62
           3
100
AcDbLine
 10
6524.399996066123
 20
1590.000003576228
 11
6527.399998420223
 21
1590.000003576228
  0
LINE
  5
239
100
AcDbEntity
  8
0
  6
CONTINUOUS
 62
           3
100
AcDbLine
 10
6524.399996066123
 20
1529.999999329477
 11
6524.399996066123
 21
1532.000001519875
  0
LINE
  5
238
100
AcDbEntity
  8
0
  6
CONTINUOUS
 62
           3
100
AcDbLine
 10
6524.399996066123
 20
1550.00000074496
 11
6524.399996066123
 21
1590.000003576228
  0
LINE
  5
237
100
AcDbEntity
  8
0
  6
CONTINUOUS
 62
           3
100
AcDbLine
 10
6527.399998420223
 20
1509.999999776392
 11
6525.82480412102
 21
1509.999999776392
  0
LINE
  5
236
100
AcDbEntity
  8
0
  6
CONTINUOUS
 62
           3
100
AcDbLine
 10
6527.399998420223
 20
1590.000003576228
 11
6527.399998420223
 21
1509.999999776392
  0
LINE
  5
235
100
AcDbEntity
  8
0
  6
CONTINUOUS
 62
           3
100
AcDbLine
 10
6405.975189322321
 20
1409.999996423776
 11
6404.399995023122
 21
1409.999996423776
  0
LINE
  5
234
100
AcDbEntity
  8
0
  6
CONTINUOUS
 62
           3
100
AcDbLine
 10
6407.399997377514
 20
1431.999996304556
 11
6407.399997377514
 21
1429.999999701959
  0
LINE
  5
233
100
AcDbEntity
  8
0
  6
CONTINUOUS
 62
           3
100
AcDbLine
 10
6404.399995023122
 20
1490.000000223608
 11
6405.899998062711
 21
1490.000000223608
  0
LINE
  5
232
100
AcDbEntity
  8
0
  6
CONTINUOUS
 62
           3
100
AcDbLine
 10
6404.399995023122
 20
1409.999996423776
 11
6404.399995023122
 21
1490.000000223608
  0
LINE
  5
231
100
AcDbEntity
  8
0
  6
CONTINUOUS
 62
           3
100
AcDbLine
 10
6405.899998062711
 20
1368.00000071531
 11
6405.899998062711
 21
1367.30000376701
  0
LINE
  5
230
100
AcDbEntity
  8
0
  6
CONTINUOUS
 62
           3
100
AcDbLine
 10
6400.899999106018
 20
1364.999994635811
 11
6400.899999106018
 21
1368.00000071531
  0
LINE
  5
22F
100
AcDbEntity
  8
0
  6
CONTINUOUS
 62
           3
100
AcDbLine
 10
6400.899999106018
 20
1635.000005364193
 11
6385.499999189232
 21
1635.000005364193
  0
LINE
  5
22E
100
AcDbEntity
  8
0
  6
CONTINUOUS
 62
           3
100
AcDbLine
 10
6400.899999106018
 20
1635.000005364193
 11
6400.899999106018
 21
1631.999999284693
  0
LINE
  5
22D
100
AcDbEntity
  8
0
  6
CONTINUOUS
 62
           3
100
AcDbLine
 10
6405.899998062711
 20
1631.999999284693
 11
6405.899998062711
 21
1632.69999623299
  0
LINE
  5
22C
100
AcDbEntity
  8
0
  6
CONTINUOUS
 62
           3
100
AcDbLine
 10
6525.899995380619
 20
1631.999999284693
 11
6525.899995380619
 21
1632.69999623299
  0
LINE
  5
22B
100
AcDbEntity
  8
0
  6
CONTINUOUS
 62
           3
100
AcDbLine
 10
6530.899994337312
 20
1635.000005364193
 11
6530.899994337312
 21
1631.999999284693
  0
LINE
  5
22A
100
AcDbEntity
  8
0
  6
CONTINUOUS
 62
           3
100
AcDbLine
 10
6530.899994337312
 20
1364.999994635811
 11
6530.899994337312
 21
1368.00000071531
  0
LINE
  5
229
100
AcDbEntity
  8
0
  6
CONTINUOUS
 62
           3
100
AcDbLine
 10
6525.899995380619
 20
1368.00000071531
 11
6525.899995380619
 21
1367.30000376701
  0
LINE
  5
228
100
AcDbEntity
  8
0
  6
CONTINUOUS
 62
           3
100
AcDbLine
 10
6404.399995023122
 20
1509.999999776392
 11
6405.975189322321
 21
1509.999999776392
  0
LINE
  5
227
100
AcDbEntity
  8
0
  6
CONTINUOUS
 62
           3
100
AcDbLine
 10
6407.399997377514
 20
1529.999999329477
 11
6407.399997377514
 21
1532.000001519875
  0
LINE
  5
226
100
AcDbEntity
  8
0
  6
CONTINUOUS
 62
           3
100
AcDbLine
 10
6407.399997377514
 20
1550.00000074496
 11
6407.399997377514
 21
1590.000003576228
  0
LINE
  5
225
100
AcDbEntity
  8
0
  6
CONTINUOUS
 62
           3
100
AcDbLine
 10
6407.399997377514
 20
1590.000003576228
 11
6404.399995023122
 21
1590.000003576228
  0
LINE
  5
224
100
AcDbEntity
  8
0
  6
CONTINUOUS
 62
           3
100
AcDbLine
 10
6404.399995023122
 20
1590.000003576228
 11
6404.399995023122
 21
1509.999999776392
  0
LINE
  5
223
100
AcDbEntity
  8
0
  6
CONTINUOUS
 62
           3
100
AcDbLine
 10
6400.899999106018
 20
1364.999994635811
 11
6385.499999189232
 21
1364.999994635811
  0
LINE
  5
222
100
AcDbEntity
  8
FORMAT
  6
DOT_CENTER
 62
           3
100
AcDbLine
 10
6390.999996721631
 20
1624.999999999996
 11
6377.399996721741
 21
1624.999999999996
  0
LINE
  5
221
100
AcDbEntity
  8
FORMAT
  6
DOT_CENTER
 62
           3
100
AcDbLine
 10
6390.999996721631
 20
1375.000000000004
 11
6377.399996721741
 21
1375.000000000004
  0
LINE
  5
220
100
AcDbEntity
  8
FORMAT
  6
CONTINUOUS
 62
           3
100
AcDbLine
 10
6479.899996721752
 20
1392.596845102889
 11
6469.399996721762
 21
1392.596845102889
  0
LINE
  5
21F
100
AcDbEntity
  8
FORMAT
  6
CONTINUOUS
 62
           3
100
AcDbLine
 10
6469.399996721762
 20
1392.596845102889
 11
6462.399996721571
 21
1392.596845102889
  0
LINE
  5
21E
100
AcDbEntity
  8
FORMAT
  6
DOT_CENTER
 62
           3
100
AcDbLine
 10
6465.899996721672
 20
1249.759397252252
 11
6465.899996721672
 21
1725.394390768566
  0
LINE
  5
21D
100
AcDbEntity
  8
FORMAT
  6
CONTINUOUS
 62
           3
100
AcDbLine
 10
6462.399996721571
 20
1392.596845102889
 11
6451.899996721581
 21
1392.596845102889
  0
LINE
  5
21C
100
AcDbEntity
  8
0
  6
CONTINUOUS
 62
           3
100
AcDbLine
 10
6465.899996721672
 20
1393.131740391389
 11
6466.955269949172
 21
1393.116392195188
  0
LINE
  5
21B
100
AcDbEntity
  8
0
  6
CONTINUOUS
 62
           3
100
AcDbLine
 10
6466.955269949172
 20
1393.116392195188
 11
6467.89618794006
 21
1393.07201653719
  0
LINE
  5
21A
100
AcDbEntity
  8
0
  6
CONTINUOUS
 62
           3
100
AcDbLine
 10
6467.89618794006
 20
1393.07201653719
 11
6468.620787869761
 21
1393.003411590988
  0
LINE
  5
219
100
AcDbEntity
  8
0
  6
CONTINUOUS
 62
           3
100
AcDbLine
 10
6468.620787869761
 20
1393.003411590988
 11
6469.05054760296
 21
1392.918020486788
  0
LINE
  5
218
100
AcDbEntity
  8
0
  6
CONTINUOUS
 62
           3
100
AcDbLine
 10
6469.05054760296
 20
1392.918020486788
 11
6469.138896354961
 21
1392.825089394988
  0
LINE
  5
217
100
AcDbEntity
  8
0
  6
CONTINUOUS
 62
           3
100
AcDbLine
 10
6469.138896354961
 20
1392.825089394988
 11
6468.89999674776
 21
1392.739541828789
  0
LINE
  5
216
100
AcDbEntity
  8
0
  6
CONTINUOUS
 62
           3
100
AcDbLine
 10
6462.899996695574
 20
1392.739541828789
 11
6462.661097088369
 21
1392.825089394988
  0
LINE
  5
215
100
AcDbEntity
  8
0
  6
CONTINUOUS
 62
           3
100
AcDbLine
 10
6462.661097088369
 20
1392.825089394988
 11
6462.749445840374
 21
1392.918020486788
  0
LINE
  5
214
100
AcDbEntity
  8
0
  6
CONTINUOUS
 62
           3
100
AcDbLine
 10
6462.749445840374
 20
1392.918020486788
 11
6463.179205573571
 21
1393.003411590988
  0
LINE
  5
213
100
AcDbEntity
  8
0
  6
CONTINUOUS
 62
           3
100
AcDbLine
 10
6463.179205573571
 20
1393.003411590988
 11
6463.903805503273
 21
1393.07201653719
  0
LINE
  5
212
100
AcDbEntity
  8
0
  6
CONTINUOUS
 62
           3
100
AcDbLine
 10
6463.903805503273
 20
1393.07201653719
 11
6464.844723494171
 21
1393.116392195188
  0
LINE
  5
211
100
AcDbEntity
  8
0
  6
CONTINUOUS
 62
           3
100
AcDbLine
 10
6464.844723494171
 20
1393.116392195188
 11
6465.899996721672
 21
1393.131740391389
  0
LINE
  5
210
100
AcDbEntity
  8
1
  6
CONTINUOUS
 62
           3
100
AcDbLine
 10
6970.16356769104
 20
1919.128165004931
 11
6965.254330418632
 21
1919.128165004931
  0
LINE
  5
20F
100
AcDbEntity
  8
1
  6
DOT_CENTER
 62
           3
100
AcDbLine
 10
6970.16356769104
 20
1938.643555804871
 11
6970.16356769104
 21
1907.508008255121
  0
LINE
  5
20E
100
AcDbEntity
  8
1
  6
CONTINUOUS
 62
           3
100
AcDbLine
 10
6965.254330418632
 20
1930.871834995065
 11
6970.16356769104
 21
1930.871834995065
  0
LINE
  5
20D
100
AcDbEntity
  8
1
  6
CONTINUOUS
 62
           3
100
AcDbLine
 10
6965.254330418632
 20
1932.693746580037
 11
6959.389214871942
 21
1932.693746580037
  0
LINE
  5
20C
100
AcDbEntity
  8
1
  6
CONTINUOUS
 62
           3
100
AcDbLine
 10
6965.254330418632
 20
1917.306253419956
 11
6959.389214871942
 21
1917.306253419956
  0
LINE
  5
20B
100
AcDbEntity
  8
1
  6
CONTINUOUS
 62
           3
100
AcDbLine
 10
6965.254330418632
 20
1917.306253419956
 11
6965.254330418632
 21
1932.693746580037
  0
LINE
  5
20A
100
AcDbEntity
  8
1
  6
CONTINUOUS
 62
           3
100
AcDbLine
 10
6959.389214871942
 20
1917.306253419956
 11
6959.389214871942
 21
1932.693746580037
  0
LINE
  5
209
100
AcDbEntity
  8
1
  6
CONTINUOUS
 62
           3
100
AcDbLine
 10
6959.389214871942
 20
1932.693746580037
 11
6959.389214871942
 21
1933.249999999996
  0
LINE
  5
208
100
AcDbEntity
  8
1
  6
CONTINUOUS
 62
           3
100
AcDbLine
 10
6949.714603906642
 20
1924.999999999996
 11
6949.714603906642
 21
1933.249999999996
  0
LINE
  5
207
100
AcDbEntity
  8
1
  6
CONTINUOUS
 62
           3
100
AcDbLine
 10
6949.714603906642
 20
1933.249999999996
 11
6959.389214871942
 21
1933.249999999996
  0
LINE
  5
206
100
AcDbEntity
  8
1
  6
CONTINUOUS
 62
           3
100
AcDbLine
 10
6948.86879838446
 20
1930.999999999996
 11
6949.714603906642
 21
1930.999999999996
  0
LINE
  5
205
100
AcDbEntity
  8
1
  6
CONTINUOUS
 62
           3
100
AcDbLine
 10
6948.86879838446
 20
1924.999999999996
 11
6948.86879838446
 21
1932.693746580037
  0
LINE
  5
204
100
AcDbEntity
  8
1
  6
CONTINUOUS
 62
           3
100
AcDbLine
 10
6948.16356769104
 20
1932.693746580037
 11
6948.86879838446
 21
1932.693746580037
  0
LINE
  5
203
100
AcDbEntity
  8
1
  6
CONTINUOUS
 62
           3
100
AcDbLine
 10
6947.66356769104
 20
1932.193746580037
 11
6947.66356769104
 21
1924.999999999996
  0
LINE
  5
202
100
AcDbEntity
  8
1
  6
CONTINUOUS
 62
           3
100
AcDbLine
 10
6947.66356769104
 20
1924.999999999996
 11
6947.66356769104
 21
1917.806253419956
  0
LINE
  5
201
100
AcDbEntity
  8
1
  6
CONTINUOUS
 62
           3
100
AcDbLine
 10
6948.86879838446
 20
1917.306253419956
 11
6948.16356769104
 21
1917.306253419956
  0
LINE
  5
200
100
AcDbEntity
  8
1
  6
CONTINUOUS
 62
           3
100
AcDbLine
 10
6948.86879838446
 20
1917.306253419956
 11
6948.86879838446
 21
1924.999999999996
  0
LINE
  5
1FF
100
AcDbEntity
  8
1
  6
CONTINUOUS
 62
           3
100
AcDbLine
 10
6949.714603906642
 20
1918.999999999996
 11
6948.86879838446
 21
1918.999999999996
  0
LINE
  5
1FE
100
AcDbEntity
  8
1
  6
CONTINUOUS
 62
           3
100
AcDbLine
 10
6949.714603906642
 20
1916.749999999996
 11
6949.714603906642
 21
1924.999999999996
  0
LINE
  5
1FD
100
AcDbEntity
  8
1
  6
CONTINUOUS
 62
           3
100
AcDbLine
 10
6959.389214871942
 20
1916.749999999996
 11
6949.714603906642
 21
1916.749999999996
  0
LINE
  5
1FC
100
AcDbEntity
  8
1
  6
CONTINUOUS
 62
           3
100
AcDbLine
 10
6959.389214871942
 20
1916.749999999996
 11
6959.389214871942
 21
1917.306253419956
  0
LINE
  5
1FB
100
AcDbEntity
  8
1
  6
DOT_CENTER
 62
           3
100
AcDbLine
 10
6946.21851955862
 20
1924.999999999996
 11
6987.667695262439
 21
1924.999999999996
  0
LINE
  5
1FA
100
AcDbEntity
  8
1
  6
CONTINUOUS
 62
           3
100
AcDbLine
 10
6964.489527668228
 20
1917.306253419956
 11
6970.16356769104
 21
1914.030344885394
  0
LINE
  5
1F9
100
AcDbEntity
  8
1
  6
CONTINUOUS
 62
           3
100
AcDbLine
 10
6970.16356769104
 20
1914.030344885394
 11
6979.66356769104
 21
1919.515172442696
  0
LINE
  5
1F8
100
AcDbEntity
  8
1
  6
CONTINUOUS
 62
           3
100
AcDbLine
 10
6979.66356769104
 20
1919.515172442696
 11
6979.66356769104
 21
1930.484827557299
  0
LINE
  5
1F7
100
AcDbEntity
  8
1
  6
CONTINUOUS
 62
           3
100
AcDbLine
 10
6979.66356769104
 20
1930.484827557299
 11
6970.16356769104
 21
1935.969655114599
  0
LINE
  5
1F6
100
AcDbEntity
  8
1
  6
CONTINUOUS
 62
           3
100
AcDbLine
 10
6970.16356769104
 20
1935.969655114599
 11
6964.489527668221
 21
1932.693746580037
  0
LINE
  5
1F5
100
AcDbEntity
  8
1
  6
CONTINUOUS
 62
           7
100
AcDbLine
 10
6099.999999999997
 20
1639.999999999996
 11
6099.999999999999
 21
1752.999999999998
  0
LINE
  5
1F4
100
AcDbEntity
  8
1
  6
CONTINUOUS
 62
           7
100
AcDbLine
 10
6279.999999999999
 20
1752.999999999998
 11
6279.999999999999
 21
1639.999999999998
  0
LINE
  5
1F3
100
AcDbEntity
  8
1
  6
CONTINUOUS
 62
           7
100
AcDbLine
 10
6099.999999999999
 20
1752.999999999998
 11
6279.999999999999
 21
1752.999999999998
  0
LINE
  5
1F2
100
AcDbEntity
  8
1
  6
CONTINUOUS
 62
           7
100
AcDbLine
 10
6279.999999999999
 20
1639.999999999998
 11
6099.999999999997
 21
1639.999999999996
  0
LINE
  5
1F1
100
AcDbEntity
  8
1
  6
CONTINUOUS
 62
           2
100
AcDbLine
 10
6569.999999999999
 20
1800.831132334582
 11
6569.999999999999
 21
519.999999999998
  0
LINE
  5
1F0
100
AcDbEntity
  8
1
  6
CONTINUOUS
 62
           7
100
AcDbLine
 10
6549.999999999999
 20
1784.157226830837
 11
6549.999999999999
 21
1999.999999999998
  0
LINE
  5
1EF
100
AcDbEntity
  8
1
  6
CONTINUOUS
 62
           2
100
AcDbLine
 10
6529.999999999999
 20
1741.488764155296
 11
6529.999999999999
 21
1979.999999999998
  0
LINE
  5
1EE
100
AcDbEntity
  8
1
  6
DOT_CENTER
 62
           3
100
AcDbLine
 10
-1241.527744678122
 20
1340.200848327049
 11
-1241.527744678122
 21
1250.202277327049
  0
LINE
  5
1ED
100
AcDbEntity
  8
1
  6
DOT_CENTER
 62
           3
100
AcDbLine
 10
-1196.527744678122
 20
1295.200848327049
 11
-1286.525199678127
 21
1295.200848327049
  0
LINE
  5
1EC
100
AcDbEntity
  8
1
  6
CONTINUOUS
 62
           3
100
AcDbLine
 10
-1245.063339678116
 20
1323.33071132706
 11
-1247.451285678126
 21
1296.073587327061
  0
LINE
  5
1EB
100
AcDbEntity
  8
1
  6
CONTINUOUS
 62
           3
100
AcDbLine
 10
-1247.451285678126
 20
1294.32810932706
 11
-1245.063339678116
 21
1267.070985327058
  0
LINE
  5
1EA
100
AcDbEntity
  8
1
  6
CONTINUOUS
 62
           3
100
AcDbLine
 10
-1237.992149678107
 20
1323.33071132706
 11
-1235.604203678126
 21
1296.073587327061
  0
LINE
  5
1E9
100
AcDbEntity
  8
1
  6
CONTINUOUS
 62
           3
100
AcDbLine
 10
-1235.604203678126
 20
1294.32810932706
 11
-1237.992149678107
 21
1267.070985327058
  0
LINE
  5
1E8
100
AcDbEntity
  8
1
  6
CONTINUOUS
 62
           7
100
AcDbLine
 10
-1175.000000000001
 20
1646.282992387802
 11
-2325.0
 21
1646.282992387802
  0
LINE
  5
1E7
100
AcDbEntity
  8
1
  6
CONTINUOUS
 62
           7
100
AcDbLine
 10
-2325.0
 20
941.513526798366
 11
-2325.0
 21
1646.282992387802
  0
LINE
  5
1E6
100
AcDbEntity
  8
1
  6
CONTINUOUS
 62
           7
100
AcDbLine
 10
-1175.000000000001
 20
941.513526798366
 11
-1175.000000000001
 21
1646.282992387802
  0
LINE
  5
1E5
100
AcDbEntity
  8
1
  6
CONTINUOUS
 62
           7
100
AcDbLine
 10
-2325.0
 20
941.513526798366
 11
-1175.000000000001
 21
941.513526798366
  0
LINE
  5
1E4
100
AcDbEntity
  8
___S__
  6
DOT_CENTER
 62
           3
100
AcDbLine
 10
-2324.999999999976
 20
1621.052837286497
 11
-2324.999999999977
 21
1536.057127055388
  0
LINE
  5
1E3
100
AcDbEntity
  8
____
  6
CONTINUOUS
 62
           3
100
AcDbLine
 10
-2319.595947044857
 20
1614.449075506231
 11
-2319.595947044857
 21
1612.571144758107
  0
LINE
  5
1E2
100
AcDbEntity
  8
____
  6
CONTINUOUS
 62
           3
100
AcDbLine
 10
-2329.91277541372
 20
1614.918558193263
 11
-2320.087224586232
 21
1614.918558193263
  0
LINE
  5
1E1
100
AcDbEntity
  8
____
  6
CONTINUOUS
 62
           3
100
AcDbLine
 10
-2330.404052955095
 20
1612.571144758109
 11
-2330.404052955095
 21
1614.449075506231
  0
LINE
  5
1E0
100
AcDbEntity
  8
____
  6
CONTINUOUS
 62
           3
100
AcDbLine
 10
-2319.497691536592
 20
1576.890460543777
 11
-2330.502308463369
 21
1576.890460543777
  0
LINE
  5
1DF
100
AcDbEntity
  8
____
  6
CONTINUOUS
 62
           3
100
AcDbLine
 10
-2319.497691536591
 20
1612.571144758107
 11
-2319.497691536592
 21
1576.890460543777
  0
LINE
  5
1DE
100
AcDbEntity
  8
____
  6
CONTINUOUS
 62
           3
100
AcDbLine
 10
-2330.502308463369
 20
1612.571144758109
 11
-2319.497691536591
 21
1612.571144758107
  0
LINE
  5
1DD
100
AcDbEntity
  8
____
  6
CONTINUOUS
 62
           3
100
AcDbLine
 10
-2330.502308463369
 20
1576.890460543777
 11
-2330.502308463369
 21
1612.571144758109
  0
LINE
  5
1DC
100
AcDbEntity
  8
____
  6
CONTINUOUS
 62
           3
100
AcDbLine
 10
-2330.404052955097
 20
1538.392880207259
 11
-2330.404052955097
 21
1540.270810955382
  0
LINE
  5
1DB
100
AcDbEntity
  8
____
  6
CONTINUOUS
 62
           3
100
AcDbLine
 10
-2320.087224586232
 20
1537.92339752023
 11
-2329.912775413722
 21
1537.92339752023
  0
LINE
  5
1DA
100
AcDbEntity
  8
____
  6
CONTINUOUS
 62
           3
100
AcDbLine
 10
-2319.595947044858
 20
1540.270810955382
 11
-2319.595947044858
 21
1538.392880207259
  0
LINE
  5
1D9
100
AcDbEntity
  8
____
  6
CONTINUOUS
 62
           3
100
AcDbLine
 10
-2330.158414184408
 20
1576.890460543777
 11
-2330.158414184408
 21
1575.951495169715
  0
LINE
  5
1D8
100
AcDbEntity
  8
____
  6
CONTINUOUS
 62
           3
100
AcDbLine
 10
-2319.841585815545
 20
1576.890460543777
 11
-2330.158414184408
 21
1576.890460543777
  0
LINE
  5
1D7
100
AcDbEntity
  8
____
  6
CONTINUOUS
 62
           3
100
AcDbLine
 10
-2319.841585815545
 20
1575.951495169715
 11
-2319.841585815545
 21
1576.890460543777
  0
LINE
  5
1D6
100
AcDbEntity
  8
____
  6
CONTINUOUS
 62
           3
100
AcDbLine
 10
-2330.404052955095
 20
1614.449075506231
 11
-2319.595947044857
 21
1614.449075506231
  0
LINE
  5
1D5
100
AcDbEntity
  8
____
  6
CONTINUOUS
 62
           3
100
AcDbLine
 10
-2330.502308463369
 20
1575.951495169715
 11
-2319.497691536592
 21
1575.951495169715
  0
LINE
  5
1D4
100
AcDbEntity
  8
____
  6
CONTINUOUS
 62
           3
100
AcDbLine
 10
-2330.502308463369
 20
1540.270810955382
 11
-2330.502308463369
 21
1575.951495169715
  0
LINE
  5
1D3
100
AcDbEntity
  8
____
  6
CONTINUOUS
 62
           3
100
AcDbLine
 10
-2319.497691536592
 20
1540.270810955382
 11
-2330.502308463369
 21
1540.270810955382
  0
LINE
  5
1D2
100
AcDbEntity
  8
____
  6
CONTINUOUS
 62
           3
100
AcDbLine
 10
-2319.497691536592
 20
1575.951495169715
 11
-2319.497691536592
 21
1540.270810955382
  0
LINE
  5
1D1
100
AcDbEntity
  8
____
  6
CONTINUOUS
 62
           3
100
AcDbLine
 10
-2330.404052955095
 20
1614.449075506231
 11
-2329.91277541372
 21
1614.918558193263
  0
LINE
  5
1D0
100
AcDbEntity
  8
____
  6
CONTINUOUS
 62
           3
100
AcDbLine
 10
-2320.087224586232
 20
1614.918558193263
 11
-2319.595947044857
 21
1614.449075506231
  0
LINE
  5
1CF
100
AcDbEntity
  8
____
  6
CONTINUOUS
 62
           3
100
AcDbLine
 10
-2329.912775413722
 20
1537.92339752023
 11
-2330.404052955097
 21
1538.392880207259
  0
LINE
  5
1CE
100
AcDbEntity
  8
____
  6
CONTINUOUS
 62
           3
100
AcDbLine
 10
-2319.595947044858
 20
1538.392880207259
 11
-2320.087224586232
 21
1537.92339752023
  0
LINE
  5
1CD
100
AcDbEntity
  8
____
  6
CONTINUOUS
 62
           3
100
AcDbLine
 10
-2330.404052955097
 20
1538.392880207259
 11
-2319.595947044858
 21
1538.392880207259
  0
LINE
  5
1CC
100
AcDbEntity
  8
____
  6
CONTINUOUS
 62
           3
100
AcDbLine
 10
-2330.40405295512
 20
984.403309517207
 11
-2319.595947044883
 21
984.403309517207
  0
LINE
  5
1CB
100
AcDbEntity
  8
____
  6
CONTINUOUS
 62
           3
100
AcDbLine
 10
-2319.595947044883
 20
984.403309517207
 11
-2320.087224586257
 21
983.933826830174
  0
LINE
  5
1CA
100
AcDbEntity
  8
____
  6
CONTINUOUS
 62
           3
100
AcDbLine
 10
-2329.912775413746
 20
983.933826830174
 11
-2330.40405295512
 21
984.403309517207
  0
LINE
  5
1C9
100
AcDbEntity
  8
____
  6
CONTINUOUS
 62
           3
100
AcDbLine
 10
-2320.087224586256
 20
1060.92898750321
 11
-2319.595947044881
 21
1060.459504816177
  0
LINE
  5
1C8
100
AcDbEntity
  8
____
  6
CONTINUOUS
 62
           3
100
AcDbLine
 10
-2330.404052955119
 20
1060.459504816177
 11
-2329.912775413744
 21
1060.92898750321
  0
LINE
  5
1C7
100
AcDbEntity
  8
____
  6
CONTINUOUS
 62
           3
100
AcDbLine
 10
-2319.497691536608
 20
1021.961924479661
 11
-2319.49769153661
 21
986.281240265329
  0
LINE
  5
1C6
100
AcDbEntity
  8
____
  6
CONTINUOUS
 62
           3
100
AcDbLine
 10
-2319.49769153661
 20
986.281240265329
 11
-2330.502308463385
 21
986.281240265329
  0
LINE
  5
1C5
100
AcDbEntity
  8
____
  6
CONTINUOUS
 62
           3
100
AcDbLine
 10
-2330.502308463385
 20
986.281240265329
 11
-2330.502308463385
 21
1021.961924479661
  0
LINE
  5
1C4
100
AcDbEntity
  8
____
  6
CONTINUOUS
 62
           3
100
AcDbLine
 10
-2330.502308463385
 20
1021.961924479661
 11
-2319.497691536608
 21
1021.961924479661
  0
LINE
  5
1C3
100
AcDbEntity
  8
____
  6
CONTINUOUS
 62
           3
100
AcDbLine
 10
-2330.404052955119
 20
1060.459504816177
 11
-2319.595947044881
 21
1060.459504816177
  0
LINE
  5
1C2
100
AcDbEntity
  8
____
  6
CONTINUOUS
 62
           3
100
AcDbLine
 10
-2319.84158581557
 20
1021.961924479661
 11
-2319.84158581557
 21
1022.900889853721
  0
LINE
  5
1C1
100
AcDbEntity
  8
____
  6
CONTINUOUS
 62
           3
100
AcDbLine
 10
-2319.84158581557
 20
1022.900889853721
 11
-2330.158414184432
 21
1022.900889853723
  0
LINE
  5
1C0
100
AcDbEntity
  8
____
  6
CONTINUOUS
 62
           3
100
AcDbLine
 10
-2330.158414184432
 20
1022.900889853723
 11
-2330.158414184432
 21
1021.961924479661
  0
LINE
  5
1BF
100
AcDbEntity
  8
____
  6
CONTINUOUS
 62
           3
100
AcDbLine
 10
-2319.595947044883
 20
986.281240265329
 11
-2319.595947044883
 21
984.403309517207
  0
LINE
  5
1BE
100
AcDbEntity
  8
____
  6
CONTINUOUS
 62
           3
100
AcDbLine
 10
-2320.087224586257
 20
983.933826830174
 11
-2329.912775413746
 21
983.933826830174
  0
LINE
  5
1BD
100
AcDbEntity
  8
____
  6
CONTINUOUS
 62
           3
100
AcDbLine
 10
-2330.40405295512
 20
984.403309517207
 11
-2330.40405295512
 21
986.281240265329
  0
LINE
  5
1BC
100
AcDbEntity
  8
____
  6
CONTINUOUS
 62
           3
100
AcDbLine
 10
-2330.502308463385
 20
1022.900889853723
 11
-2330.502308463384
 21
1058.581574068056
  0
LINE
  5
1BB
100
AcDbEntity
  8
____
  6
CONTINUOUS
 62
           3
100
AcDbLine
 10
-2330.502308463384
 20
1058.581574068056
 11
-2319.497691536607
 21
1058.581574068056
  0
LINE
  5
1BA
100
AcDbEntity
  8
____
  6
CONTINUOUS
 62
           3
100
AcDbLine
 10
-2319.497691536607
 20
1058.581574068056
 11
-2319.497691536608
 21
1022.900889853721
  0
LINE
  5
1B9
100
AcDbEntity
  8
____
  6
CONTINUOUS
 62
           3
100
AcDbLine
 10
-2319.497691536608
 20
1022.900889853721
 11
-2330.502308463385
 21
1022.900889853723
  0
LINE
  5
1B8
100
AcDbEntity
  8
____
  6
CONTINUOUS
 62
           3
100
AcDbLine
 10
-2330.404052955119
 20
1058.581574068056
 11
-2330.404052955119
 21
1060.459504816177
  0
LINE
  5
1B7
100
AcDbEntity
  8
____
  6
CONTINUOUS
 62
           3
100
AcDbLine
 10
-2329.912775413744
 20
1060.92898750321
 11
-2320.087224586256
 21
1060.92898750321
  0
LINE
  5
1B6
100
AcDbEntity
  8
____
  6
CONTINUOUS
 62
           3
100
AcDbLine
 10
-2319.595947044881
 20
1060.459504816177
 11
-2319.595947044881
 21
1058.581574068056
  0
LINE
  5
1B5
100
AcDbEntity
  8
___S__
  6
DOT_CENTER
 62
           3
100
AcDbLine
 10
-2325.0
 20
1067.06326659646
 11
-2325.000000000001
 21
982.067556365335
  0
LINE
  5
1B4
100
AcDbEntity
  8
1
  6
CONTINUOUS
 62
           7
100
AcDbLine
 10
2500.0
 20
1763.744569986044
 11
-2500.0
 21
1763.744569986044
  0
LINE
  5
1B3
100
AcDbEntity
  8
1
  6
CONTINUOUS
 62
           2
100
AcDbLine
 10
6569.999999999999
 20
1979.999999999998
 11
6569.999999999999
 21
1814.464669216337
  0
LINE
  5
1B2
100
AcDbEntity
  8
1
  6
CONTINUOUS
 62
           7
100
AcDbLine
 10
1000.0
 20
2000.0
 11
1000.0
 21
500.0
  0
LINE
  5
1B1
100
AcDbEntity
  8
1
  6
CONTINUOUS
 62
           7
100
AcDbLine
 10
-1000.0
 20
500.0
 11
-1000.0
 21
2000.0
  0
LINE
  5
1B0
100
AcDbEntity
  8
1
  6
CONTINUOUS
 62
           2
100
AcDbLine
 10
6529.999999999999
 20
519.999999999998
 11
6529.999999999999
 21
1711.735001917828
  0
LINE
  5
1AF
100
AcDbEntity
  8
1
  6
CONTINUOUS
 62
           7
100
AcDbLine
 10
6549.999999999999
 20
499.999999999998
 11
6549.999999999999
 21
1767.293273528172
  0
LINE
  5
1AE
100
AcDbEntity
  8
1
  6
CONTINUOUS
 62
           7
100
AcDbLine
 10
-2319.49769153661
 20
986.513526798368
 11
-1175.000000000001
 21
986.513526798368
  0
LINE
  5
1AD
100
AcDbEntity
  8
1
  6
CONTINUOUS
 62
           7
100
AcDbLine
 10
6550.0
 20
2000.000000000002
 11
6550.0
 21
2075.000000000002
  0
LINE
  5
1AC
100
AcDbEntity
  8
1
  6
DOT_CENTER
 62
           2
100
AcDbLine
 10
-2199.999999999996
 20
2202.686878034487
 11
-2199.999999999996
 21
2107.00700373383
  0
LINE
  5
1AB
100
AcDbEntity
  8
1
  6
CONTINUOUS
 62
           7
100
AcDbLine
 10
-2184.999999999996
 20
2156.0
 11
-2184.999999999996
 21
2150.0
  0
LINE
  5
1AA
100
AcDbEntity
  8
1
  6
CONTINUOUS
 62
           7
100
AcDbLine
 10
-2214.999999999996
 20
2156.0
 11
-2214.999999999996
 21
2150.0
  0
LINE
  5
1A9
100
AcDbEntity
  8
1
  6
CONTINUOUS
 62
           7
100
AcDbLine
 10
-2154.999999999996
 20
2188.0
 11
-2154.999999999996
 21
2171.0
  0
LINE
  5
1A8
100
AcDbEntity
  8
1
  6
CONTINUOUS
 62
           7
100
AcDbLine
 10
-2162.999999999996
 20
2196.0
 11
-2236.999999999996
 21
2196.0
  0
LINE
  5
1A7
100
AcDbEntity
  8
1
  6
CONTINUOUS
 62
           7
100
AcDbLine
 10
-2244.999999999996
 20
2188.0
 11
-2244.999999999996
 21
2171.0
  0
LINE
  5
1A6
100
AcDbEntity
  8
1
  6
CONTINUOUS
 62
           7
100
AcDbLine
 10
-2262.499999999996
 20
2171.0
 11
-2262.499999999996
 21
2150.0
  0
LINE
  5
1A5
100
AcDbEntity
  8
1
  6
CONTINUOUS
 62
           7
100
AcDbLine
 10
-2244.999999999996
 20
2171.0
 11
-2262.499999999996
 21
2171.0
  0
LINE
  5
1A4
100
AcDbEntity
  8
1
  6
CONTINUOUS
 62
           7
100
AcDbLine
 10
-2154.999999999996
 20
2171.0
 11
-2137.499999999996
 21
2171.0
  0
LINE
  5
1A3
100
AcDbEntity
  8
1
  6
CONTINUOUS
 62
           7
100
AcDbLine
 10
-2244.999999999996
 20
2184.0
 11
-2154.999999999996
 21
2184.0
  0
LINE
  5
1A2
100
AcDbEntity
  8
1
  6
CONTINUOUS
 62
           7
100
AcDbLine
 10
-2137.499999999996
 20
2171.0
 11
-2137.499999999996
 21
2150.0
  0
LINE
  5
1A1
100
AcDbEntity
  8
1
  6
CONTINUOUS
 62
           7
100
AcDbLine
 10
-2162.499999999996
 20
2149.999999999999
 11
-2162.499999999996
 21
2155.683280999347
  0
LINE
  5
1A0
100
AcDbEntity
  8
1
  6
CONTINUOUS
 62
           7
100
AcDbLine
 10
-2237.499999999996
 20
2150.0
 11
-2237.499999999996
 21
2155.683280999347
  0
LINE
  5
19F
100
AcDbEntity
  8
1
  6
CONTINUOUS
 62
           7
100
AcDbLine
 10
-2137.500000000004
 20
4670.0
 11
-2157.573593128811
 21
4670.0
  0
LINE
  5
19E
100
AcDbEntity
  8
1
  6
CONTINUOUS
 62
           7
100
AcDbLine
 10
-2215.0
 20
4622.5
 11
-2215.0
 21
4642.573593128807
  0
LINE
  5
19D
100
AcDbEntity
  8
1
  6
CONTINUOUS
 62
           7
100
AcDbLine
 10
-2262.5
 20
4700.0
 11
-2242.426406871193
 21
4700.0
  0
LINE
  5
19C
100
AcDbEntity
  8
1
  6
CONTINUOUS
 62
           7
100
AcDbLine
 10
-2137.500000000004
 20
4700.0
 11
-2137.500000000004
 21
4670.0
  0
LINE
  5
19B
100
AcDbEntity
  8
1
  6
CONTINUOUS
 62
           7
100
AcDbLine
 10
-2185.0
 20
4622.5
 11
-2215.0
 21
4622.5
  0
LINE
  5
19A
100
AcDbEntity
  8
1
  6
CONTINUOUS
 62
           7
100
AcDbLine
 10
-2262.5
 20
4670.0
 11
-2262.5
 21
4700.0
  0
LINE
  5
199
100
AcDbEntity
  8
1
  6
CONTINUOUS
 62
           7
100
AcDbLine
 10
-2157.573593128811
 20
4700.0
 11
-2137.500000000004
 21
4700.0
  0
LINE
  5
198
100
AcDbEntity
  8
1
  6
CONTINUOUS
 62
           7
100
AcDbLine
 10
-2185.0
 20
4642.573593128807
 11
-2185.0
 21
4622.5
  0
LINE
  5
197
100
AcDbEntity
  8
1
  6
CONTINUOUS
 62
           7
100
AcDbLine
 10
-2242.426406871193
 20
4670.0
 11
-2262.5
 21
4670.0
  0
LINE
  5
196
100
AcDbEntity
  8
1
  6
CONTINUOUS
 62
           7
100
AcDbLine
 10
-2185.0
 20
4747.5
 11
-2185.0
 21
4727.426406871193
  0
LINE
  5
195
100
AcDbEntity
  8
1
  6
CONTINUOUS
 62
           7
100
AcDbLine
 10
-2215.0
 20
4747.5
 11
-2185.0
 21
4747.5
  0
LINE
  5
194
100
AcDbEntity
  8
1
  6
CONTINUOUS
 62
           7
100
AcDbLine
 10
-2215.0
 20
4727.426406871193
 11
-2215.0
 21
4747.5
  0
LINE
  5
193
100
AcDbEntity
  8
1
  6
CONTINUOUS
 62
           7
100
AcDbLine
 10
-1083.999999999996
 20
4508.999999999999
 11
-2415.999999999996
 21
4508.999999999999
  0
LINE
  5
192
100
AcDbEntity
  8
1
  6
CONTINUOUS
 62
           7
100
AcDbLine
 10
-2415.999999999996
 20
4508.999999999999
 11
-2415.999999999996
 21
4861.000000000001
  0
LINE
  5
191
100
AcDbEntity
  8
1
  6
CONTINUOUS
 62
           7
100
AcDbLine
 10
-1133.999999999996
 20
4558.999999999999
 11
-2365.999999999996
 21
4558.999999999999
  0
LINE
  5
190
100
AcDbEntity
  8
1
  6
CONTINUOUS
 62
           7
100
AcDbLine
 10
-2365.999999999996
 20
4558.999999999999
 11
-2365.999999999996
 21
4811.000000000001
  0
LINE
  5
18F
100
AcDbEntity
  8
1
  6
CONTINUOUS
 62
           7
100
AcDbLine
 10
-2365.999999999996
 20
4811.000000000001
 11
-1133.999999999996
 21
4811.000000000001
  0
LINE
  5
18E
100
AcDbEntity
  8
1
  6
CONTINUOUS
 62
           7
100
AcDbLine
 10
-1133.999999999996
 20
4811.000000000001
 11
-1133.999999999996
 21
4558.999999999999
  0
LINE
  5
18D
100
AcDbEntity
  8
1
  6
CONTINUOUS
 62
           7
100
AcDbLine
 10
-2415.999999999996
 20
4861.000000000001
 11
-1083.999999999996
 21
4861.000000000001
  0
LINE
  5
18C
100
AcDbEntity
  8
1
  6
CONTINUOUS
 62
           7
100
AcDbLine
 10
-1083.999999999996
 20
4861.000000000001
 11
-1083.999999999996
 21
4508.999999999999
  0
LINE
  5
18B
100
AcDbEntity
  8
1
  6
DOT_CENTER
 62
           2
100
AcDbLine
 10
1300.000000000007
 20
2202.686878034487
 11
1300.000000000007
 21
2107.00700373383
  0
LINE
  5
18A
100
AcDbEntity
  8
1
  6
CONTINUOUS
 62
           7
100
AcDbLine
 10
1315.000000000007
 20
2156.0
 11
1315.000000000007
 21
2150.0
  0
LINE
  5
189
100
AcDbEntity
  8
1
  6
CONTINUOUS
 62
           7
100
AcDbLine
 10
1285.000000000007
 20
2156.0
 11
1285.000000000007
 21
2150.0
  0
LINE
  5
188
100
AcDbEntity
  8
1
  6
CONTINUOUS
 62
           7
100
AcDbLine
 10
1345.000000000007
 20
2188.0
 11
1345.000000000007
 21
2171.0
  0
LINE
  5
187
100
AcDbEntity
  8
1
  6
CONTINUOUS
 62
           7
100
AcDbLine
 10
1337.000000000007
 20
2196.0
 11
1263.000000000007
 21
2196.0
  0
LINE
  5
186
100
AcDbEntity
  8
1
  6
CONTINUOUS
 62
           7
100
AcDbLine
 10
1255.000000000007
 20
2188.0
 11
1255.000000000007
 21
2171.0
  0
LINE
  5
185
100
AcDbEntity
  8
1
  6
CONTINUOUS
 62
           7
100
AcDbLine
 10
1237.500000000007
 20
2171.0
 11
1237.500000000007
 21
2150.0
  0
LINE
  5
184
100
AcDbEntity
  8
1
  6
CONTINUOUS
 62
           7
100
AcDbLine
 10
1255.000000000007
 20
2171.0
 11
1237.500000000007
 21
2171.0
  0
LINE
  5
183
100
AcDbEntity
  8
1
  6
CONTINUOUS
 62
           7
100
AcDbLine
 10
1345.000000000007
 20
2171.0
 11
1362.500000000007
 21
2171.0
  0
LINE
  5
182
100
AcDbEntity
  8
1
  6
CONTINUOUS
 62
           7
100
AcDbLine
 10
1255.000000000007
 20
2184.0
 11
1345.000000000007
 21
2184.0
  0
LINE
  5
181
100
AcDbEntity
  8
1
  6
CONTINUOUS
 62
           7
100
AcDbLine
 10
1362.500000000007
 20
2171.0
 11
1362.500000000007
 21
2150.0
  0
LINE
  5
180
100
AcDbEntity
  8
1
  6
CONTINUOUS
 62
           7
100
AcDbLine
 10
1337.500000000007
 20
2149.999999999999
 11
1337.500000000007
 21
2155.683280999347
  0
LINE
  5
17F
100
AcDbEntity
  8
1
  6
CONTINUOUS
 62
           7
100
AcDbLine
 10
1262.500000000007
 20
2150.0
 11
1262.500000000007
 21
2155.683280999347
  0
LINE
  5
17E
100
AcDbEntity
  8
1
  6
CONTINUOUS
 62
           7
100
AcDbLine
 10
1362.499999999996
 20
4670.0
 11
1342.426406871189
 21
4670.0
  0
LINE
  5
17D
100
AcDbEntity
  8
1
  6
CONTINUOUS
 62
           7
100
AcDbLine
 10
1285.0
 20
4622.5
 11
1285.0
 21
4642.573593128807
  0
LINE
  5
17C
100
AcDbEntity
  8
1
  6
CONTINUOUS
 62
           7
100
AcDbLine
 10
1237.5
 20
4700.0
 11
1257.573593128807
 21
4700.0
  0
LINE
  5
17B
100
AcDbEntity
  8
1
  6
CONTINUOUS
 62
           7
100
AcDbLine
 10
1362.499999999996
 20
4700.0
 11
1362.499999999996
 21
4670.0
  0
LINE
  5
17A
100
AcDbEntity
  8
1
  6
CONTINUOUS
 62
           7
100
AcDbLine
 10
1315.0
 20
4622.5
 11
1285.0
 21
4622.5
  0
LINE
  5
179
100
AcDbEntity
  8
1
  6
CONTINUOUS
 62
           7
100
AcDbLine
 10
1237.5
 20
4670.0
 11
1237.5
 21
4700.0
  0
LINE
  5
178
100
AcDbEntity
  8
1
  6
CONTINUOUS
 62
           7
100
AcDbLine
 10
1342.426406871189
 20
4700.0
 11
1362.499999999996
 21
4700.0
  0
LINE
  5
177
100
AcDbEntity
  8
1
  6
CONTINUOUS
 62
           7
100
AcDbLine
 10
1315.0
 20
4642.573593128807
 11
1315.0
 21
4622.5
  0
LINE
  5
176
100
AcDbEntity
  8
1
  6
CONTINUOUS
 62
           7
100
AcDbLine
 10
1257.573593128807
 20
4670.0
 11
1237.5
 21
4670.0
  0
LINE
  5
175
100
AcDbEntity
  8
1
  6
CONTINUOUS
 62
           7
100
AcDbLine
 10
1315.0
 20
4747.5
 11
1315.0
 21
4727.426406871193
  0
LINE
  5
174
100
AcDbEntity
  8
1
  6
CONTINUOUS
 62
           7
100
AcDbLine
 10
1285.0
 20
4747.5
 11
1315.0
 21
4747.5
  0
LINE
  5
173
100
AcDbEntity
  8
1
  6
CONTINUOUS
 62
           7
100
AcDbLine
 10
1285.0
 20
4727.426406871193
 11
1285.0
 21
4747.5
  0
LINE
  5
172
100
AcDbEntity
  8
1
  6
CONTINUOUS
 62
           7
100
AcDbLine
 10
2416.000000000004
 20
4508.999999999999
 11
1084.000000000007
 21
4508.999999999999
  0
LINE
  5
171
100
AcDbEntity
  8
1
  6
CONTINUOUS
 62
           7
100
AcDbLine
 10
1084.000000000007
 20
4508.999999999999
 11
1084.000000000007
 21
4861.000000000001
  0
LINE
  5
170
100
AcDbEntity
  8
1
  6
CONTINUOUS
 62
           7
100
AcDbLine
 10
2366.000000000004
 20
4558.999999999999
 11
1134.000000000007
 21
4558.999999999999
  0
LINE
  5
16F
100
AcDbEntity
  8
1
  6
CONTINUOUS
 62
           7
100
AcDbLine
 10
1134.000000000007
 20
4558.999999999999
 11
1134.000000000007
 21
4811.000000000001
  0
LINE
  5
16E
100
AcDbEntity
  8
1
  6
CONTINUOUS
 62
           7
100
AcDbLine
 10
1134.000000000007
 20
4811.000000000001
 11
2366.000000000004
 21
4811.000000000001
  0
LINE
  5
16D
100
AcDbEntity
  8
1
  6
CONTINUOUS
 62
           7
100
AcDbLine
 10
2366.000000000004
 20
4811.000000000001
 11
2366.000000000004
 21
4558.999999999999
  0
LINE
  5
16C
100
AcDbEntity
  8
1
  6
CONTINUOUS
 62
           7
100
AcDbLine
 10
1084.000000000007
 20
4861.000000000001
 11
2416.000000000004
 21
4861.000000000001
  0
LINE
  5
16B
100
AcDbEntity
  8
1
  6
CONTINUOUS
 62
           7
100
AcDbLine
 10
2416.000000000004
 20
4861.000000000001
 11
2416.000000000004
 21
4508.999999999999
  0
LINE
  5
16A
100
AcDbEntity
  8
1
  6
CONTINUOUS
 62
           7
100
AcDbLine
 10
-487.499999999993
 20
2150.0
 11
-487.499999999993
 21
2155.683280999347
  0
LINE
  5
169
100
AcDbEntity
  8
1
  6
CONTINUOUS
 62
           7
100
AcDbLine
 10
-412.499999999993
 20
2149.999999999999
 11
-412.499999999993
 21
2155.683280999347
  0
LINE
  5
168
100
AcDbEntity
  8
1
  6
CONTINUOUS
 62
           7
100
AcDbLine
 10
-387.499999999993
 20
2171.0
 11
-387.499999999993
 21
2150.0
  0
LINE
  5
167
100
AcDbEntity
  8
1
  6
CONTINUOUS
 62
           7
100
AcDbLine
 10
-494.999999999993
 20
2184.0
 11
-404.999999999993
 21
2184.0
  0
LINE
  5
166
100
AcDbEntity
  8
1
  6
CONTINUOUS
 62
           7
100
AcDbLine
 10
-404.999999999993
 20
2171.0
 11
-387.499999999993
 21
2171.0
  0
LINE
  5
165
100
AcDbEntity
  8
1
  6
CONTINUOUS
 62
           7
100
AcDbLine
 10
-494.999999999993
 20
2171.0
 11
-512.499999999996
 21
2171.0
  0
LINE
  5
164
100
AcDbEntity
  8
1
  6
CONTINUOUS
 62
           7
100
AcDbLine
 10
-512.499999999996
 20
2171.0
 11
-512.499999999996
 21
2150.0
  0
LINE
  5
163
100
AcDbEntity
  8
1
  6
CONTINUOUS
 62
           7
100
AcDbLine
 10
-494.999999999993
 20
2188.0
 11
-494.999999999993
 21
2171.0
  0
LINE
  5
162
100
AcDbEntity
  8
1
  6
CONTINUOUS
 62
           7
100
AcDbLine
 10
-412.999999999993
 20
2196.0
 11
-486.999999999993
 21
2196.0
  0
LINE
  5
161
100
AcDbEntity
  8
1
  6
CONTINUOUS
 62
           7
100
AcDbLine
 10
-404.999999999993
 20
2188.0
 11
-404.999999999993
 21
2171.0
  0
LINE
  5
160
100
AcDbEntity
  8
1
  6
CONTINUOUS
 62
           7
100
AcDbLine
 10
-464.999999999993
 20
2156.0
 11
-464.999999999993
 21
2150.0
  0
LINE
  5
15F
100
AcDbEntity
  8
1
  6
CONTINUOUS
 62
           7
100
AcDbLine
 10
-434.999999999993
 20
2156.0
 11
-434.999999999993
 21
2150.0
  0
LINE
  5
15E
100
AcDbEntity
  8
1
  6
DOT_CENTER
 62
           2
100
AcDbLine
 10
-449.999999999993
 20
2202.686878034487
 11
-449.999999999993
 21
2107.007003733831
  0
LINE
  5
15D
100
AcDbEntity
  8
1
  6
CONTINUOUS
 62
           7
100
AcDbLine
 10
666.000000000004
 20
4861.000000000001
 11
666.000000000004
 21
4508.999999999999
  0
LINE
  5
15C
100
AcDbEntity
  8
1
  6
CONTINUOUS
 62
           7
100
AcDbLine
 10
-665.999999999996
 20
4861.000000000001
 11
666.000000000004
 21
4861.000000000001
  0
LINE
  5
15B
100
AcDbEntity
  8
1
  6
CONTINUOUS
 62
           7
100
AcDbLine
 10
616.000000000004
 20
4811.000000000001
 11
616.000000000004
 21
4558.999999999999
  0
LINE
  5
15A
100
AcDbEntity
  8
1
  6
CONTINUOUS
 62
           7
100
AcDbLine
 10
-615.999999999996
 20
4811.000000000001
 11
616.000000000004
 21
4811.000000000001
  0
LINE
  5
159
100
AcDbEntity
  8
1
  6
CONTINUOUS
 62
           7
100
AcDbLine
 10
-615.999999999996
 20
4558.999999999999
 11
-615.999999999996
 21
4811.000000000001
  0
LINE
  5
158
100
AcDbEntity
  8
1
  6
CONTINUOUS
 62
           7
100
AcDbLine
 10
616.000000000004
 20
4558.999999999999
 11
-615.999999999996
 21
4558.999999999999
  0
LINE
  5
157
100
AcDbEntity
  8
1
  6
CONTINUOUS
 62
           7
100
AcDbLine
 10
-665.999999999996
 20
4508.999999999999
 11
-665.999999999996
 21
4861.000000000001
  0
LINE
  5
156
100
AcDbEntity
  8
1
  6
CONTINUOUS
 62
           7
100
AcDbLine
 10
666.000000000004
 20
4508.999999999999
 11
-665.999999999996
 21
4508.999999999999
  0
LINE
  5
155
100
AcDbEntity
  8
1
  6
CONTINUOUS
 62
           7
100
AcDbLine
 10
5785.000000000002
 20
2136.000000000001
 11
5785.000000000002
 21
2156.000000000001
  0
LINE
  5
154
100
AcDbEntity
  8
1
  6
CONTINUOUS
 62
           7
100
AcDbLine
 10
5815.000000000002
 20
2136.000000000001
 11
5815.000000000002
 21
2156.000000000001
  0
LINE
  5
153
100
AcDbEntity
  8
1
  6
CONTINUOUS
 62
           7
100
AcDbLine
 10
5755.000000000002
 20
2171.000000000001
 11
5755.000000000002
 21
2188.000000000001
  0
LINE
  5
152
100
AcDbEntity
  8
1
  6
CONTINUOUS
 62
           7
100
AcDbLine
 10
5837.000000000002
 20
2196.000000000001
 11
5763.000000000002
 21
2196.000000000001
  0
LINE
  5
151
100
AcDbEntity
  8
1
  6
CONTINUOUS
 62
           7
100
AcDbLine
 10
5845.000000000002
 20
2171.000000000001
 11
5845.000000000002
 21
2188.000000000001
  0
LINE
  5
150
100
AcDbEntity
  8
1
  6
CONTINUOUS
 62
           7
100
AcDbLine
 10
5862.500000000002
 20
2136.000000000001
 11
5862.500000000002
 21
2171.000000000001
  0
LINE
  5
14F
100
AcDbEntity
  8
1
  6
CONTINUOUS
 62
           7
100
AcDbLine
 10
5862.500000000002
 20
2171.000000000001
 11
5845.000000000002
 21
2171.000000000001
  0
LINE
  5
14E
100
AcDbEntity
  8
1
  6
CONTINUOUS
 62
           7
100
AcDbLine
 10
5737.500000000002
 20
2136.000000000001
 11
5737.500000000002
 21
2171.000000000001
  0
LINE
  5
14D
100
AcDbEntity
  8
1
  6
CONTINUOUS
 62
           7
100
AcDbLine
 10
5737.500000000002
 20
2171.000000000001
 11
5755.000000000002
 21
2171.000000000001
  0
LINE
  5
14C
100
AcDbEntity
  8
1
  6
CONTINUOUS
 62
           7
100
AcDbLine
 10
5837.500000000002
 20
2155.683280999347
 11
5837.500000000002
 21
2136.000000000001
  0
LINE
  5
14B
100
AcDbEntity
  8
1
  6
CONTINUOUS
 62
           7
100
AcDbLine
 10
5762.500000000002
 20
2155.683280999347
 11
5762.500000000002
 21
2136.000000000001
  0
LINE
  5
14A
100
AcDbEntity
  8
1
  6
CONTINUOUS
 62
           7
100
AcDbLine
 10
5755.000000000002
 20
2184.000000000001
 11
5845.000000000002
 21
2184.000000000001
  0
LINE
  5
149
100
AcDbEntity
  8
1
  6
CONTINUOUS
 62
           7
100
AcDbLine
 10
5926.000000000002
 20
2136.000000000001
 11
5926.000000000002
 21
2050.000000000001
  0
LINE
  5
148
100
AcDbEntity
  8
1
  6
CONTINUOUS
 62
           7
100
AcDbLine
 10
5674.000000000002
 20
2136.000000000001
 11
5926.000000000002
 21
2136.000000000001
  0
LINE
  5
147
100
AcDbEntity
  8
1
  6
CONTINUOUS
 62
           7
100
AcDbLine
 10
5674.000000000002
 20
2050.000000000001
 11
5674.000000000002
 21
2136.000000000001
  0
LINE
  5
146
100
AcDbEntity
  8
1
  6
CONTINUOUS
 62
           7
100
AcDbLine
 10
-465.0
 20
4727.426406871193
 11
-465.0
 21
4747.5
  0
LINE
  5
145
100
AcDbEntity
  8
1
  6
CONTINUOUS
 62
           7
100
AcDbLine
 10
-465.0
 20
4747.5
 11
-435.0
 21
4747.5
  0
LINE
  5
144
100
AcDbEntity
  8
1
  6
CONTINUOUS
 62
           7
100
AcDbLine
 10
-435.0
 20
4747.5
 11
-435.0
 21
4727.426406871193
  0
LINE
  5
143
100
AcDbEntity
  8
1
  6
CONTINUOUS
 62
           7
100
AcDbLine
 10
-492.426406871193
 20
4670.0
 11
-512.5
 21
4670.0
  0
LINE
  5
142
100
AcDbEntity
  8
1
  6
CONTINUOUS
 62
           7
100
AcDbLine
 10
-435.0
 20
4642.573593128807
 11
-435.0
 21
4622.5
  0
LINE
  5
141
100
AcDbEntity
  8
1
  6
CONTINUOUS
 62
           7
100
AcDbLine
 10
-407.573593128807
 20
4700.0
 11
-387.500000000004
 21
4700.0
  0
LINE
  5
140
100
AcDbEntity
  8
1
  6
CONTINUOUS
 62
           7
100
AcDbLine
 10
-512.5
 20
4670.0
 11
-512.5
 21
4700.0
  0
LINE
  5
13F
100
AcDbEntity
  8
1
  6
CONTINUOUS
 62
           7
100
AcDbLine
 10
-435.0
 20
4622.5
 11
-465.0
 21
4622.5
  0
LINE
  5
13E
100
AcDbEntity
  8
1
  6
CONTINUOUS
 62
           7
100
AcDbLine
 10
-387.500000000004
 20
4700.0
 11
-387.500000000004
 21
4670.0
  0
LINE
  5
13D
100
AcDbEntity
  8
1
  6
CONTINUOUS
 62
           7
100
AcDbLine
 10
-512.5
 20
4700.0
 11
-492.426406871193
 21
4700.0
  0
LINE
  5
13C
100
AcDbEntity
  8
1
  6
CONTINUOUS
 62
           7
100
AcDbLine
 10
-465.0
 20
4622.5
 11
-465.0
 21
4642.573593128807
  0
LINE
  5
13B
100
AcDbEntity
  8
1
  6
CONTINUOUS
 62
           7
100
AcDbLine
 10
-387.500000000004
 20
4670.0
 11
-407.573593128811
 21
4670.0
  0
LINE
  5
13A
100
AcDbEntity
  8
1
  6
CONTINUOUS
 62
           7
100
AcDbLine
 10
6279.999999999998
 20
1570.000000000004
 11
6279.999999999998
 21
1330.000000000004
  0
LINE
  5
139
100
AcDbEntity
  8
1
  6
CONTINUOUS
 62
           7
100
AcDbLine
 10
6099.999999999998
 20
1330.000000000004
 11
6099.999999999998
 21
1570.000000000004
  0
LINE
  5
138
100
AcDbEntity
  8
1
  6
CONTINUOUS
 62
           7
100
AcDbLine
 10
6099.999999999998
 20
1570.000000000004
 11
6279.999999999998
 21
1570.000000000004
  0
LINE
  5
137
100
AcDbEntity
  8
1
  6
CONTINUOUS
 62
           7
100
AcDbLine
 10
6279.999999999998
 20
1330.000000000004
 11
6099.999999999998
 21
1330.000000000004
  0
LINE
  5
136
100
AcDbEntity
  8
1
  6
CONTINUOUS
 62
           7
100
AcDbLine
 10
5789.999999999998
 20
1950.000000000004
 11
5599.999999999998
 21
1950.000000000004
  0
LINE
  5
135
100
AcDbEntity
  8
1
  6
CONTINUOUS
 62
           7
100
AcDbLine
 10
5599.999999999998
 20
1950.000000000004
 11
5599.999999999998
 21
1862.000000000004
  0
LINE
  5
134
100
AcDbEntity
  8
1
  6
CONTINUOUS
 62
           7
100
AcDbLine
 10
5599.999999999998
 20
1862.000000000004
 11
5789.999999999998
 21
1862.000000000004
  0
LINE
  5
133
100
AcDbEntity
  8
1
  6
CONTINUOUS
 62
           7
100
AcDbLine
 10
5789.999999999998
 20
1862.000000000004
 11
5789.999999999998
 21
1950.000000000004
  0
LINE
  5
132
100
AcDbEntity
  8
1
  6
CONTINUOUS
 62
           7
100
AcDbLine
 10
5866.249999999998
 20
1537.562448003291
 11
5866.249999999998
 21
1462.437551996713
  0
LINE
  5
131
100
AcDbEntity
  8
1
  6
CONTINUOUS
 62
           7
100
AcDbLine
 10
5893.749999999998
 20
1537.562448003291
 11
5893.749999999998
 21
1462.437551996713
  0
LINE
  5
130
100
AcDbEntity
  8
1
  6
CONTINUOUS
 62
           7
100
AcDbLine
 10
8049.999999999998
 20
-0.000000000002
 11
5049.999999999998
 21
-0.000000000002
  0
LINE
  5
12F
100
AcDbEntity
  8
1
  6
DOT_CENTER
 62
           2
100
AcDbLine
 10
6850.0
 20
675.000000000002
 11
6850.0
 21
525.000000000002
  0
LINE
  5
12E
100
AcDbEntity
  8
1
  6
DOT_CENTER
 62
           2
100
AcDbLine
 10
6775.0
 20
600.000000000002
 11
6925.0
 21
600.000000000002
  0
LINE
  5
12D
100
AcDbEntity
  8
1
  6
CONTINUOUS
 62
           7
100
AcDbLine
 10
6550.0
 20
2075.000000000002
 11
7550.0
 21
2075.000000000002
  0
LINE
  5
12C
100
AcDbEntity
  8
1
  6
CONTINUOUS
 62
           7
100
AcDbLine
 10
5549.999999999998
 20
2050.000000000002
 11
7550.0
 21
2050.000000000002
  0
LINE
  5
12B
100
AcDbEntity
  8
1
  6
CONTINUOUS
 62
           2
100
AcDbLine
 10
5549.999999999998
 20
2004.000000000002
 11
7550.0
 21
2004.000000000002
  0
LINE
  5
12A
100
AcDbEntity
  8
1
  6
CONTINUOUS
 62
           7
100
AcDbLine
 10
5599.999999999998
 20
2120.000000000002
 11
5599.999999999998
 21
2150.000000000002
  0
LINE
  5
129
100
AcDbEntity
  8
1
  6
CONTINUOUS
 62
           7
100
AcDbLine
 10
5549.999999999998
 20
2150.000000000002
 11
5599.999999999998
 21
2150.000000000002
  0
LINE
  5
128
100
AcDbEntity
  8
1
  6
CONTINUOUS
 62
           7
100
AcDbLine
 10
7550.0
 20
2000.000000000002
 11
5549.999999999998
 21
2000.000000000002
  0
LINE
  5
127
100
AcDbEntity
  8
1
  6
CONTINUOUS
 62
           7
100
AcDbLine
 10
7550.0
 20
-0.000000000002
 11
7550.0
 21
2075.000000000002
  0
LINE
  5
126
100
AcDbEntity
  8
1
  6
CONTINUOUS
 62
           7
100
AcDbLine
 10
5549.999999999998
 20
-0.000000000002
 11
5549.999999999998
 21
2150.000000000002
  0
LINE
  5
125
100
AcDbEntity
  8
1
  6
CONTINUOUS
 62
           2
100
AcDbLine
 10
5569.999999999998
 20
20.000000000002
 11
6029.999999999998
 21
20.000000000002
  0
LINE
  5
124
100
AcDbEntity
  8
1
  6
CONTINUOUS
 62
           2
100
AcDbLine
 10
6029.999999999998
 20
20.000000000002
 11
6029.999999999998
 21
1330.000000000002
  0
LINE
  5
123
100
AcDbEntity
  8
1
  6
CONTINUOUS
 62
           2
100
AcDbLine
 10
6029.999999999998
 20
1980.000000000002
 11
5569.999999999998
 21
1980.000000000002
  0
LINE
  5
122
100
AcDbEntity
  8
1
  6
CONTINUOUS
 62
           2
100
AcDbLine
 10
5569.999999999998
 20
1980.000000000002
 11
5569.999999999998
 21
1670.000000000002
  0
LINE
  5
121
100
AcDbEntity
  8
1
  6
CONTINUOUS
 62
           7
100
AcDbLine
 10
6050.0
 20
-0.000000000002
 11
6050.0
 21
2000.000000000002
  0
LINE
  5
120
100
AcDbEntity
  8
1
  6
CONTINUOUS
 62
           7
100
AcDbLine
 10
6050.0
 20
500.000000000002
 11
7550.0
 21
500.000000000002
  0
LINE
  5
11F
100
AcDbEntity
  8
1
  6
CONTINUOUS
 62
           2
100
AcDbLine
 10
7529.433325304559
 20
479.385061529882
 11
6070.0
 21
479.385061529882
  0
LINE
  5
11E
100
AcDbEntity
  8
1
  6
CONTINUOUS
 62
           2
100
AcDbLine
 10
6070.0
 20
479.385061529882
 11
6070.0
 21
20.000000000002
  0
LINE
  5
11D
100
AcDbEntity
  8
1
  6
CONTINUOUS
 62
           2
100
AcDbLine
 10
6070.0
 20
20.000000000002
 11
7529.433325304559
 21
20.000000000002
  0
LINE
  5
11C
100
AcDbEntity
  8
1
  6
CONTINUOUS
 62
           2
100
AcDbLine
 10
7529.433325304559
 20
20.000000000002
 11
7529.433325304559
 21
479.385061529882
  0
LINE
  5
11B
100
AcDbEntity
  8
1
  6
CONTINUOUS
 62
           2
100
AcDbLine
 10
6530.0
 20
1980.000000000002
 11
6070.0
 21
1980.000000000002
  0
LINE
  5
11A
100
AcDbEntity
  8
1
  6
CONTINUOUS
 62
           2
100
AcDbLine
 10
6070.0
 20
1980.000000000002
 11
6070.0
 21
520.000000000002
  0
LINE
  5
119
100
AcDbEntity
  8
1
  6
CONTINUOUS
 62
           2
100
AcDbLine
 10
6070.0
 20
520.000000000002
 11
6530.0
 21
520.000000000002
  0
LINE
  5
118
100
AcDbEntity
  8
1
  6
CONTINUOUS
 62
           2
100
AcDbLine
 10
6570.0
 20
520.000000000002
 11
7530.0
 21
520.000000000002
  0
LINE
  5
117
100
AcDbEntity
  8
1
  6
CONTINUOUS
 62
           2
100
AcDbLine
 10
7530.0
 20
520.000000000002
 11
7530.0
 21
1980.000000000002
  0
LINE
  5
116
100
AcDbEntity
  8
1
  6
CONTINUOUS
 62
           2
100
AcDbLine
 10
7530.0
 20
1980.000000000002
 11
6570.0
 21
1980.000000000002
  0
LINE
  5
115
100
AcDbEntity
  8
1
  6
DOT_CENTER
 62
           2
100
AcDbLine
 10
5799.999999999998
 20
2213.047564257502
 11
5799.999999999998
 21
1935.440799157821
  0
LINE
  5
114
100
AcDbEntity
  8
1
  6
CONTINUOUS
 62
           7
100
AcDbLine
 10
5637.272077938644
 20
1515.556349186101
 11
5634.443650813896
 21
1512.727922061362
  0
LINE
  5
113
100
AcDbEntity
  8
1
  6
CONTINUOUS
 62
           7
100
AcDbLine
 10
5634.443650813896
 20
1512.727922061362
 11
5641.274009819212
 21
1503.069135931302
  0
LINE
  5
112
100
AcDbEntity
  8
1
  6
CONTINUOUS
 62
           7
100
AcDbLine
 10
5637.272077938644
 20
1515.556349186101
 11
5646.930864068703
 21
1508.725990180781
  0
LINE
  5
111
100
AcDbEntity
  8
1
  6
CONTINUOUS
 62
           7
100
AcDbLine
 10
5653.069135931297
 20
1491.274009819212
 11
5675.314067434195
 21
1469.029078316311
  0
LINE
  5
110
100
AcDbEntity
  8
1
  6
CONTINUOUS
 62
           7
100
AcDbLine
 10
5658.72599018079
 20
1496.930864068701
 11
5680.970921683688
 21
1474.685932565802
  0
LINE
  5
10F
100
AcDbEntity
  8
1
  6
CONTINUOUS
 62
           7
100
AcDbLine
 10
5614.177669529662
 20
1446.500000000002
 11
5631.971103189576
 21
1464.293433659912
  0
LINE
  5
10E
100
AcDbEntity
  8
1
  6
CONTINUOUS
 62
           7
100
AcDbLine
 10
5596.499999999998
 20
1535.822330470342
 11
5614.293433659914
 21
1518.028896810421
  0
LINE
  5
10D
100
AcDbEntity
  8
1
  6
CONTINUOUS
 62
           7
100
AcDbLine
 10
5685.822330470336
 20
1553.500000000002
 11
5668.028896810424
 21
1535.706566340092
  0
LINE
  5
10C
100
AcDbEntity
  8
1
  6
CONTINUOUS
 62
           7
100
AcDbLine
 10
5596.499999999998
 20
1464.177669529661
 11
5614.293433659914
 21
1481.971103189571
  0
LINE
  5
10B
100
AcDbEntity
  8
1
  6
CONTINUOUS
 62
           7
100
AcDbLine
 10
5614.177669529662
 20
1553.500000000002
 11
5631.971103189576
 21
1535.706566340092
  0
LINE
  5
10A
100
AcDbEntity
  8
1
  6
CONTINUOUS
 62
           7
100
AcDbLine
 10
5703.499999999998
 20
1535.822330470342
 11
5685.706566340087
 21
1518.028896810421
  0
LINE
  5
109
100
AcDbEntity
  8
1
  6
CONTINUOUS
 62
           7
100
AcDbLine
 10
5685.822330470336
 20
1446.500000000002
 11
5668.028896810424
 21
1464.293433659912
  0
LINE
  5
108
100
AcDbEntity
  8
1
  6
CONTINUOUS
 62
           7
100
AcDbLine
 10
5703.499999999998
 20
1464.177669529661
 11
5685.706566340087
 21
1481.971103189571
  0
LINE
  5
107
100
AcDbEntity
  8
1
  6
CONTINUOUS
 62
           7
100
AcDbLine
 10
5609.999999999998
 20
1570.000000000002
 11
5609.999999999998
 21
1556.259593518791
  0
LINE
  5
106
100
AcDbEntity
  8
1
  6
CONTINUOUS
 62
           7
100
AcDbLine
 10
5609.999999999998
 20
1570.000000000002
 11
5666.999999999998
 21
1570.000000000002
  0
LINE
  5
105
100
AcDbEntity
  8
1
  6
CONTINUOUS
 62
           7
100
AcDbLine
 10
5689.999999999998
 20
1430.000000000002
 11
5689.999999999998
 21
1443.740406481202
  0
LINE
  5
104
100
AcDbEntity
  8
1
  6
CONTINUOUS
 62
           7
100
AcDbLine
 10
5632.999999999998
 20
1570.000000000002
 11
5632.999999999998
 21
1549.671420354162
  0
LINE
  5
103
100
AcDbEntity
  8
1
  6
CONTINUOUS
 62
           7
100
AcDbLine
 10
5666.999999999998
 20
1549.671420354162
 11
5666.999999999998
 21
1570.000000000002
  0
LINE
  5
102
100
AcDbEntity
  8
1
  6
CONTINUOUS
 62
           7
100
AcDbLine
 10
5666.999999999998
 20
1430.000000000002
 11
5666.999999999998
 21
1450.328579645831
  0
LINE
  5
101
100
AcDbEntity
  8
1
  6
CONTINUOUS
 62
           7
100
AcDbLine
 10
5632.999999999998
 20
1430.000000000002
 11
5689.999999999998
 21
1430.000000000002
  0
LINE
  5
100
100
AcDbEntity
  8
1
  6
CONTINUOUS
 62
           7
100
AcDbLine
 10
5632.999999999998
 20
1450.328579645831
 11
5632.999999999998
 21
1430.000000000002
  0
LINE
  5
FF
100
AcDbEntity
  8
1
  6
CONTINUOUS
 62
           7
100
AcDbLine
 10
5549.999999999998
 20
1330.000000000002
 11
6050.0
 21
1330.000000000002
  0
LINE
  5
FE
100
AcDbEntity
  8
1
  6
CONTINUOUS
 62
           7
100
AcDbLine
 10
5549.999999999998
 20
1670.000000000002
 11
6050.0
 21
1670.000000000002
  0
LINE
  5
FD
100
AcDbEntity
  8
1
  6
CONTINUOUS
 62
           2
100
AcDbLine
 10
6029.999999999998
 20
1670.000000000002
 11
6029.999999999998
 21
1980.000000000002
  0
LINE
  5
FC
100
AcDbEntity
  8
1
  6
CONTINUOUS
 62
           2
100
AcDbLine
 10
5569.999999999998
 20
1330.000000000002
 11
5569.999999999998
 21
20.000000000002
  0
LINE
  5
FB
100
AcDbEntity
  8
1
  6
CONTINUOUS
 62
           7
100
AcDbLine
 10
5862.999999999998
 20
1450.328579645831
 11
5862.999999999998
 21
1430.000000000002
  0
LINE
  5
FA
100
AcDbEntity
  8
1
  6
CONTINUOUS
 62
           7
100
AcDbLine
 10
5862.999999999998
 20
1430.000000000002
 11
5919.999999999998
 21
1430.000000000002
  0
LINE
  5
F9
100
AcDbEntity
  8
1
  6
CONTINUOUS
 62
           7
100
AcDbLine
 10
5896.999999999998
 20
1430.000000000002
 11
5896.999999999998
 21
1450.328579645831
  0
LINE
  5
F8
100
AcDbEntity
  8
1
  6
CONTINUOUS
 62
           7
100
AcDbLine
 10
5896.999999999998
 20
1549.671420354162
 11
5896.999999999998
 21
1570.000000000002
  0
LINE
  5
F7
100
AcDbEntity
  8
1
  6
CONTINUOUS
 62
           7
100
AcDbLine
 10
5862.999999999998
 20
1570.000000000002
 11
5862.999999999998
 21
1549.671420354162
  0
LINE
  5
F6
100
AcDbEntity
  8
1
  6
CONTINUOUS
 62
           7
100
AcDbLine
 10
5919.999999999998
 20
1430.000000000002
 11
5919.999999999998
 21
1443.740406481202
  0
LINE
  5
F5
100
AcDbEntity
  8
1
  6
CONTINUOUS
 62
           7
100
AcDbLine
 10
5839.999999999998
 20
1570.000000000002
 11
5896.999999999998
 21
1570.000000000002
  0
LINE
  5
F4
100
AcDbEntity
  8
1
  6
CONTINUOUS
 62
           7
100
AcDbLine
 10
5839.999999999998
 20
1570.000000000002
 11
5839.999999999998
 21
1556.259593518791
  0
LINE
  5
F3
100
AcDbEntity
  8
1
  6
CONTINUOUS
 62
           7
100
AcDbLine
 10
5933.499999999998
 20
1464.177669529661
 11
5915.706566340088
 21
1481.971103189571
  0
LINE
  5
F2
100
AcDbEntity
  8
1
  6
CONTINUOUS
 62
           7
100
AcDbLine
 10
5915.822330470337
 20
1446.500000000002
 11
5898.028896810423
 21
1464.293433659912
  0
LINE
  5
F1
100
AcDbEntity
  8
1
  6
CONTINUOUS
 62
           7
100
AcDbLine
 10
5933.499999999998
 20
1535.822330470342
 11
5915.706566340088
 21
1518.028896810421
  0
LINE
  5
F0
100
AcDbEntity
  8
1
  6
CONTINUOUS
 62
           7
100
AcDbLine
 10
5844.177669529662
 20
1553.500000000002
 11
5861.971103189576
 21
1535.706566340092
  0
LINE
  5
EF
100
AcDbEntity
  8
1
  6
CONTINUOUS
 62
           7
100
AcDbLine
 10
5826.499999999998
 20
1464.177669529661
 11
5844.293433659914
 21
1481.971103189571
  0
LINE
  5
EE
100
AcDbEntity
  8
1
  6
CONTINUOUS
 62
           7
100
AcDbLine
 10
5915.822330470337
 20
1553.500000000002
 11
5898.028896810423
 21
1535.706566340092
  0
LINE
  5
ED
100
AcDbEntity
  8
1
  6
CONTINUOUS
 62
           7
100
AcDbLine
 10
5826.499999999998
 20
1535.822330470342
 11
5844.293433659914
 21
1518.028896810421
  0
LINE
  5
EC
100
AcDbEntity
  8
1
  6
CONTINUOUS
 62
           7
100
AcDbLine
 10
5844.177669529662
 20
1446.500000000002
 11
5861.971103189576
 21
1464.293433659912
  0
LINE
  5
EB
100
AcDbEntity
  8
1
  6
CONTINUOUS
 62
           7
100
AcDbLine
 10
1000.0
 20
475.000000000001
 11
1000.0
 21
400.0
  0
LINE
  5
EA
100
AcDbEntity
  8
1
  6
CONTINUOUS
 62
           7
100
AcDbLine
 10
-1000.0
 20
475.000000000001
 11
-1000.0
 21
400.0
  0
LINE
  5
E9
100
AcDbEntity
  8
1
  6
CONTINUOUS
 62
           7
100
AcDbLine
 10
984.999999999999
 20
500.0
 11
1015.0
 21
500.0
  0
LINE
  5
E8
100
AcDbEntity
  8
1
  6
CONTINUOUS
 62
           7
100
AcDbLine
 10
1015.0
 20
540.0
 11
1015.0
 21
475.000000000001
  0
LINE
  5
E7
100
AcDbEntity
  8
1
  6
CONTINUOUS
 62
           7
100
AcDbLine
 10
985.0
 20
475.000000000001
 11
984.999999999999
 21
540.0
  0
LINE
  5
E6
100
AcDbEntity
  8
1
  6
CONTINUOUS
 62
           7
100
AcDbLine
 10
-1015.0
 20
500.0
 11
-985.000000000001
 21
500.0
  0
LINE
  5
E5
100
AcDbEntity
  8
1
  6
CONTINUOUS
 62
           7
100
AcDbLine
 10
-1015.0
 20
475.000000000001
 11
-1015.0
 21
540.0
  0
LINE
  5
E4
100
AcDbEntity
  8
1
  6
CONTINUOUS
 62
           7
100
AcDbLine
 10
-2485.0
 20
475.000000000001
 11
-2485.0
 21
540.0
  0
LINE
  5
E3
100
AcDbEntity
  8
1
  6
CONTINUOUS
 62
           7
100
AcDbLine
 10
2500.0
 20
475.000000000001
 11
-2500.0
 21
475.000000000001
  0
LINE
  5
E2
100
AcDbEntity
  8
1
  6
CONTINUOUS
 62
           7
100
AcDbLine
 10
3050.0
 20
0.0
 11
-3050.0
 21
0.0
  0
LINE
  5
E1
100
AcDbEntity
  8
1
  6
CONTINUOUS
 62
           7
100
AcDbLine
 10
-2550.0
 20
4435.0
 11
2550.0
 21
4435.0
  0
LINE
  5
E0
100
AcDbEntity
  8
1
  6
CONTINUOUS
 62
           7
100
AcDbLine
 10
-2550.0
 20
4485.0
 11
2550.0
 21
4485.0
  0
LINE
  5
DF
100
AcDbEntity
  8
1
  6
CONTINUOUS
 62
           2
100
AcDbLine
 10
-2480.0
 20
5415.0
 11
-2480.0
 21
4485.0
  0
LINE
  5
DE
100
AcDbEntity
  8
1
  6
CONTINUOUS
 62
           7
100
AcDbLine
 10
-2500.0
 20
4485.0
 11
-2500.0
 21
6435.0
  0
LINE
  5
DD
100
AcDbEntity
  8
1
  6
CONTINUOUS
 62
           7
100
AcDbLine
 10
2500.0
 20
4485.0
 11
2500.0
 21
6435.0
  0
LINE
  5
DC
100
AcDbEntity
  8
1
  6
CONTINUOUS
 62
           7
100
AcDbLine
 10
499.999999999999
 20
5435.0
 11
499.999999999999
 21
5685.835271328308
  0
LINE
  5
DB
100
AcDbEntity
  8
1
  6
CONTINUOUS
 62
           2
100
AcDbLine
 10
519.999999999999
 20
6415.0
 11
519.999999999999
 21
5969.403065089108
  0
LINE
  5
DA
100
AcDbEntity
  8
1
  6
CONTINUOUS
 62
           2
100
AcDbLine
 10
-2480.0
 20
5455.0
 11
-2480.0
 21
6415.0
  0
LINE
  5
D9
100
AcDbEntity
  8
1
  6
CONTINUOUS
 62
           2
100
AcDbLine
 10
519.999999999999
 20
5455.0
 11
979.999999999999
 21
5455.0
  0
LINE
  5
D8
100
AcDbEntity
  8
1
  6
CONTINUOUS
 62
           7
100
AcDbLine
 10
2550.0
 20
0.0
 11
2550.0
 21
2150.0
  0
LINE
  5
D7
100
AcDbEntity
  8
1
  6
CONTINUOUS
 62
           7
100
AcDbLine
 10
2550.0
 20
2150.0
 11
-2550.0
 21
2150.0
  0
LINE
  5
D6
100
AcDbEntity
  8
1
  6
CONTINUOUS
 62
           7
100
AcDbLine
 10
-2550.0
 20
2150.0
 11
-2550.0
 21
0.0
  0
LINE
  5
D5
100
AcDbEntity
  8
1
  6
CONTINUOUS
 62
           7
100
AcDbLine
 10
2550.0
 20
2000.0
 11
-2550.0
 21
2000.0
  0
LINE
  5
D4
100
AcDbEntity
  8
1
  6
CONTINUOUS
 62
           2
100
AcDbLine
 10
-738.0
 20
6415.0
 11
-980.000000000001
 21
6415.0
  0
LINE
  5
D3
100
AcDbEntity
  8
1
  6
CONTINUOUS
 62
           7
100
AcDbLine
 10
-2500.0
 20
0.0
 11
-2500.0
 21
2000.0
  0
LINE
  5
D2
100
AcDbEntity
  8
1
  6
CONTINUOUS
 62
           7
100
AcDbLine
 10
2500.0
 20
0.0
 11
2500.0
 21
2000.0
  0
LINE
  5
D1
100
AcDbEntity
  8
1
  6
CONTINUOUS
 62
           2
100
AcDbLine
 10
2500.0
 20
1900.0
 11
-2500.0
 21
1900.0
  0
LINE
  5
D0
100
AcDbEntity
  8
1
  6
CONTINUOUS
 62
           7
100
AcDbLine
 10
2500.0
 20
50.0
 11
-2500.0
 21
50.0
  0
LINE
  5
CF
100
AcDbEntity
  8
1
  6
CONTINUOUS
 62
           7
100
AcDbLine
 10
2485.0
 20
540.0
 11
2485.0
 21
475.000000000001
  0
LINE
  5
CE
100
AcDbEntity
  8
1
  6
CONTINUOUS
 62
           7
100
AcDbLine
 10
-2500.0
 20
800.0
 11
2500.0
 21
800.0
  0
LINE
  5
CD
100
AcDbEntity
  8
1
  6
CONTINUOUS
 62
           7
100
AcDbLine
 10
2485.0
 20
500.0
 11
2500.0
 21
500.0
  0
LINE
  5
CC
100
AcDbEntity
  8
1
  6
CONTINUOUS
 62
           7
100
AcDbLine
 10
-2500.0
 20
500.0
 11
-2485.0
 21
500.0
  0
LINE
  5
CB
100
AcDbEntity
  8
1
  6
DOT_CENTER
 62
           2
100
AcDbLine
 10
6223.683300641173
 20
2413.000000000002
 11
7769.01568891861
 21
2413.000000000001
  0
LINE
  5
CA
100
AcDbEntity
  8
1
  6
DOT_CENTER
 62
           2
100
AcDbLine
 10
-955.792426256488
 20
2413.0
 11
728.139450266089
 21
2413.0
  0
LINE
  5
C9
100
AcDbEntity
  8
1
  6
CONTINUOUS
 62
           7
100
AcDbLine
 10
2485.0
 20
540.0
 11
1015.0
 21
540.0
  0
LINE
  5
C8
100
AcDbEntity
  8
1
  6
DOT_CENTER
 62
           2
100
AcDbLine
 10
-980.151744094164
 20
5935.0
 11
767.969298886261
 21
5935.0
  0
LINE
  5
C7
100
AcDbEntity
  8
1
  6
CONTINUOUS
 62
           2
100
AcDbLine
 10
2480.0
 20
6415.0
 11
2480.0
 21
5455.0
  0
LINE
  5
C6
100
AcDbEntity
  8
1
  6
CONTINUOUS
 62
           2
100
AcDbLine
 10
519.999999999999
 20
6415.0
 11
979.999999999999
 21
6415.0
  0
LINE
  5
C5
100
AcDbEntity
  8
1
  6
CONTINUOUS
 62
           2
100
AcDbLine
 10
2480.0
 20
5415.0
 11
2480.0
 21
4485.0
  0
LINE
  5
C4
100
AcDbEntity
  8
1
  6
CONTINUOUS
 62
           7
100
AcDbLine
 10
-730.0
 20
6435.0
 11
-2550.0
 21
6435.0
  0
LINE
  5
C3
100
AcDbEntity
  8
1
  6
CONTINUOUS
 62
           2
100
AcDbLine
 10
2480.0
 20
5415.0
 11
1020.0
 21
5415.0
  0
LINE
  5
C2
100
AcDbEntity
  8
1
  6
CONTINUOUS
 62
           2
100
AcDbLine
 10
2504.0
 20
6435.0
 11
2504.0
 21
4485.0
  0
LINE
  5
C1
100
AcDbEntity
  8
1
  6
CONTINUOUS
 62
           2
100
AcDbLine
 10
2480.0
 20
6415.0
 11
1020.0
 21
6415.0
  0
LINE
  5
C0
100
AcDbEntity
  8
1
  6
CONTINUOUS
 62
           2
100
AcDbLine
 10
2480.0
 20
5455.0
 11
1020.0
 21
5455.0
  0
LINE
  5
BF
100
AcDbEntity
  8
1
  6
CONTINUOUS
 62
           2
100
AcDbLine
 10
-2504.0
 20
6435.0
 11
-2504.0
 21
4485.0
  0
LINE
  5
BE
100
AcDbEntity
  8
1
  6
CONTINUOUS
 62
           2
100
AcDbLine
 10
-1020.0
 20
5455.0
 11
-2480.0
 21
5455.0
  0
LINE
  5
BD
100
AcDbEntity
  8
1
  6
CONTINUOUS
 62
           7
100
AcDbLine
 10
-985.000000000001
 20
540.0
 11
-985.000000000001
 21
475.000000000001
  0
LINE
  5
BC
100
AcDbEntity
  8
1
  6
CONTINUOUS
 62
           7
100
AcDbLine
 10
2500.0
 20
400.0
 11
-2500.0
 21
400.0
  0
LINE
  5
BB
100
AcDbEntity
  8
1
  6
CONTINUOUS
 62
           7
100
AcDbLine
 10
984.999999999999
 20
540.0
 11
-985.000000000001
 21
540.0
  0
LINE
  5
BA
100
AcDbEntity
  8
1
  6
CONTINUOUS
 62
           7
100
AcDbLine
 10
-1015.0
 20
540.0
 11
-2485.0
 21
540.0
  0
LINE
  5
B9
100
AcDbEntity
  8
1
  6
CONTINUOUS
 62
           7
100
AcDbLine
 10
999.999999999999
 20
6435.0
 11
999.999999999999
 21
4485.0
  0
LINE
  5
B8
100
AcDbEntity
  8
1
  6
CONTINUOUS
 62
           2
100
AcDbLine
 10
1020.0
 20
5415.0
 11
1020.0
 21
4485.0
  0
LINE
  5
B7
100
AcDbEntity
  8
1
  6
CONTINUOUS
 62
           2
100
AcDbLine
 10
1020.0
 20
6415.0
 11
1020.0
 21
5455.0
  0
LINE
  5
B6
100
AcDbEntity
  8
1
  6
CONTINUOUS
 62
           2
100
AcDbLine
 10
979.999999999999
 20
6415.0
 11
979.999999999999
 21
5455.0
  0
LINE
  5
B5
100
AcDbEntity
  8
1
  6
CONTINUOUS
 62
           2
100
AcDbLine
 10
979.999999999999
 20
5415.0
 11
979.999999999999
 21
4485.0
  0
LINE
  5
B4
100
AcDbEntity
  8
1
  6
CONTINUOUS
 62
           2
100
AcDbLine
 10
-980.000000000001
 20
4485.0
 11
-980.000000000001
 21
5415.0
  0
LINE
  5
B3
100
AcDbEntity
  8
1
  6
CONTINUOUS
 62
           7
100
AcDbLine
 10
-1000.0
 20
4485.0
 11
-1000.0
 21
6435.0
  0
LINE
  5
B2
100
AcDbEntity
  8
1
  6
CONTINUOUS
 62
           2
100
AcDbLine
 10
-1020.0
 20
4485.0
 11
-1020.0
 21
5415.0
  0
LINE
  5
B1
100
AcDbEntity
  8
1
  6
CONTINUOUS
 62
           2
100
AcDbLine
 10
-980.000000000001
 20
5455.0
 11
-980.000000000001
 21
6415.0
  0
LINE
  5
B0
100
AcDbEntity
  8
1
  6
CONTINUOUS
 62
           2
100
AcDbLine
 10
-1020.0
 20
5455.0
 11
-1020.0
 21
6415.0
  0
LINE
  5
AF
100
AcDbEntity
  8
1
  6
CONTINUOUS
 62
           2
100
AcDbLine
 10
-1020.0
 20
6415.0
 11
-2480.0
 21
6415.0
  0
LINE
  5
AE
100
AcDbEntity
  8
1
  6
CONTINUOUS
 62
           2
100
AcDbLine
 10
-1020.0
 20
5415.0
 11
-2480.0
 21
5415.0
  0
LINE
  5
AD
100
AcDbEntity
  8
1
  6
CONTINUOUS
 62
           7
100
AcDbLine
 10
2550.0
 20
6435.0
 11
76.3552872566
 21
6435.0
  0
LINE
  5
AC
100
AcDbEntity
  8
1
  6
CONTINUOUS
 62
           7
100
AcDbLine
 10
2550.0
 20
6435.0
 11
2550.0
 21
4435.0
  0
LINE
  5
AB
100
AcDbEntity
  8
1
  6
CONTINUOUS
 62
           7
100
AcDbLine
 10
-2550.0
 20
4435.0
 11
-2550.0
 21
6435.0
  0
LINE
  5
AA
100
AcDbEntity
  8
1
  6
CONTINUOUS
 62
           2
100
AcDbLine
 10
-980.000000000001
 20
5455.0
 11
-490.492603485553
 21
5455.0
  0
LINE
  5
A9
100
AcDbEntity
  8
1
  6
CONTINUOUS
 62
           2
100
AcDbLine
 10
-980.000000000001
 20
5415.0
 11
-435.831483154991
 21
5415.0
  0
LINE
  5
A8
100
AcDbEntity
  8
1
  6
DOT_CENTER
 62
           2
100
AcDbLine
 10
0.0
 20
3342.695202158873
 11
0.0
 21
-121.234205307357
  0
LINE
  5
A7
100
AcDbEntity
  8
1
  6
DOT_CENTER
 62
           2
100
AcDbLine
 10
-2430.912924024839
 20
4685.0
 11
2477.227327094972
 21
4685.0
  0
LINE
  5
A6
100
AcDbEntity
  8
1
  6
CONTINUOUS
 62
           7
100
AcDbLine
 10
2562.0
 20
4518.0
 11
2579.0
 21
4518.0
  0
LINE
  5
A5
100
AcDbEntity
  8
1
  6
CONTINUOUS
 62
           7
100
AcDbLine
 10
2562.0
 20
4552.0
 11
2579.0
 21
4552.0
  0
LINE
  5
A4
100
AcDbEntity
  8
1
  6
CONTINUOUS
 62
           7
100
AcDbLine
 10
2562.0
 20
4518.0
 11
2562.0
 21
4485.328579645837
  0
LINE
  5
A3
100
AcDbEntity
  8
1
  6
CONTINUOUS
 62
           7
100
AcDbLine
 10
2633.0
 20
4516.971103189579
 11
2633.0
 21
4477.838834764832
  0
LINE
  5
A2
100
AcDbEntity
  8
1
  6
CONTINUOUS
 62
           7
100
AcDbLine
 10
2618.0
 20
4516.971103189579
 11
2633.0
 21
4516.971103189579
  0
LINE
  5
A1
100
AcDbEntity
  8
1
  6
CONTINUOUS
 62
           7
100
AcDbLine
 10
2613.338834764831
 20
4507.783322010193
 11
2613.338834764831
 21
4587.5
  0
LINE
  5
A0
100
AcDbEntity
  8
1
  6
CONTINUOUS
 62
           7
100
AcDbLine
 10
2613.338834764831
 20
4507.783322010193
 11
2618.0
 21
4516.971103189579
  0
LINE
  5
9F
100
AcDbEntity
  8
1
  6
CONTINUOUS
 62
           7
100
AcDbLine
 10
2562.0
 20
4507.783322010193
 11
2613.338834764831
 21
4507.783322010193
  0
LINE
  5
9E
100
AcDbEntity
  8
1
  6
CONTINUOUS
 62
           7
100
AcDbLine
 10
2596.0
 20
4465.0
 11
2550.0
 21
4465.0
  0
LINE
  5
9D
100
AcDbEntity
  8
1
  6
CONTINUOUS
 62
           7
100
AcDbLine
 10
2596.0
 20
4605.0
 11
2550.0
 21
4605.0
  0
LINE
  5
9C
100
AcDbEntity
  8
1
  6
CONTINUOUS
 62
           7
100
AcDbLine
 10
2680.0
 20
4563.482374189476
 11
2663.5
 21
4563.482374189476
  0
LINE
  5
9B
100
AcDbEntity
  8
1
  6
CONTINUOUS
 62
           7
100
AcDbLine
 10
2680.0
 20
4519.443650813897
 11
2663.5
 21
4519.443650813897
  0
LINE
  5
9A
100
AcDbEntity
  8
1
  6
CONTINUOUS
 62
           7
100
AcDbLine
 10
2680.0
 20
4519.443650813897
 11
2680.0
 21
4563.482374189476
  0
LINE
  5
99
100
AcDbEntity
  8
1
  6
CONTINUOUS
 62
           7
100
AcDbLine
 10
2663.5
 20
4498.5
 11
2663.5
 21
4571.5
  0
LINE
  5
98
100
AcDbEntity
  8
1
  6
CONTINUOUS
 62
           7
100
AcDbLine
 10
2633.0
 20
4592.161165235168
 11
2633.0
 21
4553.028896810425
  0
LINE
  5
97
100
AcDbEntity
  8
1
  6
CONTINUOUS
 62
           7
100
AcDbLine
 10
2633.0
 20
4592.161165235168
 11
2618.0
 21
4592.161165235168
  0
LINE
  5
96
100
AcDbEntity
  8
1
  6
CONTINUOUS
 62
           7
100
AcDbLine
 10
2633.0
 20
4477.838834764832
 11
2618.0
 21
4477.838834764832
  0
LINE
  5
95
100
AcDbEntity
  8
1
  6
CONTINUOUS
 62
           7
100
AcDbLine
 10
2651.5
 20
4495.0
 11
2633.0
 21
4495.0
  0
LINE
  5
94
100
AcDbEntity
  8
1
  6
CONTINUOUS
 62
           7
100
AcDbLine
 10
2651.5
 20
4575.0
 11
2633.0
 21
4575.0
  0
LINE
  5
93
100
AcDbEntity
  8
1
  6
CONTINUOUS
 62
           7
100
AcDbLine
 10
2550.0
 20
4584.671420354163
 11
2562.0
 21
4584.671420354163
  0
LINE
  5
92
100
AcDbEntity
  8
1
  6
CONTINUOUS
 62
           7
100
AcDbLine
 10
2596.0
 20
4465.0
 11
2596.0
 21
4482.5
  0
LINE
  5
91
100
AcDbEntity
  8
1
  6
CONTINUOUS
 62
           7
100
AcDbLine
 10
2596.0
 20
4587.5
 11
2596.0
 21
4605.0
  0
LINE
  5
90
100
AcDbEntity
  8
1
  6
CONTINUOUS
 62
           7
100
AcDbLine
 10
2651.5
 20
4495.0
 11
2651.5
 21
4575.0
  0
LINE
  5
8F
100
AcDbEntity
  8
1
  6
CONTINUOUS
 62
           7
100
AcDbLine
 10
2663.5
 20
4498.5
 11
2651.5
 21
4498.5
  0
LINE
  5
8E
100
AcDbEntity
  8
1
  6
CONTINUOUS
 62
           7
100
AcDbLine
 10
2663.5
 20
4571.5
 11
2651.5
 21
4571.5
  0
LINE
  5
8D
100
AcDbEntity
  8
1
  6
CONTINUOUS
 62
           7
100
AcDbLine
 10
2562.0
 20
4584.671420354163
 11
2562.0
 21
4552.0
  0
LINE
  5
8C
100
AcDbEntity
  8
1
  6
CONTINUOUS
 62
           7
100
AcDbLine
 10
2618.0
 20
4477.838834764832
 11
2613.338834764831
 21
4482.5
  0
LINE
  5
8B
100
AcDbEntity
  8
1
  6
CONTINUOUS
 62
           7
100
AcDbLine
 10
2613.338834764831
 20
4482.5
 11
2613.338834764831
 21
4507.783322010193
  0
LINE
  5
8A
100
AcDbEntity
  8
1
  6
CONTINUOUS
 62
           7
100
AcDbLine
 10
2613.338834764831
 20
4587.5
 11
2618.0
 21
4592.161165235168
  0
LINE
  5
89
100
AcDbEntity
  8
1
  6
CONTINUOUS
 62
           7
100
AcDbLine
 10
2613.338834764831
 20
4587.5
 11
2596.0
 21
4587.5
  0
LINE
  5
88
100
AcDbEntity
  8
1
  6
CONTINUOUS
 62
           7
100
AcDbLine
 10
2613.338834764831
 20
4482.5
 11
2596.0
 21
4482.5
  0
LINE
  5
87
100
AcDbEntity
  8
1
  6
CONTINUOUS
 62
           7
100
AcDbLine
 10
2618.0
 20
4553.028896810425
 11
2613.338834764831
 21
4562.216677989811
  0
LINE
  5
86
100
AcDbEntity
  8
1
  6
CONTINUOUS
 62
           7
100
AcDbLine
 10
2613.338834764831
 20
4562.216677989811
 11
2562.0
 21
4562.216677989811
  0
LINE
  5
85
100
AcDbEntity
  8
1
  6
CONTINUOUS
 62
           7
100
AcDbLine
 10
2633.0
 20
4553.028896810425
 11
2618.0
 21
4553.028896810425
  0
LINE
  5
84
100
AcDbEntity
  8
1
  6
CONTINUOUS
 62
           7
100
AcDbLine
 10
2596.0
 20
4482.5
 11
2562.0
 21
4482.5
  0
LINE
  5
83
100
AcDbEntity
  8
1
  6
CONTINUOUS
 62
           7
100
AcDbLine
 10
2562.0
 20
4482.5
 11
2562.0
 21
4485.328579645837
  0
LINE
  5
82
100
AcDbEntity
  8
1
  6
CONTINUOUS
 62
           7
100
AcDbLine
 10
2596.0
 20
4587.5
 11
2562.0
 21
4587.5
  0
LINE
  5
81
100
AcDbEntity
  8
1
  6
CONTINUOUS
 62
           7
100
AcDbLine
 10
2562.0
 20
4587.5
 11
2562.0
 21
4566.378889924883
  0
LINE
  5
80
100
AcDbEntity
  8
1
  6
CONTINUOUS
 62
           7
100
AcDbLine
 10
2562.0
 20
4485.328579645837
 11
2550.0
 21
4485.328579645837
  0
LINE
  5
7F
100
AcDbEntity
  8
1
  6
CONTINUOUS
 62
           7
100
AcDbLine
 10
2562.0
 20
1450.328579645834
 11
2550.0
 21
1450.328579645834
  0
LINE
  5
7E
100
AcDbEntity
  8
1
  6
CONTINUOUS
 62
           7
100
AcDbLine
 10
2562.0
 20
1552.499999999998
 11
2562.0
 21
1531.378889924881
  0
LINE
  5
7D
100
AcDbEntity
  8
1
  6
CONTINUOUS
 62
           7
100
AcDbLine
 10
2596.0
 20
1552.499999999998
 11
2562.0
 21
1552.499999999998
  0
LINE
  5
7C
100
AcDbEntity
  8
1
  6
CONTINUOUS
 62
           7
100
AcDbLine
 10
2562.0
 20
1447.499999999999
 11
2562.0
 21
1450.328579645834
  0
LINE
  5
7B
100
AcDbEntity
  8
1
  6
CONTINUOUS
 62
           7
100
AcDbLine
 10
2596.0
 20
1447.499999999999
 11
2562.0
 21
1447.499999999999
  0
LINE
  5
7A
100
AcDbEntity
  8
1
  6
CONTINUOUS
 62
           7
100
AcDbLine
 10
2633.0
 20
1515.556349186103
 11
2618.0
 21
1515.556349186103
  0
LINE
  5
79
100
AcDbEntity
  8
1
  6
CONTINUOUS
 62
           7
100
AcDbLine
 10
2633.0
 20
1484.443650813895
 11
2618.0
 21
1484.443650813895
  0
LINE
  5
78
100
AcDbEntity
  8
1
  6
CONTINUOUS
 62
           7
100
AcDbLine
 10
2613.338834764831
 20
1518.028896810422
 11
2562.0
 21
1518.028896810422
  0
LINE
  5
77
100
AcDbEntity
  8
1
  6
CONTINUOUS
 62
           7
100
AcDbLine
 10
2618.0
 20
1515.556349186103
 11
2613.338834764831
 21
1518.028896810422
  0
LINE
  5
76
100
AcDbEntity
  8
1
  6
CONTINUOUS
 62
           7
100
AcDbLine
 10
2613.338834764831
 20
1481.971103189575
 11
2562.0
 21
1481.971103189575
  0
LINE
  5
75
100
AcDbEntity
  8
1
  6
CONTINUOUS
 62
           7
100
AcDbLine
 10
2613.338834764831
 20
1481.971103189575
 11
2618.0
 21
1484.443650813895
  0
LINE
  5
74
100
AcDbEntity
  8
1
  6
CONTINUOUS
 62
           7
100
AcDbLine
 10
2633.0
 20
1484.443650813895
 11
2633.0
 21
1442.838834764832
  0
LINE
  5
73
100
AcDbEntity
  8
1
  6
CONTINUOUS
 62
           7
100
AcDbLine
 10
2613.338834764831
 20
1447.499999999999
 11
2596.0
 21
1447.499999999999
  0
LINE
  5
72
100
AcDbEntity
  8
1
  6
CONTINUOUS
 62
           7
100
AcDbLine
 10
2613.338834764831
 20
1552.499999999998
 11
2596.0
 21
1552.499999999998
  0
LINE
  5
71
100
AcDbEntity
  8
1
  6
CONTINUOUS
 62
           7
100
AcDbLine
 10
2613.338834764831
 20
1552.499999999998
 11
2618.0
 21
1557.161165235166
  0
LINE
  5
70
100
AcDbEntity
  8
1
  6
CONTINUOUS
 62
           7
100
AcDbLine
 10
2613.338834764831
 20
1447.499999999999
 11
2613.338834764831
 21
1552.499999999998
  0
LINE
  5
6F
100
AcDbEntity
  8
1
  6
CONTINUOUS
 62
           7
100
AcDbLine
 10
2618.0
 20
1442.838834764832
 11
2613.338834764831
 21
1447.499999999999
  0
LINE
  5
6E
100
AcDbEntity
  8
1
  6
CONTINUOUS
 62
           7
100
AcDbLine
 10
2562.0
 20
1518.028896810422
 11
2562.0
 21
1549.671420354162
  0
LINE
  5
6D
100
AcDbEntity
  8
1
  6
CONTINUOUS
 62
           7
100
AcDbLine
 10
2562.0
 20
1450.328579645834
 11
2562.0
 21
1481.971103189575
  0
LINE
  5
6C
100
AcDbEntity
  8
1
  6
CONTINUOUS
 62
           7
100
AcDbLine
 10
2663.5
 20
1536.499999999998
 11
2651.5
 21
1536.499999999998
  0
LINE
  5
6B
100
AcDbEntity
  8
1
  6
CONTINUOUS
 62
           7
100
AcDbLine
 10
2663.5
 20
1463.499999999998
 11
2651.5
 21
1463.499999999998
  0
LINE
  5
6A
100
AcDbEntity
  8
1
  6
CONTINUOUS
 62
           7
100
AcDbLine
 10
2651.5
 20
1459.999999999998
 11
2651.5
 21
1539.999999999998
  0
LINE
  5
69
100
AcDbEntity
  8
1
  6
CONTINUOUS
 62
           7
100
AcDbLine
 10
2596.0
 20
1552.499999999998
 11
2596.0
 21
1569.999999999998
  0
LINE
  5
68
100
AcDbEntity
  8
1
  6
CONTINUOUS
 62
           7
100
AcDbLine
 10
2596.0
 20
1429.999999999999
 11
2596.0
 21
1447.499999999999
  0
LINE
  5
67
100
AcDbEntity
  8
1
  6
CONTINUOUS
 62
           7
100
AcDbLine
 10
2550.0
 20
1549.671420354162
 11
2562.0
 21
1549.671420354162
  0
LINE
  5
66
100
AcDbEntity
  8
1
  6
CONTINUOUS
 62
           7
100
AcDbLine
 10
2651.5
 20
1539.999999999998
 11
2633.0
 21
1539.999999999998
  0
LINE
  5
65
100
AcDbEntity
  8
1
  6
CONTINUOUS
 62
           7
100
AcDbLine
 10
2651.5
 20
1459.999999999998
 11
2633.0
 21
1459.999999999998
  0
LINE
  5
64
100
AcDbEntity
  8
1
  6
CONTINUOUS
 62
           7
100
AcDbLine
 10
2633.0
 20
1442.838834764832
 11
2618.0
 21
1442.838834764832
  0
LINE
  5
63
100
AcDbEntity
  8
1
  6
CONTINUOUS
 62
           7
100
AcDbLine
 10
2633.0
 20
1557.161165235166
 11
2618.0
 21
1557.161165235166
  0
LINE
  5
62
100
AcDbEntity
  8
1
  6
CONTINUOUS
 62
           7
100
AcDbLine
 10
2633.0
 20
1557.161165235166
 11
2633.0
 21
1515.556349186103
  0
LINE
  5
61
100
AcDbEntity
  8
1
  6
CONTINUOUS
 62
           7
100
AcDbLine
 10
2663.5
 20
1463.499999999998
 11
2663.5
 21
1536.499999999998
  0
LINE
  5
60
100
AcDbEntity
  8
1
  6
CONTINUOUS
 62
           7
100
AcDbLine
 10
2680.0
 20
1484.443650813895
 11
2680.0
 21
1528.482374189475
  0
LINE
  5
5F
100
AcDbEntity
  8
1
  6
CONTINUOUS
 62
           7
100
AcDbLine
 10
2680.0
 20
1484.443650813895
 11
2663.5
 21
1484.443650813895
  0
LINE
  5
5E
100
AcDbEntity
  8
1
  6
CONTINUOUS
 62
           7
100
AcDbLine
 10
2680.0
 20
1528.482374189475
 11
2663.5
 21
1528.482374189475
  0
LINE
  5
5D
100
AcDbEntity
  8
1
  6
CONTINUOUS
 62
           7
100
AcDbLine
 10
2596.0
 20
1569.999999999998
 11
2550.0
 21
1569.999999999998
  0
LINE
  5
5C
100
AcDbEntity
  8
1
  6
CONTINUOUS
 62
           7
100
AcDbLine
 10
2596.0
 20
1429.999999999999
 11
2550.0
 21
1429.999999999999
  0
LINE
  5
5B
100
AcDbEntity
  8
1
  6
CONTINUOUS
 62
           7
100
AcDbLine
 10
2562.0
 20
4715.328579645837
 11
2550.0
 21
4715.328579645837
  0
LINE
  5
5A
100
AcDbEntity
  8
1
  6
CONTINUOUS
 62
           7
100
AcDbLine
 10
2562.0
 20
4817.5
 11
2562.0
 21
4796.378889924883
  0
LINE
  5
59
100
AcDbEntity
  8
1
  6
CONTINUOUS
 62
           7
100
AcDbLine
 10
2596.0
 20
4817.5
 11
2562.0
 21
4817.5
  0
LINE
  5
58
100
AcDbEntity
  8
1
  6
CONTINUOUS
 62
           7
100
AcDbLine
 10
2562.0
 20
4712.5
 11
2562.0
 21
4715.328579645837
  0
LINE
  5
57
100
AcDbEntity
  8
1
  6
CONTINUOUS
 62
           7
100
AcDbLine
 10
2596.0
 20
4712.5
 11
2562.0
 21
4712.5
  0
LINE
  5
56
100
AcDbEntity
  8
1
  6
CONTINUOUS
 62
           7
100
AcDbLine
 10
2633.0
 20
4783.028896810425
 11
2618.0
 21
4783.028896810425
  0
LINE
  5
55
100
AcDbEntity
  8
1
  6
CONTINUOUS
 62
           7
100
AcDbLine
 10
2613.338834764831
 20
4792.216677989811
 11
2562.0
 21
4792.216677989811
  0
LINE
  5
54
100
AcDbEntity
  8
1
  6
CONTINUOUS
 62
           7
100
AcDbLine
 10
2618.0
 20
4783.028896810425
 11
2613.338834764831
 21
4792.216677989811
  0
LINE
  5
53
100
AcDbEntity
  8
1
  6
CONTINUOUS
 62
           7
100
AcDbLine
 10
2613.338834764831
 20
4712.5
 11
2596.0
 21
4712.5
  0
LINE
  5
52
100
AcDbEntity
  8
1
  6
CONTINUOUS
 62
           7
100
AcDbLine
 10
2613.338834764831
 20
4817.5
 11
2596.0
 21
4817.5
  0
LINE
  5
51
100
AcDbEntity
  8
1
  6
CONTINUOUS
 62
           7
100
AcDbLine
 10
2613.338834764831
 20
4817.5
 11
2618.0
 21
4822.161165235168
  0
LINE
  5
50
100
AcDbEntity
  8
1
  6
CONTINUOUS
 62
           7
100
AcDbLine
 10
2613.338834764831
 20
4712.5
 11
2613.338834764831
 21
4737.783322010193
  0
LINE
  5
4F
100
AcDbEntity
  8
1
  6
CONTINUOUS
 62
           7
100
AcDbLine
 10
2618.0
 20
4707.838834764832
 11
2613.338834764831
 21
4712.5
  0
LINE
  5
4E
100
AcDbEntity
  8
1
  6
CONTINUOUS
 62
           7
100
AcDbLine
 10
2562.0
 20
4814.671420354163
 11
2562.0
 21
4782.0
  0
LINE
  5
4D
100
AcDbEntity
  8
1
  6
CONTINUOUS
 62
           7
100
AcDbLine
 10
2663.5
 20
4801.5
 11
2651.5
 21
4801.5
  0
LINE
  5
4C
100
AcDbEntity
  8
1
  6
CONTINUOUS
 62
           7
100
AcDbLine
 10
2663.5
 20
4728.5
 11
2651.5
 21
4728.5
  0
LINE
  5
4B
100
AcDbEntity
  8
1
  6
CONTINUOUS
 62
           7
100
AcDbLine
 10
2651.5
 20
4725.0
 11
2651.5
 21
4805.0
  0
LINE
  5
4A
100
AcDbEntity
  8
1
  6
CONTINUOUS
 62
           7
100
AcDbLine
 10
2596.0
 20
4817.5
 11
2596.0
 21
4835.0
  0
LINE
  5
49
100
AcDbEntity
  8
1
  6
CONTINUOUS
 62
           7
100
AcDbLine
 10
2596.0
 20
4695.0
 11
2596.0
 21
4712.5
  0
LINE
  5
48
100
AcDbEntity
  8
1
  6
CONTINUOUS
 62
           7
100
AcDbLine
 10
2550.0
 20
4814.671420354163
 11
2562.0
 21
4814.671420354163
  0
LINE
  5
47
100
AcDbEntity
  8
1
  6
CONTINUOUS
 62
           7
100
AcDbLine
 10
2651.5
 20
4805.0
 11
2633.0
 21
4805.0
  0
LINE
  5
46
100
AcDbEntity
  8
1
  6
CONTINUOUS
 62
           7
100
AcDbLine
 10
2651.5
 20
4725.0
 11
2633.0
 21
4725.0
  0
LINE
  5
45
100
AcDbEntity
  8
1
  6
CONTINUOUS
 62
           7
100
AcDbLine
 10
2633.0
 20
4707.838834764832
 11
2618.0
 21
4707.838834764832
  0
LINE
  5
44
100
AcDbEntity
  8
1
  6
CONTINUOUS
 62
           7
100
AcDbLine
 10
2633.0
 20
4822.161165235168
 11
2618.0
 21
4822.161165235168
  0
LINE
  5
43
100
AcDbEntity
  8
1
  6
CONTINUOUS
 62
           7
100
AcDbLine
 10
2633.0
 20
4822.161165235168
 11
2633.0
 21
4783.028896810425
  0
LINE
  5
42
100
AcDbEntity
  8
1
  6
CONTINUOUS
 62
           7
100
AcDbLine
 10
2663.5
 20
4728.5
 11
2663.5
 21
4801.5
  0
LINE
  5
41
100
AcDbEntity
  8
1
  6
CONTINUOUS
 62
           7
100
AcDbLine
 10
2680.0
 20
4736.490190466975
 11
2680.0
 21
4793.482374189476
  0
LINE
  5
40
100
AcDbEntity
  8
1
  6
CONTINUOUS
 62
           7
100
AcDbLine
 10
2680.0
 20
4793.482374189476
 11
2663.5
 21
4793.482374189476
  0
LINE
  5
3F
100
AcDbEntity
  8
1
  6
CONTINUOUS
 62
           7
100
AcDbLine
 10
2596.0
 20
4835.0
 11
2550.0
 21
4835.0
  0
LINE
  5
3E
100
AcDbEntity
  8
1
  6
CONTINUOUS
 62
           7
100
AcDbLine
 10
2596.0
 20
4695.0
 11
2550.0
 21
4695.0
  0
LINE
  5
3D
100
AcDbEntity
  8
1
  6
CONTINUOUS
 62
           7
100
AcDbLine
 10
2562.0
 20
4737.783322010193
 11
2613.338834764831
 21
4737.783322010193
  0
LINE
  5
3C
100
AcDbEntity
  8
1
  6
CONTINUOUS
 62
           7
100
AcDbLine
 10
2613.338834764831
 20
4737.783322010193
 11
2618.0
 21
4746.971103189579
  0
LINE
  5
3B
100
AcDbEntity
  8
1
  6
CONTINUOUS
 62
           7
100
AcDbLine
 10
2613.338834764831
 20
4737.783322010193
 11
2613.338834764831
 21
4817.5
  0
LINE
  5
3A
100
AcDbEntity
  8
1
  6
CONTINUOUS
 62
           7
100
AcDbLine
 10
2618.0
 20
4746.971103189579
 11
2633.0
 21
4746.971103189579
  0
LINE
  5
39
100
AcDbEntity
  8
1
  6
CONTINUOUS
 62
           7
100
AcDbLine
 10
2633.0
 20
4746.971103189579
 11
2633.0
 21
4707.838834764832
  0
LINE
  5
38
100
AcDbEntity
  8
1
  6
CONTINUOUS
 62
           7
100
AcDbLine
 10
2562.0
 20
4748.0
 11
2562.0
 21
4715.328579645837
  0
LINE
  5
37
100
AcDbEntity
  8
1
  6
CONTINUOUS
 62
           7
100
AcDbLine
 10
2562.0
 20
4782.0
 11
2579.0
 21
4782.0
  0
LINE
  5
36
100
AcDbEntity
  8
1
  6
CONTINUOUS
 62
           7
100
AcDbLine
 10
2562.0
 20
4748.0
 11
2579.0
 21
4748.0
  0
LINE
  5
35
100
AcDbEntity
  8
1
  6
CONTINUOUS
 62
           7
100
AcDbLine
 10
2663.5
 20
4736.490190466975
 11
2680.0
 21
4736.490190466975
  0
LINE
  5
34
100
AcDbEntity
  8
1
  6
DOT_CENTER
 62
           2
100
AcDbLine
 10
0.0
 20
6599.216232355006
 11
0.0
 21
4305.91937581614
  0
LINE
  5
33
100
AcDbEntity
  8
1
  6
CONTINUOUS
 62
           7
100
AcDbLine
 10
-464.610640301039
 20
5435.0
 11
-2550.0
 21
5435.0
  0
LINE
  5
32
100
AcDbEntity
  8
1
  6
CONTINUOUS
 62
           2
100
AcDbLine
 10
296.227766016837
 20
5415.0
 11
979.999999999999
 21
5415.0
  0
LINE
  5
31
100
AcDbEntity
  8
1
  6
CONTINUOUS
 62
           7
100
AcDbLine
 10
322.928563989644
 20
5435.0
 11
2550.0
 21
5435.0
  0
LINE
  5
30
100
AcDbEntity
  8
1
  6
CONTINUOUS
 62
           2
100
AcDbLine
 10
519.999999999999
 20
5760.596934910889
 11
519.999999999999
 21
5455.0
  0
LINE
  5
2F
100
AcDbEntity
  8
1
  6
CONTINUOUS
 62
           7
100
AcDbLine
 10
499.999999999999
 20
6044.164728671695
 11
499.999999999999
 21
6435.0
  0
POINT
  5
2E
100
AcDbEntity
  8
0
 62
           3
100
AcDbPoint
 10
6383.399996721731
 20
1365.000000000113
  0
ENDSEC
  0
SECTION
  2
OBJECTS
  0
DICTIONARY
  5
19
100
AcDbDictionary
  3
ACAD_GROUP
350
1A
  3
ACAD_MLINESTYLE
350
1B
  0
DICTIONARY
  5
1A
102
{ACAD_REACTORS
330
19
102
}
100
AcDbDictionary
  0
DICTIONARY
  5
1B
102
{ACAD_REACTORS
330
19
102
}
100
AcDbDictionary
  3
STANDARD
350
1C
  0
MLINESTYLE
  5
1C
102
{ACAD_REACTORS
330
1B
102
}
100
AcDbMlineStyle
  2
STANDARD
 70
           0
  3

 62
           0
 51
90.0
 52
90.0
 71
           2
 49
0.5
 62
         256
  6
BYLAYER
 49
-0.5
 62
         256
  6
BYLAYER
  0
ENDSEC
  0
EOF
