  0
SECTION
  2
HEADER
  9
$ACADVER
  1
AC1014
  9
$ACADMAINTVER
 70
           0
  9
$DWGCODEPAGE
  3
DOS932
  9
$INSBASE
 10
0.0
 20
0.0
 30
0.0
  9
$EXTMIN
 10
1.000000000000E+20
 20
1.000000000000E+20
 30
1.000000000000E+20
  9
$EXTMAX
 10
-1.000000000000E+20
 20
-1.000000000000E+20
 30
-1.000000000000E+20
  9
$LIMMIN
 10
0.0
 20
0.0
  9
$LIMMAX
 10
0.0
 20
0.0
  9
$ORTHOMODE
 70
           0
  9
$REGENMODE
 70
           1
  9
$FILLMODE
 70
           1
  9
$QTEXTMODE
 70
           0
  9
$MIRRTEXT
 70
           1
  9
$DRAGMODE
 70
           2
  9
$LTSCALE
 40
1.0
  9
$OSMODE
 70
           0
  9
$ATTMODE
 70
           1
  9
$TEXTSIZE
 40
0.2
  9
$TRACEWID
 40
0.05
  9
$TEXTSTYLE
  7
STANDARD
  9
$CLAYER
  8
0
  9
$CELTYPE
  6
CONTINUOUS
  9
$CECOLOR
 62
         256
  9
$CELTSCALE
 40
1.0
  9
$DELOBJ
 70
           1
  9
$DISPSILH
 70
           0
  9
$DIMSCALE
 40
1.0
  9
$DIMASZ
 40
0.18
  9
$DIMEXO
 40
0.0625
  9
$DIMDLI
 40
0.38
  9
$DIMRND
 40
0.0
  9
$DIMDLE
 40
0.0
  9
$DIMEXE
 40
0.18
  9
$DIMTP
 40
0.0
  9
$DIMTM
 40
0.0
  9
$DIMTXT
 40
0.18
  9
$DIMCEN
 40
0.09
  9
$DIMTSZ
 40
0.0
  9
$DIMTOL
 70
           0
  9
$DIMLIM
 70
           0
  9
$DIMTIH
 70
           1
  9
$DIMTOH
 70
           1
  9
$DIMSE1
 70
           0
  9
$DIMSE2
 70
           0
  9
$DIMTAD
 70
           0
  9
$DIMZIN
 70
           0
  9
$DIMBLK
  1

  9
$DIMASO
 70
           1
  9
$DIMSHO
 70
           1
  9
$DIMPOST
  1

  9
$DIMAPOST
  1

  9
$DIMALT
 70
           0
  9
$DIMALTD
 70
           2
  9
$DIMALTF
 40
25.4
  9
$DIMLFAC
 40
1.0
  9
$DIMTOFL
 70
           0
  9
$DIMTVP
 40
0.0
  9
$DIMTIX
 70
           0
  9
$DIMSOXD
 70
           0
  9
$DIMSAH
 70
           0
  9
$DIMBLK1
  1

  9
$DIMBLK2
  1

  9
$DIMSTYLE
  2
STANDARD
  9
$DIMCLRD
 70
           0
  9
$DIMCLRE
 70
           0
  9
$DIMCLRT
 70
           0
  9
$DIMTFAC
 40
1.0
  9
$DIMGAP
 40
0.09
  9
$DIMJUST
 70
           0
  9
$DIMSD1
 70
           0
  9
$DIMSD2
 70
           0
  9
$DIMTOLJ
 70
           1
  9
$DIMTZIN
 70
           0
  9
$DIMALTZ
 70
           0
  9
$DIMALTTZ
 70
           0
  9
$DIMFIT
 70
           3
  9
$DIMUPT
 70
           0
  9
$DIMUNIT
 70
           2
  9
$DIMDEC
 70
           4
  9
$DIMTDEC
 70
           4
  9
$DIMALTU
 70
           2
  9
$DIMALTTD
 70
           2
  9
$DIMTXSTY
  7
STANDARD
  9
$DIMAUNIT
 70
           0
  9
$LUNITS
 70
           2
  9
$LUPREC
 70
           4
  9
$SKETCHINC
 40
0.1
  9
$FILLETRAD
 40
0.0
  9
$AUNITS
 70
           0
  9
$AUPREC
 70
           0
  9
$MENU
  1
acad
  9
$ELEVATION
 40
0.0
  9
$PELEVATION
 40
0.0
  9
$THICKNESS
 40
0.0
  9
$LIMCHECK
 70
           0
  9
$BLIPMODE
 70
           1
  9
$CHAMFERA
 40
0.0
  9
$CHAMFERB
 40
0.0
  9
$CHAMFERC
 40
0.0
  9
$CHAMFERD
 40
0.0
  9
$SKPOLY
 70
           0
  9
$TDCREATE
 40
0.000000000
  9
$TDUPDATE
 40
0.000000000
  9
$TDINDWG
 40
0.0000000000
  9
$TDUSRTIMER
 40
0.0000000000
  9
$USRTIMER
 70
           1
  9
$ANGBASE
 50
0.0
  9
$ANGDIR
 70
           0
  9
$PDMODE
 70
           0
  9
$PDSIZE
 40
0.0
  9
$PLINEWID
 40
0.0
  9
$COORDS
 70
           0
  9
$SPLFRAME
 70
           0
  9
$SPLINETYPE
 70
           6
  9
$SPLINESEGS
 70
           8
  9
$ATTDIA
 70
           0
  9
$ATTREQ
 70
           1
  9
$HANDLING
 70
           1
  9
$HANDSEED
  5
499
  9
$SURFTAB1
 70
           6
  9
$SURFTAB2
 70
           6
  9
$SURFTYPE
 70
           6
  9
$SURFU
 70
           6
  9
$SURFV
 70
           6
  9
$UCSNAME
  2

  9
$UCSORG
 10
0.0
 20
0.0
 30
0.0
  9
$UCSXDIR
 10
1.0
 20
0.0
 30
0.0
  9
$UCSYDIR
 10
0.0
 20
1.0
 30
0.0
  9
$PUCSNAME
  2

  9
$PUCSORG
 10
0.0
 20
0.0
 30
0.0
  9
$PUCSXDIR
 10
1.0
 20
0.0
 30
0.0
  9
$PUCSYDIR
 10
0.0
 20
1.0
 30
0.0
  9
$USERI1
 70
           0
  9
$USERI2
 70
           0
  9
$USERI3
 70
           0
  9
$USERI4
 70
           0
  9
$USERI5
 70
           0
  9
$USERR1
 40
0.0
  9
$USERR2
 40
0.0
  9
$USERR3
 40
0.0
  9
$USERR4
 40
0.0
  9
$USERR5
 40
0.0
  9
$WORLDVIEW
 70
           1
  9
$SHADEDGE
 70
           3
  9
$SHADEDIF
 70
          70
  9
$TILEMODE
 70
           1
  9
$MAXACTVP
 70
          16
  9
$PINSBASE
 10
0.0
 20
0.0
 30
0.0
  9
$PLIMCHECK
 70
           0
  9
$PEXTMIN
 10
1.000000000000E+20
 20
1.000000000000E+20
 30
1.000000000000E+20
  9
$PEXTMAX
 10
-1.000000000000E+20
 20
-1.000000000000E+20
 30
-1.000000000000E+20
  9
$PLIMMIN
 10
0.0
 20
0.0
  9
$PLIMMAX
 10
12.0
 20
9.0
  9
$UNITMODE
 70
           0
  9
$VISRETAIN
 70
           0
  9
$PLINEGEN
 70
           1
  9
$PSLTSCALE
 70
           0
  9
$TREEDEPTH
 70
        3020
  9
$PICKSTYLE
 70
           1
  9
$CMLSTYLE
  2
STANDARD
  9
$CMLJUST
 70
           0
  9
$CMLSCALE
 40
1.0
  9
$PROXYGRAPHICS
 70
           0
  9
$MEASUREMENT
 70
           0
  0
ENDSEC
  0
SECTION
  2
CLASSES
  0
CLASS
  1
LWPOLYLINE
  2
AcDbPolyline
  3
"AutoCAD"
 90
        0
280
           0
281
           1
  0
CLASS
  1
IMAGE
  2
AcDbRasterImage
  3
ISM
 90
      127
280
           0
281
           1
  0
CLASS
  1
OLE2FRAME
  2
AcDbOle2Frame
  3
""
 90
        0
280
           0
281
           1
  0
CLASS
  1
HATCH
  2
AcDbHatch
  3
"ACAD_SEDONA"
 90
        0
280
           0
281
           1
  0
CLASS
  1
DICTIONARYVAR
  2
AcDbDictionaryVar
  3
"AutoCAD"
 90
        0
280
           0
281
           0
  0
CLASS
  1
RASTERVARIABLES
  2
AcDbRasterVariables
  3
ISM
 90
        0
280
           0
281
           0
  0
CLASS
  1
IMAGEDEF
  2
AcDbRasterImageDef
  3
ISM
 90
        0
280
           0
281
           0
  0
CLASS
  1
IMAGEDEF_REACTOR
  2
AcDbRasterImageDefReactor
  3
ISM
 90
        1
280
           0
281
           0
  0
CLASS
  1
IDBUFFER
  2
AcDbIdBuffer
  3
"Acad"
 90
        0
280
           0
281
           0
  0
CLASS
  1
SPATIAL_FILTER
  2
AcDbSpatialFilter
  3
"Acad"
 90
        0
280
           0
281
           0
  0
CLASS
  1
XRECORD
  2
AcDbXrecord
  3
"<Built In>"
 90
        0
280
           0
281
           0
  0
CLASS
  1
SORTENTSTABLE
  2
AcDbSortentsTable
  3
"AutoCAD"
 90
        0
280
           0
281
           0
  0
CLASS
  1
LAYER_INDEX
  2
AcDbLayerIndex
  3
"Acad"
 90
        0
280
           0
281
           0
  0
CLASS
  1
SPATIAL_INDEX
  2
AcDbSpatialIndex
  3
"Acad"
 90
        0
280
           0
281
           0
  0
CLASS
  1
OBJECT_PTR
  2
CAseDLPNTableRecord
  3
"ASE-LPNTableRecord"
 90
        1
280
           0
281
           0
  0
CLASS
  1
LAYOUT
  2
AcDbLayout
  3
"AutoCAD 2000"
 90
        1
280
           0
281
           0
  0
CLASS
  1
PLOTSETTINGS
  2
AcDbPlotSettings
  3
"AutoCAD 2000"
 90
        1
280
           0
281
           0
  0
CLASS
  1
ACDBDICTIONARYWDFLT
  2
AcDbDictionaryWithDefault
  3
"AutoCAD 2000"
 90
        1
280
           0
281
           0
  0
CLASS
  1
ACDBPLACEHOLDER
  2
AcDbPlaceHolder
  3
"AutoCAD 2000"
 90
        1
280
           0
281
           0
  0
CLASS
  1
VBA_PROJECT
  2
AcDbVbaProject
  3
"acadvba"
 90
        1
280
           0
281
           0
  0
CLASS
  1
WIPEOUT
  2
AcDbWipeout
  3
WipeOut|AutoCAD Express Tool|expresstools@autodesk.com
 90
      127
280
           0
281
           1
  0
CLASS
  1
WIPEOUTVARIABLES
  2
AcDbWipeoutVariables
  3
WipeOut|AutoCAD Express Tool|expresstools@autodesk.com
 90
        0
280
           0
281
           0
  0
CLASS
  1
RTEXT
  2
RText
  3
RText|AutoCAD Express Tool|expresstools@autodesk.com
 90
        0
280
           0
281
           1
  0
CLASS
  1
ARCALIGNEDTEXT
  2
AcDbArcAlignedText
  3
ATEXT|AutoCAD Express Tool|expresstools@autodesk.com
 90
        0
280
           0
281
           1
  0
ENDSEC
  0
SECTION
  2
TABLES
  0
TABLE
  2
VPORT
  5
7
100
AcDbSymbolTable
 70
           1
  0
VPORT
  5
15
100
AcDbSymbolTableRecord
100
AcDbViewportTableRecord
  2
*ACTIVE
 70
           0
 10
0.0
 20
0.0
 11
1.0
 21
1.0
 12
6.591288
 22
4.579184
 13
0.0
 23
0.0
 14
1.0
 24
1.0
 15
0.0
 25
0.0
 16
0.0
 26
0.0
 36
1.0
 17
0.0
 27
0.0
 37
0.0
 40
9.158369
 41
0.688564
 42
50.0
 43
0.0
 44
0.0
 50
0.0
 51
0.0
 71
           0
 72
         100
 73
           1
 74
           1
 75
           0
 76
           0
 77
           0
 78
           0
  0
ENDTAB
  0
TABLE
  2
LTYPE
  5
4
100
AcDbSymbolTable
 70
          10
  0
LTYPE
  5
11
100
AcDbSymbolTableRecord
100
AcDbLinetypeTableRecord
  2
BYBLOCK
 70
          64
  3

 72
          65
 73
           0
 40
0.0
  0
LTYPE
  5
12
100
AcDbSymbolTableRecord
100
AcDbLinetypeTableRecord
  2
BYLAYER
 70
          64
  3

 72
          65
 73
           0
 40
0.0
  0
LTYPE
  5
13
100
AcDbSymbolTableRecord
100
AcDbLinetypeTableRecord
  2
CONTINUOUS
 70
          64
  3
Solid line
 72
          65
 73
           0
 40
0.0
  0
LTYPE
  5
1D
100
AcDbSymbolTableRecord
100
AcDbLinetypeTableRecord
  2
DASHED
 70
          64
  3
Dashed
 72
          65
 73
           2
 40
15.0
 49
12.0
 74
           0
 49
-3.0
 74
           0
  0
LTYPE
  5
1E
100
AcDbSymbolTableRecord
100
AcDbLinetypeTableRecord
  2
DOTTED
 70
          64
  3
Dotted
 72
          65
 73
           2
 40
3.5
 49
0.5
 74
           0
 49
-3.0
 74
           0
  0
LTYPE
  5
1F
100
AcDbSymbolTableRecord
100
AcDbLinetypeTableRecord
  2
DOT_CENTER
 70
          64
  3
Dot_Center
 72
          65
 73
           4
 40
2.0
 49
1.25
 74
           0
 49
-0.25
 74
           0
 49
0.25
 74
           0
 49
-0.25
 74
           0
  0
LTYPE
  5
20
100
AcDbSymbolTableRecord
100
AcDbLinetypeTableRecord
  2
LONG_DASHED
 70
          64
  3
Long_Dashed
 72
          65
 73
           2
 40
2.0
 49
1.5
 74
           0
 49
-0.5
 74
           0
  0
LTYPE
  5
21
100
AcDbSymbolTableRecord
100
AcDbLinetypeTableRecord
  2
DASH_CENTER
 70
          64
  3
Dash_Center
 72
          65
 73
           4
 40
36.0
 49
24.0
 74
           0
 49
-3.0
 74
           0
 49
6.0
 74
           0
 49
-3.0
 74
           0
  0
LTYPE
  5
22
100
AcDbSymbolTableRecord
100
AcDbLinetypeTableRecord
  2
PHANTOM
 70
          64
  3
Phantom
 72
          65
 73
           6
 40
2.5
 49
1.25
 74
           0
 49
-0.25
 74
           0
 49
0.25
 74
           0
 49
-0.25
 74
           0
 49
0.25
 74
           0
 49
-0.25
 74
           0
  0
LTYPE
  5
23
100
AcDbSymbolTableRecord
100
AcDbLinetypeTableRecord
  2
CENTER_DASH_DASH
 70
          64
  3
Center_Dash_Dash
 72
          65
 73
           6
 40
22.0
 49
12.0
 74
           0
 49
-3.0
 74
           0
 49
0.5
 74
           0
 49
-3.0
 74
           0
 49
0.5
 74
           0
 49
-3.0
 74
           0
  0
ENDTAB
  0
TABLE
  2
LAYER
  5
2
100
AcDbSymbolTable
 70
           8
  0
LAYER
  5
14
100
AcDbSymbolTableRecord
100
AcDbLayerTableRecord
  2
0
 70
           0
 62
           7
  6
CONTINUOUS
  0
LAYER
  5
24
100
AcDbSymbolTableRecord
100
AcDbLayerTableRecord
  2
___S__
 70
           0
 62
           7
  6
CONTINUOUS
  0
LAYER
  5
25
100
AcDbSymbolTableRecord
100
AcDbLayerTableRecord
  2
976
 70
           0
 62
           7
  6
CONTINUOUS
  0
LAYER
  5
26
100
AcDbSymbolTableRecord
100
AcDbLayerTableRecord
  2
FORMAT
 70
           0
 62
           7
  6
CONTINUOUS
  0
LAYER
  5
27
100
AcDbSymbolTableRecord
100
AcDbLayerTableRecord
  2
1
 70
           0
 62
           7
  6
CONTINUOUS
  0
LAYER
  5
28
100
AcDbSymbolTableRecord
100
AcDbLayerTableRecord
  2
2
 70
           0
 62
           7
  6
CONTINUOUS
  0
LAYER
  5
29
100
AcDbSymbolTableRecord
100
AcDbLayerTableRecord
  2
7
 70
           0
 62
           7
  6
CONTINUOUS
  0
LAYER
  5
2A
100
AcDbSymbolTableRecord
100
AcDbLayerTableRecord
  2
____
 70
           0
 62
           7
  6
CONTINUOUS
  0
ENDTAB
  0
TABLE
  2
STYLE
  5
3
100
AcDbSymbolTable
 70
           1
  0
STYLE
  5
17
100
AcDbSymbolTableRecord
100
AcDbTextStyleTableRecord
  2
STANDARD
 70
           0
 40
0.0
 41
1.0
 50
0.0
 71
           0
 42
0.0
  3
txt
  4

  0
ENDTAB
  0
TABLE
  2
VIEW
  5
5
100
AcDbSymbolTable
 70
           0
  0
ENDTAB
  0
TABLE
  2
UCS
  5
6
100
AcDbSymbolTable
 70
           0
  0
ENDTAB
  0
TABLE
  2
APPID
  5
8
100
AcDbSymbolTable
 70
           1
  0
APPID
  5
16
100
AcDbSymbolTableRecord
100
AcDbRegAppTableRecord
  2
ACAD
 70
           0
  0
ENDTAB
  0
TABLE
  2
DIMSTYLE
  5
9
100
AcDbSymbolTable
 70
           1
  0
DIMSTYLE
105
18
100
AcDbSymbolTableRecord
100
AcDbDimStyleTableRecord
  2
STANDARD
 70
           0
  3

  4

  5

  6

  7

 40
1.0
 41
0.18
 42
0.0625
 43
0.38
 44
0.18
 45
0.0
 46
0.0
 47
0.0
 48
0.0
 71
           0
 72
           0
 73
           1
 74
           1
 75
           0
 76
           0
 77
           0
 78
           0
140
0.18
141
0.09
142
0.0
143
25.4
144
1.0
145
0.0
146
1.0
147
0.09
170
           0
171
           2
172
           0
173
           0
174
           0
175
           0
176
           0
177
           0
178
           0
270
           2
271
           4
272
           4
273
           2
274
           2
275
           0
280
           0
281
           0
282
           0
283
           1
284
           0
285
           0
286
           0
287
           0
288
           0
340
17
  0
ENDTAB
  0
TABLE
  2
BLOCK_RECORD
  5
1
100
AcDbSymbolTable
 70
           0
  0
BLOCK_RECORD
  5
A
100
AcDbSymbolTableRecord
100
AcDbBlockTableRecord
  2
*MODEL_SPACE
  0
BLOCK_RECORD
  5
B
100
AcDbSymbolTableRecord
100
AcDbBlockTableRecord
  2
*PAPER_SPACE
  0
ENDTAB
  0
ENDSEC
  0
SECTION
  2
BLOCKS
  0
BLOCK
  5
D
100
AcDbEntity
  8
0
100
AcDbBlockBegin
  2
*MODEL_SPACE
 70
           0
 10
0.0
 20
0.0
 30
0.0
  3
*MODEL_SPACE
  1

  0
ENDBLK
  5
E
100
AcDbEntity
  8
0
100
AcDbBlockEnd
  0
BLOCK
  5
F
100
AcDbEntity
 67
           1
  8
0
100
AcDbBlockBegin
  2
*PAPER_SPACE
 70
           0
 10
0.0
 20
0.0
 30
0.0
  3
*PAPER_SPACE
  1

  0
ENDBLK
  5
10
100
AcDbEntity
 67
           1
  8
0
100
AcDbBlockEnd
  0
ENDSEC
  0
SECTION
  2
ENTITIES
  0
ARC
  5
497
100
AcDbEntity
  8
1
  6
CONTINUOUS
 62
           4
100
AcDbCircle
 10
6657.378432268972
 20
2666.000000000002
 40
1.0
100
AcDbArc
 50
179.999999999869
 51
-90.0
  0
ARC
  5
496
100
AcDbEntity
  8
1
  6
CONTINUOUS
 62
           4
100
AcDbCircle
 10
6646.378432268972
 20
2666.000000000002
 40
0.999999999998
100
AcDbArc
 50
-90.0
 51
0.00000000013
  0
ARC
  5
495
100
AcDbEntity
  8
1
  6
CONTINUOUS
 62
           4
100
AcDbCircle
 10
6646.378432268972
 20
2160.000000000004
 40
1.0
100
AcDbArc
 50
0.0
 51
90.0
  0
ARC
  5
494
100
AcDbEntity
  8
1
  6
CONTINUOUS
 62
           4
100
AcDbCircle
 10
6657.378432268972
 20
2160.000000000004
 40
1.0
100
AcDbArc
 50
90.0
 51
180.0
  0
ARC
  5
493
100
AcDbEntity
  8
1
  6
CONTINUOUS
 62
           7
100
AcDbCircle
 10
6153.378432268972
 20
2940.500000000004
 40
12.0
100
AcDbArc
 50
0.0
 51
90.0
  0
ARC
  5
492
100
AcDbEntity
  8
1
  6
CONTINUOUS
 62
           7
100
AcDbCircle
 10
6153.378432268972
 20
2864.500000000004
 40
12.0
100
AcDbArc
 50
-90.0
 51
0.0
  0
ARC
  5
491
100
AcDbEntity
  8
1
  6
CONTINUOUS
 62
           7
100
AcDbCircle
 10
6050.378432268972
 20
2940.500000000004
 40
12.0
100
AcDbArc
 50
90.0
 51
180.0
  0
ARC
  5
490
100
AcDbEntity
  8
1
  6
CONTINUOUS
 62
           7
100
AcDbCircle
 10
6050.378432268972
 20
2864.500000000004
 40
12.0
100
AcDbArc
 50
180.0
 51
-90.0
  0
ARC
  5
48F
100
AcDbEntity
  8
1
  6
CONTINUOUS
 62
           7
100
AcDbCircle
 10
134.496396800005
 20
2864.5
 40
12.0
100
AcDbArc
 50
180.0
 51
-90.0
  0
ARC
  5
48E
100
AcDbEntity
  8
1
  6
CONTINUOUS
 62
           7
100
AcDbCircle
 10
134.496396800005
 20
2940.5
 40
12.0
100
AcDbArc
 50
90.0
 51
180.0
  0
ARC
  5
48D
100
AcDbEntity
  8
1
  6
CONTINUOUS
 62
           7
100
AcDbCircle
 10
185.000000000007
 20
2864.5
 40
12.0
100
AcDbArc
 50
-90.0
 51
0.0
  0
ARC
  5
48C
100
AcDbEntity
  8
1
  6
CONTINUOUS
 62
           7
100
AcDbCircle
 10
185.000000000007
 20
2940.5
 40
12.0
100
AcDbArc
 50
0.0
 51
90.0
  0
ARC
  5
48B
100
AcDbEntity
  8
1
  6
CONTINUOUS
 62
           7
100
AcDbCircle
 10
185.000000000004
 20
6116.5
 40
12.0
100
AcDbArc
 50
0.0
 51
90.0
  0
ARC
  5
48A
100
AcDbEntity
  8
1
  6
CONTINUOUS
 62
           7
100
AcDbCircle
 10
185.000000000004
 20
6013.5
 40
12.0
100
AcDbArc
 50
-90.0
 51
0.0
  0
ARC
  5
489
100
AcDbEntity
  8
1
  6
CONTINUOUS
 62
           7
100
AcDbCircle
 10
144.8249665982
 20
6116.5
 40
12.0
100
AcDbArc
 50
90.0
 51
180.0
  0
ARC
  5
488
100
AcDbEntity
  8
1
  6
CONTINUOUS
 62
           7
100
AcDbCircle
 10
144.8249665982
 20
6013.5
 40
12.0
100
AcDbArc
 50
180.0
 51
-90.0
  0
ARC
  5
487
100
AcDbEntity
  8
1
  6
CONTINUOUS
 62
           4
100
AcDbCircle
 10
117.908702762052
 20
6019.5
 40
11.999999999998
100
AcDbArc
 50
-120.430594205712
 51
-90.0
  0
ARC
  5
486
100
AcDbEntity
  8
1
  6
CONTINUOUS
 62
           4
100
AcDbCircle
 10
117.908702762052
 20
6110.5
 40
12.0
100
AcDbArc
 50
90.0
 51
120.430594205707
  0
ARC
  5
485
100
AcDbEntity
  8
1
  6
CONTINUOUS
 62
           3
100
AcDbCircle
 10
6000.041999960022
 20
1917.80625341996
 40
0.5
100
AcDbArc
 50
180.0
 51
-90.0
  0
ARC
  5
484
100
AcDbEntity
  8
1
  6
CONTINUOUS
 62
           3
100
AcDbCircle
 10
6000.041999960022
 20
1932.19374658004
 40
0.5
100
AcDbArc
 50
90.0
 51
180.0
  0
ARC
  5
483
100
AcDbEntity
  8
1
  6
CONTINUOUS
 62
           3
100
AcDbCircle
 10
5851.778430391305
 20
1641.000000000002
 40
280.0
100
AcDbArc
 50
90.0
 51
180.0
  0
ARC
  5
482
100
AcDbEntity
  8
1
  6
CONTINUOUS
 62
           3
100
AcDbCircle
 10
5851.778429079912
 20
1641.0
 40
288.0
100
AcDbArc
 50
90.0
 51
180.0
  0
ARC
  5
481
100
AcDbEntity
  8
1
  6
CONTINUOUS
 62
           7
100
AcDbCircle
 10
-1412.999999999998
 20
2188.000000000001
 40
8.0
100
AcDbArc
 50
0.0
 51
90.0
  0
ARC
  5
480
100
AcDbEntity
  8
1
  6
CONTINUOUS
 62
           7
100
AcDbCircle
 10
-1486.999999999998
 20
2188.000000000001
 40
8.0
100
AcDbArc
 50
90.0
 51
180.0
  0
ARC
  5
47F
100
AcDbEntity
  8
1
  6
CONTINUOUS
 62
           7
100
AcDbCircle
 10
-1449.999999999998
 20
2156.000000000001
 40
14.999999999999
100
AcDbArc
 50
147.769047364495
 51
180.0
  0
ARC
  5
47E
100
AcDbEntity
  8
1
  6
CONTINUOUS
 62
           7
100
AcDbCircle
 10
-1449.999999999998
 20
2156.000000000001
 40
15.000000000001
100
AcDbArc
 50
32.230952635499
 51
147.769047364495
  0
ARC
  5
47D
100
AcDbEntity
  8
1
  6
CONTINUOUS
 62
           7
100
AcDbCircle
 10
-1449.999999999998
 20
2156.000000000001
 40
15.0
100
AcDbArc
 50
0.0
 51
32.230952635499
  0
ARC
  5
47C
100
AcDbEntity
  8
1
  6
CONTINUOUS
 62
           7
100
AcDbCircle
 10
550.000000000002
 20
2156.000000000001
 40
15.0
100
AcDbArc
 50
0.0
 51
32.230952635498
  0
ARC
  5
47B
100
AcDbEntity
  8
1
  6
CONTINUOUS
 62
           7
100
AcDbCircle
 10
550.000000000002
 20
2156.000000000001
 40
15.000000000002
100
AcDbArc
 50
32.230952635498
 51
147.769047364495
  0
ARC
  5
47A
100
AcDbEntity
  8
1
  6
CONTINUOUS
 62
           7
100
AcDbCircle
 10
550.000000000002
 20
2156.000000000001
 40
14.999999999999
100
AcDbArc
 50
147.769047364495
 51
180.0
  0
ARC
  5
479
100
AcDbEntity
  8
1
  6
CONTINUOUS
 62
           7
100
AcDbCircle
 10
513.000000000002
 20
2188.000000000001
 40
8.0
100
AcDbArc
 50
90.0
 51
180.0
  0
ARC
  5
478
100
AcDbEntity
  8
1
  6
CONTINUOUS
 62
           7
100
AcDbCircle
 10
587.000000000002
 20
2188.000000000001
 40
8.0
100
AcDbArc
 50
0.0
 51
90.0
  0
ARC
  5
477
100
AcDbEntity
  8
1
  6
CONTINUOUS
 62
           7
100
AcDbCircle
 10
4851.878432268975
 20
2156.000000000001
 40
15.0
100
AcDbArc
 50
0.0
 51
180.0
  0
ARC
  5
476
100
AcDbEntity
  8
1
  6
CONTINUOUS
 62
           7
100
AcDbCircle
 10
4888.878432268975
 20
2188.000000000001
 40
8.0
100
AcDbArc
 50
0.0
 51
90.0
  0
ARC
  5
475
100
AcDbEntity
  8
1
  6
CONTINUOUS
 62
           7
100
AcDbCircle
 10
4814.878432268975
 20
2188.000000000001
 40
8.0
100
AcDbArc
 50
90.0
 51
180.0
  0
SPLINE
  5
474
100
AcDbEntity
  8
0
  6
CONTINUOUS
 62
           3
100
AcDbSpline
210
0.0
220
0.0
230
1.0
 70
           0
 71
           3
 72
           8
 73
           5
 74
           7
 42
0.00000000001
 43
0.00000000001
 44
0.00000000001
 40
0.0
 40
0.0
 40
0.0
 40
0.2989651950319967
 40
0.4296296276529574
 40
0.4465803504019732
 40
0.4465803504019732
 40
0.4465803504019732
 10
5522.7784288788444
 20
1384.6465796233019
 30
0.0
 10
5522.7784288788916
 20
1384.466936563425
 30
0.0
 10
5522.7784288788916
 20
1384.2282922931149
 30
0.0
 10
5522.7784288788916
 20
1384.205607698183
 30
0.0
 10
5522.7784288788916
 20
1384.1999992729
 30
0.0
 11
5522.7784288788444
 21
1384.6465796233019
 31
0.0
 11
5522.7784288788807
 21
1384.4703311443229
 31
0.0
 11
5522.7784288788916
 21
1384.3008718271399
 31
0.0
 11
5522.7784288788916
 21
1384.2414172487579
 31
0.0
 11
5522.7784288788916
 21
1384.2082125816614
 31
0.0
 11
5522.7784288788916
 21
1384.2048568127318
 31
0.0
 11
5522.7784288788916
 21
1384.1999992729
 31
0.0
  0
SPLINE
  5
473
100
AcDbEntity
  8
0
  6
CONTINUOUS
 62
           3
100
AcDbSpline
210
0.0
220
0.0
230
1.0
 70
           0
 71
           3
 72
           8
 73
           5
 74
           7
 42
0.00000000001
 43
0.00000000001
 44
0.00000000001
 40
0.0
 40
0.0
 40
0.0
 40
0.0169507227490158
 40
0.1476151553699765
 40
0.4465803504019732
 40
0.4465803504019732
 40
0.4465803504019732
 10
5512.7784291024127
 20
1384.1999992729
 30
0.0
 10
5512.7784291024127
 20
1384.205607698183
 30
0.0
 10
5512.7784291024127
 20
1384.2282922931149
 30
0.0
 10
5512.7784291024127
 20
1384.466936563425
 30
0.0
 10
5512.7784291024527
 20
1384.6465796233019
 30
0.0
 11
5512.7784291024127
 21
1384.1999992729
 31
0.0
 11
5512.7784291024127
 21
1384.2048568127318
 31
0.0
 11
5512.7784291024127
 21
1384.2082125816612
 31
0.0
 11
5512.7784291024127
 21
1384.2414172487577
 31
0.0
 11
5512.7784291024127
 21
1384.3008718271399
 31
0.0
 11
5512.7784291024236
 21
1384.4703311443232
 31
0.0
 11
5512.7784291024527
 21
1384.6465796233019
 31
0.0
  0
SPLINE
  5
472
100
AcDbEntity
  8
0
  6
CONTINUOUS
 62
           3
100
AcDbSpline
210
0.0
220
0.0
230
1.0
 70
           0
 71
           3
 72
           8
 73
           5
 74
           7
 42
0.00000000001
 43
0.00000000001
 44
0.00000000001
 40
0.0
 40
0.0
 40
0.0
 40
0.4813883392837732
 40
1.3325653926426628
 40
2.5594910488302065
 40
2.5594910488302065
 40
2.5594910488302065
 10
5520.2784289347419
 20
1384.1999992729
 30
0.0
 10
5520.3376937409248
 20
1384.2004449713099
 30
0.0
 10
5521.1819135822716
 20
1384.2067938900659
 30
0.0
 10
5522.0092096017597
 20
1384.4346858415561
 30
0.0
 10
5522.7784288788444
 20
1384.6465796233019
 30
0.0
 11
5520.2784289347419
 21
1384.1999992729
 31
0.0
 11
5520.3991209998612
 21
1384.2009069323499
 31
0.0
 11
5520.6426675828543
 21
1384.2027385138806
 31
0.0
 11
5521.1318158197228
 21
1384.2291158030619
 31
0.0
 11
5521.5207685314945
 21
1384.3001369182341
 31
0.0
 11
5522.0794041534646
 21
1384.4540220561621
 31
0.0
 11
5522.7784288788444
 21
1384.6465796233019
 31
0.0
  0
SPLINE
  5
471
100
AcDbEntity
  8
0
  6
CONTINUOUS
 62
           3
100
AcDbSpline
210
0.0
220
0.0
230
1.0
 70
           0
 71
           3
 72
           8
 73
           5
 74
           7
 42
0.00000000001
 43
0.00000000001
 44
0.00000000001
 40
0.0
 40
0.0
 40
0.0
 40
0.4813884775056223
 40
1.3325655942403767
 40
2.5594910572531893
 40
2.5594910572531893
 40
2.5594910572531893
 10
5515.2784290465333
 20
1384.1999992729
 30
0.0
 10
5515.3376938533747
 20
1384.200444971553
 30
0.0
 10
5516.1819139698109
 20
1384.206793895828
 30
0.0
 10
5517.0092098369414
 20
1384.4346858417271
 30
0.0
 10
5517.778428990654
 20
1384.6465796232951
 30
0.0
 11
5515.2784290465333
 21
1384.1999992729
 31
0.0
 11
5515.3991211473485
 21
1384.2009069331089
 31
0.0
 11
5515.6426678361095
 21
1384.2027385164288
 31
0.0
 11
5516.131816169689
 21
1384.229115810643
 31
0.0
 11
5516.5207689030249
 21
1384.3001369344865
 31
0.0
 11
5517.0794043918904
 21
1384.4540220603089
 31
0.0
 11
5517.778428990654
 21
1384.6465796232951
 31
0.0
  0
SPLINE
  5
470
100
AcDbEntity
  8
0
  6
CONTINUOUS
 62
           3
100
AcDbSpline
210
0.0
220
0.0
230
1.0
 70
           0
 71
           3
 72
           8
 73
           5
 74
           7
 42
0.00000000001
 43
0.00000000001
 44
0.00000000001
 40
0.0
 40
0.0
 40
0.0
 40
0.2779454797471181
 40
0.7862825386901916
 40
1.5429638907223988
 40
1.5429638907223988
 40
1.5429638907223988
 10
5513.4483019563249
 20
1367.5999939442549
 30
0.0
 10
5513.4825185009031
 20
1367.6004396365131
 30
0.0
 10
5513.9699292190107
 20
1367.606788471174
 30
0.0
 10
5514.4475686861751
 20
1367.834684325677
 30
0.0
 10
5514.8916775568232
 20
1368.046581745235
 30
0.0
 11
5513.4483019563249
 21
1367.5999939442549
 31
0.0
 11
5513.5170384504763
 21
1367.6008892808159
 31
0.0
 11
5513.6548148437723
 21
1367.6026839059823
 31
0.0
 11
5513.9391344805872
 21
1367.6286568402284
 31
0.0
 11
5514.1618646405568
 21
1367.6983665125831
 31
0.0
 11
5514.4871698924317
 21
1367.8535792272928
 31
0.0
 11
5514.8916775568232
 21
1368.046581745235
 31
0.0
  0
SPLINE
  5
46F
100
AcDbEntity
  8
0
  6
CONTINUOUS
 62
           3
100
AcDbSpline
210
0.0
220
0.0
230
1.0
 70
           0
 71
           3
 72
           8
 73
           5
 74
           7
 42
0.00000000001
 43
0.00000000001
 44
0.00000000001
 40
0.0
 40
0.0
 40
0.0
 40
0.2779464854372229
 40
0.7862840843763257
 40
1.542964265856738
 40
1.542964265856738
 40
1.542964265856738
 10
5513.4483019563249
 20
1372.6000040770409
 30
0.0
 10
5513.414085406961
 20
1372.5995583816691
 30
0.0
 10
5512.9266726878614
 20
1372.59320947744
 30
0.0
 10
5512.4490342083209
 20
1372.365313693474
 30
0.0
 10
5512.0049261229524
 20
1372.1534162761091
 30
0.0
 11
5513.4483019563249
 21
1372.6000040770409
 31
0.0
 11
5513.3795652105709
 21
1372.5991087310697
 31
0.0
 11
5513.2417880720368
 21
1372.5973140838996
 31
0.0
 11
5512.9574677028459
 21
1372.5713410900566
 31
0.0
 11
5512.7347373636239
 21
1372.5016313214467
 31
0.0
 11
5512.4094329758045
 21
1372.3464187461257
 31
0.0
 11
5512.0049261229524
 21
1372.1534162761091
 31
0.0
  0
SPLINE
  5
46E
100
AcDbEntity
  8
0
  6
CONTINUOUS
 62
           3
100
AcDbSpline
210
0.0
220
0.0
230
1.0
 70
           0
 71
           3
 72
           8
 73
           5
 74
           7
 42
0.00000000001
 43
0.00000000001
 44
0.00000000001
 40
0.0
 40
0.0
 40
0.0
 40
0.2779464854282354
 40
0.7862840843636474
 40
1.5429642658955129
 40
1.5429642658955129
 40
1.5429642658955129
 10
5522.108556024983
 20
1367.5999939442549
 30
0.0
 10
5522.1427725743433
 20
1367.6004396396349
 30
0.0
 10
5522.6301852934321
 20
1367.606788543864
 30
0.0
 10
5523.1078237729798
 20
1367.834684327823
 30
0.0
 10
5523.5519318583447
 20
1368.046581745311
 30
0.0
 11
5522.108556024983
 21
1367.5999939442549
 31
0.0
 11
5522.1772927707325
 21
1367.6008892902323
 31
0.0
 11
5522.3150699092603
 21
1367.6026839374044
 31
0.0
 11
5522.5993902784467
 21
1367.6286569312458
 31
0.0
 11
5522.8221206176631
 21
1367.6983666998503
 31
0.0
 11
5523.1474250054916
 21
1367.8535792752016
 31
0.0
 11
5523.5519318583447
 21
1368.046581745311
 31
0.0
  0
SPLINE
  5
46D
100
AcDbEntity
  8
0
  6
CONTINUOUS
 62
           3
100
AcDbSpline
210
0.0
220
0.0
230
1.0
 70
           0
 71
           3
 72
           8
 73
           5
 74
           7
 42
0.00000000001
 43
0.00000000001
 44
0.00000000001
 40
0.0
 40
0.0
 40
0.0
 40
0.2779454797516296
 40
0.7862825386949968
 40
1.5429638907280852
 40
1.5429638907280852
 40
1.5429638907280852
 10
5522.108556024983
 20
1372.6000040770409
 30
0.0
 10
5522.0743394804031
 20
1372.599558384783
 30
0.0
 10
5521.58692876229
 20
1372.5932095501271
 30
0.0
 10
5521.1092892951328
 20
1372.36531369562
 30
0.0
 10
5520.6651804244812
 20
1372.153416276062
 30
0.0
 11
5522.108556024983
 21
1372.6000040770409
 31
0.0
 11
5522.0398195308298
 21
1372.5991087404805
 31
0.0
 11
5521.9020431375302
 21
1372.5973141153156
 31
0.0
 11
5521.6177235007144
 21
1372.5713411810714
 31
0.0
 11
5521.3949933407475
 21
1372.5016315087164
 31
0.0
 11
5521.0696880888736
 21
1372.3464187940046
 31
0.0
 11
5520.6651804244812
 21
1372.153416276062
 31
0.0
  0
SPLINE
  5
46C
100
AcDbEntity
  8
0
  6
CONTINUOUS
 62
           3
100
AcDbSpline
210
0.0
220
0.0
230
1.0
 70
           0
 71
           3
 72
           8
 73
           5
 74
           7
 42
0.00000000001
 43
0.00000000001
 44
0.00000000001
 40
0.0
 40
0.0
 40
0.0
 40
0.7097107189143899
 40
1.6878556121194386
 40
2.935415097411834
 40
2.935415097411834
 40
2.935415097411834
 10
5514.8916775568232
 20
1368.046581745235
 30
0.0
 10
5515.1050341384744
 20
1367.986940602696
 30
0.0
 10
5516.045336819443
 20
1367.7240908429519
 30
0.0
 10
5517.0227741606632
 20
1367.654102099867
 30
0.0
 10
5517.778428990654
 20
1367.5999939442549
 30
0.0
 11
5514.8916775568232
 21
1368.046581745235
 31
0.0
 11
5515.1505397767796
 21
1367.9742200752128
 31
0.0
 11
5515.5004132733457
 21
1367.8764173502241
 31
0.0
 11
5516.0164961318342
 21
1367.754482866841
 31
0.0
 11
5516.4748976151077
 21
1367.6933324312367
 31
0.0
 11
5517.074718731772
 21
1367.6503826438066
 31
0.0
 11
5517.778428990654
 21
1367.5999939442549
 31
0.0
  0
SPLINE
  5
46B
100
AcDbEntity
  8
0
  6
CONTINUOUS
 62
           3
100
AcDbSpline
210
0.0
220
0.0
230
1.0
 70
           0
 71
           3
 72
           8
 73
           5
 74
           7
 42
0.00000000001
 43
0.00000000001
 44
0.00000000001
 40
0.0
 40
0.0
 40
0.0
 40
0.7273681394916252
 40
1.7065914567891429
 40
2.9387223240300377
 40
2.9387223240300377
 40
2.9387223240300377
 10
5517.778428990654
 20
1367.5999939442549
 30
0.0
 10
5518.0171517700128
 20
1367.6054734833269
 30
0.0
 10
5518.9940594159616
 20
1367.6278969974519
 30
0.0
 10
5519.9459211252233
 20
1367.8663776207211
 30
0.0
 10
5520.6651804243429
 20
1368.046581745311
 30
0.0
 11
5517.778428990654
 21
1367.5999939442549
 31
0.0
 11
5518.0615632839526
 21
1367.606492885943
 31
0.0
 11
5518.4335206051328
 21
1367.6150306328632
 31
0.0
 11
5518.9592996444917
 21
1367.6510811733847
 31
0.0
 11
5519.4155591409126
 21
1367.7335000657718
 31
0.0
 11
5519.9931454539255
 21
1367.8782092631313
 31
0.0
 11
5520.6651804243429
 21
1368.046581745311
 31
0.0
  0
SPLINE
  5
46A
100
AcDbEntity
  8
0
  6
CONTINUOUS
 62
           3
100
AcDbSpline
210
0.0
220
0.0
230
1.0
 70
           0
 71
           3
 72
           8
 73
           5
 74
           7
 42
0.00000000001
 43
0.00000000001
 44
0.00000000001
 40
0.0
 40
0.0
 40
0.0
 40
1.2321308673573936
 40
2.21135418465495
 40
2.9387223241465046
 40
2.9387223241465046
 40
2.9387223241465046
 10
5520.6651804244812
 20
1372.153416276062
 30
0.0
 10
5519.9459211252233
 20
1372.3336204005791
 30
0.0
 10
5518.9940594159616
 20
1372.572101023849
 30
0.0
 10
5518.0171517700128
 20
1372.5945245379701
 30
0.0
 10
5517.778428990654
 20
1372.6000040770409
 30
0.0
 11
5520.6651804244812
 21
1372.153416276062
 31
0.0
 11
5519.9931454539546
 21
1372.3217887581886
 31
0.0
 11
5519.4155591408899
 21
1372.4664979555346
 31
0.0
 11
5518.9592996444862
 21
1372.5489168479166
 31
0.0
 11
5518.4335206051328
 21
1372.5849673884354
 31
0.0
 11
5518.0615632839526
 21
1372.593505135354
 31
0.0
 11
5517.778428990654
 21
1372.6000040770409
 31
0.0
  0
SPLINE
  5
469
100
AcDbEntity
  8
0
  6
CONTINUOUS
 62
           3
100
AcDbSpline
210
0.0
220
0.0
230
1.0
 70
           0
 71
           3
 72
           8
 73
           5
 74
           7
 42
0.00000000001
 43
0.00000000001
 44
0.00000000001
 40
0.0
 40
0.0
 40
0.0
 40
1.2475616964922178
 40
2.2257084622413159
 40
2.9354211178796286
 40
2.9354211178796286
 40
2.9354211178796286
 10
5517.778428990654
 20
1372.6000040770409
 30
0.0
 10
5517.0227723332337
 20
1372.5459088094719
 30
0.0
 10
5516.0453311815636
 20
1372.475936633469
 30
0.0
 10
5515.1050339727426
 20
1372.2130631111611
 30
0.0
 10
5514.8916775568232
 20
1372.153416276062
 30
0.0
 11
5517.778428990654
 21
1372.6000040770409
 31
0.0
 11
5517.0747168357848
 21
1372.5496273656929
 31
0.0
 11
5516.4748936860142
 21
1372.5066877667873
 31
0.0
 11
5516.0164917606126
 21
1372.4455393603082
 31
0.0
 11
5515.5004109933088
 21
1372.3235964075068
 31
0.0
 11
5515.1505391239043
 21
1372.2257847264727
 31
0.0
 11
5514.8916775568232
 21
1372.153416276062
 31
0.0
  0
SPLINE
  5
468
100
AcDbEntity
  8
0
  6
CONTINUOUS
 62
           3
100
AcDbSpline
210
0.0
220
0.0
230
1.0
 70
           0
 71
           3
 72
           8
 73
           5
 74
           7
 42
0.00000000001
 43
0.00000000001
 44
0.00000000001
 40
0.0
 40
0.0
 40
0.0
 40
0.2779452695564284
 40
0.7862805426584809
 40
1.5429573554978919
 40
1.5429573554978919
 40
1.5429573554978919
 10
5513.4483019563249
 20
1372.6000040770409
 30
0.0
 10
5513.4825184998554
 20
1372.6004497818101
 30
0.0
 10
5513.9699287970634
 20
1372.6067987893659
 30
0.0
 10
5514.447568497344
 20
1372.834686833085
 30
0.0
 10
5514.8916775568232
 20
1373.04657697686
 30
0.0
 11
5513.4483019563249
 21
1372.6000040770409
 31
0.0
 11
5513.5170384892663
 21
1372.6008994392641
 31
0.0
 11
5513.6548150010303
 21
1372.6026941163964
 31
0.0
 11
5513.9391342982062
 21
1372.628666380841
 31
0.0
 11
5514.161864597665
 21
1372.6983738282356
 31
0.0
 11
5514.487169787295
 21
1372.8535811178165
 31
0.0
 11
5514.8916775568232
 21
1373.04657697686
 31
0.0
  0
SPLINE
  5
467
100
AcDbEntity
  8
0
  6
CONTINUOUS
 62
           3
100
AcDbSpline
210
0.0
220
0.0
230
1.0
 70
           0
 71
           3
 72
           8
 73
           5
 74
           7
 42
0.00000000001
 43
0.00000000001
 44
0.00000000001
 40
0.0
 40
0.0
 40
0.0
 40
0.2779463803319113
 40
0.7862830863393779
 40
1.5429609982599559
 40
1.5429609982599559
 40
1.5429609982599559
 10
5513.4483019563249
 20
1377.5999993086659
 30
0.0
 10
5513.4140854074849
 20
1377.599553607037
 30
0.0
 10
5512.926672898855
 20
1377.593204616358
 30
0.0
 10
5512.449034302741
 20
1377.3653127377879
 30
0.0
 10
5512.0049261229524
 20
1377.1534189582051
 30
0.0
 11
5513.4483019563249
 21
1377.5999993086659
 31
0.0
 11
5513.3795651911769
 21
1377.599103949862
 31
0.0
 11
5513.2417879934164
 21
1377.5973092767078
 31
0.0
 11
5512.9574677940545
 21
1377.5713366177661
 31
0.0
 11
5512.7347373850916
 21
1377.5016279616407
 31
0.0
 11
5512.4094330283806
 21
1377.3464180988556
 31
0.0
 11
5512.0049261229524
 21
1377.1534189582051
 31
0.0
  0
SPLINE
  5
466
100
AcDbEntity
  8
0
  6
CONTINUOUS
 62
           3
100
AcDbSpline
210
0.0
220
0.0
230
1.0
 70
           0
 71
           3
 72
           8
 73
           5
 74
           7
 42
0.00000000001
 43
0.00000000001
 44
0.00000000001
 40
0.0
 40
0.0
 40
0.0
 40
0.277946275241148
 40
0.7862820883293483
 40
1.5429577306520583
 40
1.5429577306520583
 40
1.5429577306520583
 10
5522.108556024983
 20
1372.6000040770409
 30
0.0
 10
5522.1427725733029
 20
1372.6004497849281
 30
0.0
 10
5522.6301848714847
 20
1372.606798862053
 30
0.0
 10
5523.1078235841451
 20
1372.8346868352351
 30
0.0
 10
5523.5519318583447
 20
1373.046576976911
 30
0.0
 11
5522.108556024983
 21
1372.6000040770409
 31
0.0
 11
5522.1772928095288
 21
1372.6008994486781
 31
0.0
 11
5522.3150700665274
 21
1372.6026941478156
 31
0.0
 11
5522.5993900960666
 21
1372.6286664718552
 31
0.0
 11
5522.8221205747741
 21
1372.6983740154992
 31
0.0
 11
5523.1474249003522
 21
1372.8535811657202
 31
0.0
 11
5523.5519318583447
 21
1373.046576976911
 31
0.0
  0
SPLINE
  5
465
100
AcDbEntity
  8
0
  6
CONTINUOUS
 62
           3
100
AcDbSpline
210
0.0
220
0.0
230
1.0
 70
           0
 71
           3
 72
           8
 73
           5
 74
           7
 42
0.00000000001
 43
0.00000000001
 44
0.00000000001
 40
0.0
 40
0.0
 40
0.0
 40
0.2779453746508607
 40
0.7862815406653667
 40
1.5429606230903485
 40
1.5429606230903485
 40
1.5429606230903485
 10
5522.108556024983
 20
1377.5999993086659
 30
0.0
 10
5522.0743394809306
 20
1377.5995536101509
 30
0.0
 10
5521.5869289732709
 20
1377.593204689045
 30
0.0
 10
5521.1092893895529
 20
1377.365312739938
 30
0.0
 10
5520.6651804244812
 20
1377.1534189582669
 30
0.0
 11
5522.108556024983
 21
1377.5999993086659
 31
0.0
 11
5522.0398195114376
 21
1377.599103959273
 31
0.0
 11
5521.9020430589062
 21
1377.5973093081241
 31
0.0
 11
5521.6177235919122
 21
1377.5713367087801
 31
0.0
 11
5521.3949933621989
 21
1377.5016281489063
 31
0.0
 11
5521.0696881414469
 21
1377.3464181467623
 31
0.0
 11
5520.6651804244812
 21
1377.1534189582669
 31
0.0
  0
SPLINE
  5
464
100
AcDbEntity
  8
0
  6
CONTINUOUS
 62
           3
100
AcDbSpline
210
0.0
220
0.0
230
1.0
 70
           0
 71
           3
 72
           8
 73
           5
 74
           7
 42
0.00000000001
 43
0.00000000001
 44
0.00000000001
 40
0.0
 40
0.0
 40
0.0
 40
0.7097104926824955
 40
1.6878550560197625
 40
2.9354142011749245
 40
2.9354142011749245
 40
2.9354142011749245
 10
5514.8916775568232
 20
1373.04657697686
 30
0.0
 10
5515.1050341179343
 20
1372.9869356693489
 30
0.0
 10
5516.0453361206328
 20
1372.7240853468579
 30
0.0
 10
5517.0227739341517
 20
1372.654105412621
 30
0.0
 10
5517.778428990654
 20
1372.6000040770409
 30
0.0
 11
5514.8916775568232
 21
1373.04657697686
 31
0.0
 11
5515.1505396911325
 21
1372.9742151236569
 31
0.0
 11
5515.5004129718382
 21
1372.8764121790696
 31
0.0
 11
5516.016495580353
 21
1372.7544784200809
 31
0.0
 11
5516.4748971083081
 21
1372.6933308075384
 31
0.0
 11
5517.0747184918164
 21
1372.6503864274553
 31
0.0
 11
5517.778428990654
 21
1372.6000040770409
 31
0.0
  0
SPLINE
  5
463
100
AcDbEntity
  8
0
  6
CONTINUOUS
 62
           3
100
AcDbSpline
210
0.0
220
0.0
230
1.0
 70
           0
 71
           3
 72
           8
 73
           5
 74
           7
 42
0.00000000001
 43
0.00000000001
 44
0.00000000001
 40
0.0
 40
0.0
 40
0.0
 40
0.7273675739559504
 40
1.7065896374635821
 40
2.9387184666017641
 40
2.9387184666017641
 40
2.9387184666017641
 10
5517.778428990654
 20
1372.6000040770409
 30
0.0
 10
5518.017151734135
 20
1372.605483801264
 30
0.0
 10
5518.994058295073
 20
1372.6279080515201
 30
0.0
 10
5519.9459207700329
 20
1372.866379694286
 30
0.0
 10
5520.6651804243429
 20
1373.046576976911
 30
0.0
 11
5517.778428990654
 21
1372.6000040770409
 31
0.0
 11
5518.0615631714691
 21
1372.6065032367185
 31
0.0
 11
5518.433520226954
 21
1372.6150412673053
 31
0.0
 11
5518.9592988159902
 21
1372.651091133866
 31
0.0
 11
5519.4155584468608
 21
1372.733507165118
 31
0.0
 11
5519.9931451028178
 21
1372.8782108826504
 31
0.0
 11
5520.6651804243429
 21
1373.046576976911
 31
0.0
  0
SPLINE
  5
462
100
AcDbEntity
  8
0
  6
CONTINUOUS
 62
           3
100
AcDbSpline
210
0.0
220
0.0
230
1.0
 70
           0
 71
           3
 72
           8
 73
           5
 74
           7
 42
0.00000000001
 43
0.00000000001
 44
0.00000000001
 40
0.0
 40
0.0
 40
0.0
 40
1.2321298483000125
 40
2.2113525386969637
 40
2.9387203954174135
 40
2.9387203954174135
 40
2.9387203954174135
 10
5520.6651804244812
 20
1377.1534189582669
 30
0.0
 10
5519.9459209476254
 20
1377.333619661815
 30
0.0
 10
5518.9940588555128
 20
1377.572095794832
 30
0.0
 10
5518.0171517520721
 20
1377.5945196770231
 30
0.0
 10
5517.778428990654
 20
1377.5999993086659
 30
0.0
 11
5520.6651804244812
 21
1377.1534189582669
 31
0.0
 11
5519.9931452783985
 21
1377.3217882464439
 31
0.0
 11
5519.4155587938603
 21
1377.4664947038789
 31
0.0
 11
5518.9592992302305
 21
1377.5489121656942
 31
0.0
 11
5518.4335204160398
 21
1377.5849623692338
 31
0.0
 11
5518.0615632277095
 21
1377.5935002579865
 31
0.0
 11
5517.778428990654
 21
1377.5999993086659
 31
0.0
  0
SPLINE
  5
461
100
AcDbEntity
  8
0
  6
CONTINUOUS
 62
           3
100
AcDbSpline
210
0.0
220
0.0
230
1.0
 70
           0
 71
           3
 72
           8
 73
           5
 74
           7
 42
0.00000000001
 43
0.00000000001
 44
0.00000000001
 40
0.0
 40
0.0
 40
0.0
 40
1.2475604207861621
 40
2.2257060852956547
 40
2.9354176594307497
 40
2.9354176594307497
 40
2.9354176594307497
 10
5517.778428990654
 20
1377.5999993086659
 30
0.0
 10
5517.0227731337018
 20
1377.5459010071061
 30
0.0
 10
5516.04533365114
 20
1377.4759249520071
 30
0.0
 10
5515.1050340453421
 20
1377.2130630295719
 30
0.0
 10
5514.8916775568232
 20
1377.1534189582669
 30
0.0
 11
5517.778428990654
 21
1377.5999993086659
 31
0.0
 11
5517.0747176638115
 21
1377.5496197777989
 31
0.0
 11
5516.4748953971875
 21
1377.5066777883167
 31
0.0
 11
5516.016493670515
 21
1377.4455297788074
 31
0.0
 11
5515.5004119825935
 21
1377.3235914228983
 31
0.0
 11
5515.1505394075248
 21
1377.2257841100773
 31
0.0
 11
5514.8916775568232
 21
1377.1534189582669
 31
0.0
  0
SPLINE
  5
460
100
AcDbEntity
  8
0
  6
CONTINUOUS
 62
           3
100
AcDbSpline
210
0.0
220
0.0
230
1.0
 70
           0
 71
           3
 72
           8
 73
           5
 74
           7
 42
0.00000000001
 43
0.00000000001
 44
0.00000000001
 40
0.0
 40
0.0
 40
0.0
 40
0.2779454797470929
 40
0.7862825386909735
 40
1.5429638907222507
 40
1.5429638907222507
 40
1.5429638907222507
 10
5513.4483019563249
 20
1359.9999994040479
 30
0.0
 10
5513.4825185009031
 20
1360.0004450963061
 30
0.0
 10
5513.9699292190107
 20
1360.0067939309631
 30
0.0
 10
5514.4475686861751
 20
1360.23468978547
 30
0.0
 10
5514.8916775568232
 20
1360.4465872050239
 30
0.0
 11
5513.4483019563249
 21
1359.9999994040479
 31
0.0
 11
5513.5170384504754
 21
1360.0008947406084
 31
0.0
 11
5513.6548148437723
 21
1360.0026893657737
 31
0.0
 11
5513.9391344805881
 21
1360.0286623000184
 31
0.0
 11
5514.1618646405568
 21
1360.0983719723738
 31
0.0
 11
5514.4871698924326
 21
1360.2535846870844
 31
0.0
 11
5514.8916775568232
 21
1360.4465872050239
 31
0.0
  0
SPLINE
  5
45F
100
AcDbEntity
  8
0
  6
CONTINUOUS
 62
           3
100
AcDbSpline
210
0.0
220
0.0
230
1.0
 70
           0
 71
           3
 72
           8
 73
           5
 74
           7
 42
0.00000000001
 43
0.00000000001
 44
0.00000000001
 40
0.0
 40
0.0
 40
0.0
 40
0.2779462752365653
 40
0.786282088328471
 40
1.5429577306135449
 40
1.5429577306135449
 40
1.5429577306135449
 10
5513.4483019563249
 20
1364.9999946356729
 30
0.0
 10
5513.4140854080124
 20
1364.9995489277901
 30
0.0
 10
5512.9266731098251
 20
1364.993199850662
 30
0.0
 10
5512.4490343971611
 20
1364.7653118774831
 30
0.0
 10
5512.0049261229524
 20
1364.5534217359159
 30
0.0
 11
5513.4483019563249
 21
1364.9999946356729
 31
0.0
 11
5513.3795651717837
 21
1364.9990992640387
 31
0.0
 11
5513.2417879147888
 21
1364.9973045649017
 31
0.0
 11
5512.9574678852405
 21
1364.9713322408597
 31
0.0
 11
5512.7347374065284
 21
1364.9016246972139
 31
0.0
 11
5512.4094330809512
 21
1364.7464175470241
 31
0.0
 11
5512.0049261229524
 21
1364.5534217359159
 31
0.0
  0
SPLINE
  5
45E
100
AcDbEntity
  8
0
  6
CONTINUOUS
 62
           3
100
AcDbSpline
210
0.0
220
0.0
230
1.0
 70
           0
 71
           3
 72
           8
 73
           5
 74
           7
 42
0.00000000001
 43
0.00000000001
 44
0.00000000001
 40
0.0
 40
0.0
 40
0.0
 40
0.2779464854698519
 40
0.7862840844060961
 40
1.5429642659465292
 40
1.5429642659465292
 40
1.5429642659465292
 10
5522.108556024943
 20
1359.999999403921
 30
0.0
 10
5522.1427725743433
 20
1360.000445099424
 30
0.0
 10
5522.6301852934321
 20
1360.0067940036531
 30
0.0
 10
5523.1078237729798
 20
1360.2346897876159
 30
0.0
 10
5523.5519318583447
 20
1360.4465872051219
 30
0.0
 11
5522.108556024943
 21
1359.999999403921
 31
0.0
 11
5522.177292770727
 21
1360.0008947499907
 31
0.0
 11
5522.3150699092766
 21
1360.0026893971938
 31
0.0
 11
5522.5993902784512
 21
1360.0286623910351
 31
0.0
 11
5522.8221206176622
 21
1360.0983721596403
 31
0.0
 11
5523.1474250054907
 21
1360.2535847349986
 31
0.0
 11
5523.5519318583447
 21
1360.4465872051219
 31
0.0
  0
SPLINE
  5
45D
100
AcDbEntity
  8
0
  6
CONTINUOUS
 62
           3
100
AcDbSpline
210
0.0
220
0.0
230
1.0
 70
           0
 71
           3
 72
           8
 73
           5
 74
           7
 42
0.00000000001
 43
0.00000000001
 44
0.00000000001
 40
0.0
 40
0.0
 40
0.0
 40
0.2779452695518532
 40
0.7862805426552565
 40
1.5429573555004135
 40
1.5429573555004135
 40
1.5429573555004135
 10
5522.108556024983
 20
1364.9999946356729
 30
0.0
 10
5522.0743394814544
 20
1364.999548930904
 30
0.0
 10
5521.5869291842519
 20
1364.993199923352
 30
0.0
 10
5521.1092894839621
 20
1364.7653118796329
 30
0.0
 10
5520.6651804244812
 20
1364.5534217358579
 30
0.0
 11
5522.108556024983
 21
1364.9999946356729
 31
0.0
 11
5522.0398194920435
 21
1364.9990992734499
 31
0.0
 11
5521.9020429802831
 21
1364.9973045963191
 31
0.0
 11
5521.6177236831081
 21
1364.9713323318763
 31
0.0
 11
5521.3949933836466
 21
1364.9016248844825
 31
0.0
 11
5521.069688194013
 21
1364.7464175949017
 31
0.0
 11
5520.6651804244812
 21
1364.5534217358579
 31
0.0
  0
SPLINE
  5
45C
100
AcDbEntity
  8
0
  6
CONTINUOUS
 62
           3
100
AcDbSpline
210
0.0
220
0.0
230
1.0
 70
           0
 71
           3
 72
           8
 73
           5
 74
           7
 42
0.00000000001
 43
0.00000000001
 44
0.00000000001
 40
0.0
 40
0.0
 40
0.0
 40
0.7097126556374556
 40
1.6878594213865614
 40
2.9354211178787875
 40
2.9354211178787875
 40
2.9354211178787875
 10
5514.8916775568232
 20
1360.4465872050239
 30
0.0
 10
5515.1050339727426
 20
1360.386940369928
 30
0.0
 10
5516.0453311815636
 20
1360.12406684762
 30
0.0
 10
5517.0227723332337
 20
1360.0540946716169
 30
0.0
 10
5517.778428990654
 20
1359.9999994040479
 30
0.0
 11
5514.8916775568232
 21
1360.4465872050239
 31
0.0
 11
5515.1505391239043
 21
1360.3742187546156
 31
0.0
 11
5515.5004109933079
 21
1360.2764070735823
 31
0.0
 11
5516.0164917606126
 21
1360.1544641207811
 31
0.0
 11
5516.4748936860142
 21
1360.0933157143018
 31
0.0
 11
5517.0747168357839
 21
1360.0503761153959
 31
0.0
 11
5517.778428990654
 21
1359.9999994040479
 31
0.0
  0
SPLINE
  5
45B
100
AcDbEntity
  8
0
  6
CONTINUOUS
 62
           3
100
AcDbSpline
210
0.0
220
0.0
230
1.0
 70
           0
 71
           3
 72
           8
 73
           5
 74
           7
 42
0.00000000001
 43
0.00000000001
 44
0.00000000001
 40
0.0
 40
0.0
 40
0.0
 40
0.7273681394915366
 40
1.7065914567890266
 40
2.9387223240352536
 40
2.9387223240352536
 40
2.9387223240352536
 10
5517.778428990654
 20
1359.9999994040479
 30
0.0
 10
5518.0171517700128
 20
1360.005478943116
 30
0.0
 10
5518.9940594159616
 20
1360.027902457241
 30
0.0
 10
5519.9459211252233
 20
1360.26638308051
 30
0.0
 10
5520.6651804243429
 20
1360.4465872051219
 30
0.0
 11
5517.778428990654
 21
1359.9999994040479
 31
0.0
 11
5518.0615632839545
 21
1360.006498345733
 31
0.0
 11
5518.4335206051328
 21
1360.0150360926523
 31
0.0
 11
5518.9592996444899
 21
1360.0510866331733
 31
0.0
 11
5519.4155591409108
 21
1360.1335055255604
 31
0.0
 11
5519.9931454539246
 21
1360.2782147229254
 31
0.0
 11
5520.6651804243429
 21
1360.4465872051219
 31
0.0
  0
SPLINE
  5
45A
100
AcDbEntity
  8
0
  6
CONTINUOUS
 62
           3
100
AcDbSpline
210
0.0
220
0.0
230
1.0
 70
           0
 71
           3
 72
           8
 73
           5
 74
           7
 42
0.00000000001
 43
0.00000000001
 44
0.00000000001
 40
0.0
 40
0.0
 40
0.0
 40
1.2321288292595716
 40
2.2113508927675873
 40
2.9387184667234409
 40
2.9387184667234409
 40
2.9387184667234409
 10
5520.6651804244812
 20
1364.5534217358579
 30
0.0
 10
5519.9459207700329
 20
1364.733619018429
 30
0.0
 10
5518.994058295073
 20
1364.9720906611981
 30
0.0
 10
5518.017151734135
 20
1364.994514911454
 30
0.0
 10
5517.778428990654
 20
1364.9999946356729
 30
0.0
 11
5520.6651804244812
 21
1364.5534217358579
 31
0.0
 11
5519.993145102846
 21
1364.7217878300803
 31
0.0
 11
5519.4155584468381
 21
1364.8664915476047
 31
0.0
 11
5518.9592988159848
 21
1364.9489075788533
 31
0.0
 11
5518.433520226954
 21
1364.9849574454129
 31
0.0
 11
5518.06156317147
 21
1364.9934954759983
 31
0.0
 11
5517.778428990654
 21
1364.9999946356729
 31
0.0
  0
SPLINE
  5
459
100
AcDbEntity
  8
0
  6
CONTINUOUS
 62
           3
100
AcDbSpline
210
0.0
220
0.0
230
1.0
 70
           0
 71
           3
 72
           8
 73
           5
 74
           7
 42
0.00000000001
 43
0.00000000001
 44
0.00000000001
 40
0.0
 40
0.0
 40
0.0
 40
1.2475591451551136
 40
2.2257037084925013
 40
2.9354142011740478
 40
2.9354142011740478
 40
2.9354142011740478
 10
5517.778428990654
 20
1364.9999946356729
 30
0.0
 10
5517.0227739341517
 20
1364.9458933000931
 30
0.0
 10
5516.0453361206328
 20
1364.8759133658571
 30
0.0
 10
5515.1050341179343
 20
1364.6130630433649
 30
0.0
 10
5514.8916775568232
 20
1364.5534217358579
 30
0.0
 11
5517.778428990654
 21
1364.9999946356729
 31
0.0
 11
5517.0747184918164
 21
1364.9496122852588
 31
0.0
 11
5516.4748971083091
 21
1364.9066679051762
 31
0.0
 11
5516.016495580353
 21
1364.8455202926339
 31
0.0
 11
5515.5004129718382
 21
1364.7235865336447
 31
0.0
 11
5515.1505396911325
 21
1364.6257835890581
 31
0.0
 11
5514.8916775568232
 21
1364.5534217358579
 31
0.0
  0
SPLINE
  5
458
100
AcDbEntity
  8
0
  6
CONTINUOUS
 62
           3
100
AcDbSpline
210
0.0
220
0.0
230
1.0
 70
           0
 71
           3
 72
           8
 73
           5
 74
           7
 42
0.00000000001
 43
0.00000000001
 44
0.00000000001
 40
0.0
 40
0.0
 40
0.0
 40
0.2779464854665173
 40
0.7862840844028372
 40
1.5429642659230511
 40
1.5429642659230511
 40
1.5429642659230511
 10
5522.108556024943
 20
1359.999999403921
 30
0.0
 10
5522.1427725743433
 20
1359.9995537086761
 30
0.0
 10
5522.6301852934321
 20
1359.9932048044429
 30
0.0
 10
5523.1078237729798
 20
1359.7653090204799
 30
0.0
 10
5523.5519318583447
 20
1359.553411603021
 30
0.0
 11
5522.108556024943
 21
1359.999999403921
 31
0.0
 11
5522.1772927707261
 21
1359.9991040580444
 31
0.0
 11
5522.3150699092757
 21
1359.9973094109048
 31
0.0
 11
5522.5993902784503
 21
1359.9713364170611
 31
0.0
 11
5522.8221206176659
 21
1359.9016266484539
 31
0.0
 11
5523.1474250054926
 21
1359.7464140731086
 31
0.0
 11
5523.5519318583447
 21
1359.553411603021
 31
0.0
  0
SPLINE
  5
457
100
AcDbEntity
  8
0
  6
CONTINUOUS
 62
           3
100
AcDbSpline
210
0.0
220
0.0
230
1.0
 70
           0
 71
           3
 72
           8
 73
           5
 74
           7
 42
0.00000000001
 43
0.00000000001
 44
0.00000000001
 40
0.0
 40
0.0
 40
0.0
 40
0.37781552849872
 40
0.8942062233985262
 40
1.535751417466507
 40
1.535751417466507
 40
1.535751417466507
 10
5512.0049261229524
 20
1359.553411603021
 30
0.0
 10
5512.0994441660132
 20
1359.6064716909059
 30
0.0
 10
5512.5693140638832
 20
1359.870245011374
 30
0.0
 10
5513.0579550032844
 20
1359.942377186198
 30
0.0
 10
5513.4483019563249
 20
1359.9999994040479
 30
0.0
 11
5512.0049261229524
 21
1359.553411603021
 31
0.0
 11
5512.1254464233853
 21
1359.6210687140281
 31
0.0
 11
5512.2979712385659
 21
1359.7179198712795
 31
0.0
 11
5512.5559566833099
 21
1359.8402057052365
 31
0.0
 11
5512.7872273669063
 21
1359.9024129269183
 31
0.0
 11
5513.0878598324498
 21
1359.9467916758408
 31
0.0
 11
5513.4483019563249
 21
1359.9999994040479
 31
0.0
  0
SPLINE
  5
456
100
AcDbEntity
  8
0
  6
CONTINUOUS
 62
           3
100
AcDbSpline
210
0.0
220
0.0
230
1.0
 70
           0
 71
           3
 72
           8
 73
           5
 74
           7
 42
0.00000000001
 43
0.00000000001
 44
0.00000000001
 40
0.0
 40
0.0
 40
0.0
 40
0.6415450374762295
 40
1.1579303686098825
 40
1.5357381749057863
 40
1.5357381749057863
 40
1.5357381749057863
 10
5513.4483019563249
 20
1355.0000041724199
 30
0.0
 10
5513.0579559775924
 20
1355.0576336938759
 30
0.0
 10
5512.5693168983398
 20
1355.1297749168839
 30
0.0
 10
5512.099444231093
 20
1355.3935224482559
 30
0.0
 10
5512.0049261229524
 20
1355.446577072224
 30
0.0
 11
5513.4483019563249
 21
1355.0000041724199
 31
0.0
 11
5513.0878605146836
 21
1355.0532186767991
 31
0.0
 11
5512.7872281472246
 21
1355.0976031470252
 31
0.0
 11
5512.5559583162994
 21
1355.1598096979617
 31
0.0
 11
5512.2979713212935
 21
1355.2820858110545
 31
0.0
 11
5512.125446476608
 21
1355.3789269449476
 31
0.0
 11
5512.0049261229524
 21
1355.446577072224
 31
0.0
  0
SPLINE
  5
455
100
AcDbEntity
  8
0
  6
CONTINUOUS
 62
           3
100
AcDbSpline
210
0.0
220
0.0
230
1.0
 70
           0
 71
           3
 72
           8
 73
           5
 74
           7
 42
0.00000000001
 43
0.00000000001
 44
0.00000000001
 40
0.0
 40
0.0
 40
0.0
 40
0.3539460334951224
 40
0.8643414136602259
 40
1.5431068114016724
 40
1.5431068114016724
 40
1.5431068114016724
 10
5513.4483019563249
 20
1359.9999994040479
 30
0.0
 10
5513.5577561114023
 20
1359.9953935078299
 30
0.0
 10
5514.0461139400231
 20
1359.97484311874
 30
0.0
 10
5514.522253617426
 20
1359.7375336343539
 30
0.0
 10
5514.8916775569514
 20
1359.553411603021
 30
0.0
 11
5513.4483019563249
 21
1359.9999994040479
 31
0.0
 11
5513.5803879545601
 21
1359.9944411463543
 31
0.0
 11
5513.7577376391127
 21
1359.9869781657089
 31
0.0
 11
5514.0251104103672
 21
1359.9524131949256
 31
0.0
 11
5514.2504761223072
 21
1359.8729883765131
 31
0.0
 11
5514.5466652285286
 21
1359.7253668120607
 31
0.0
 11
5514.8916775569514
 21
1359.553411603021
 31
0.0
  0
SPLINE
  5
454
100
AcDbEntity
  8
0
  6
CONTINUOUS
 62
           3
100
AcDbSpline
210
0.0
220
0.0
230
1.0
 70
           0
 71
           3
 72
           8
 73
           5
 74
           7
 42
0.00000000001
 43
0.00000000001
 44
0.00000000001
 40
0.0
 40
0.0
 40
0.0
 40
0.6787700534931441
 40
1.1891668948819372
 40
1.5431123743460917
 40
1.5431123743460917
 40
1.5431123743460917
 10
5514.8916775568232
 20
1355.446577072242
 30
0.0
 10
5514.522253743382
 20
1355.2624483716061
 30
0.0
 10
5514.0461143196026
 20
1355.0251303367841
 30
0.0
 10
5513.557756121565
 20
1355.0046045512611
 30
0.0
 10
5513.4483019563249
 20
1355.0000041724199
 30
0.0
 11
5514.8916775568232
 21
1355.446577072242
 31
0.0
 11
5514.5466652426167
 21
1355.2746155830068
 31
0.0
 11
5514.2504759268786
 21
1355.126988516573
 31
0.0
 11
5514.025110460927
 21
1355.0475647466085
 31
0.0
 11
5513.7577372776232
 21
1355.0130097962929
 31
0.0
 11
5513.5803878692695
 21
1355.0055557678086
 31
0.0
 11
5513.4483019563249
 21
1355.0000041724199
 31
0.0
  0
SPLINE
  5
453
100
AcDbEntity
  8
0
  6
CONTINUOUS
 62
           3
100
AcDbSpline
210
0.0
220
0.0
230
1.0
 70
           0
 71
           3
 72
           8
 73
           5
 74
           7
 42
0.00000000001
 43
0.00000000001
 44
0.00000000001
 40
0.0
 40
0.0
 40
0.0
 40
0.2779452695518754
 40
0.7862805426561302
 40
1.542957355619154
 40
1.542957355619154
 40
1.542957355619154
 10
5522.108556024983
 20
1355.0000041724199
 30
0.0
 10
5522.0743394814544
 20
1355.0004498771891
 30
0.0
 10
5521.5869291842519
 20
1355.0067988847441
 30
0.0
 10
5521.1092894839621
 20
1355.234686928467
 30
0.0
 10
5520.6651804243429
 20
1355.446577072224
 30
0.0
 11
5522.108556024983
 21
1355.0000041724199
 31
0.0
 11
5522.0398194920444
 21
1355.0008995346434
 31
0.0
 11
5521.902042980284
 21
1355.0026942117752
 31
0.0
 11
5521.6177236831127
 21
1355.0286664762175
 31
0.0
 11
5521.3949933836648
 21
1355.0983739236067
 31
0.0
 11
5521.0696881939821
 21
1355.253581213191
 31
0.0
 11
5520.6651804243429
 21
1355.446577072224
 31
0.0
  0
SPLINE
  5
452
100
AcDbEntity
  8
0
  6
CONTINUOUS
 62
           3
100
AcDbSpline
210
0.0
220
0.0
230
1.0
 70
           0
 71
           3
 72
           8
 73
           5
 74
           7
 42
0.00000000001
 43
0.00000000001
 44
0.00000000001
 40
0.0
 40
0.0
 40
0.0
 40
0.5558558490683105
 40
1.5343195422046925
 40
2.9385037456636622
 40
2.9385037456636622
 40
2.9385037456636622
 10
5517.778428990654
 20
1355.000004172322
 30
0.0
 10
5517.7099959052721
 20
1355.0004498783021
 30
0.0
 10
5516.73517395622
 20
1355.0067989106681
 30
0.0
 10
5515.7798951852437
 20
1355.234686929231
 30
0.0
 10
5514.8916775568232
 20
1355.446577072242
 30
0.0
 11
5517.778428990654
 21
1355.000004172322
 31
0.0
 11
5517.6388141452262
 21
1355.0009134863221
 31
0.0
 11
5517.3568357797076
 21
1355.0027500163631
 31
0.0
 11
5516.7925151649943
 21
1355.0291829422185
 31
0.0
 11
5516.3428769678321
 21
1355.1003839311752
 31
0.0
 11
5515.6985862237852
 21
1355.2540837154697
 31
0.0
 11
5514.8916775568232
 21
1355.446577072242
 31
0.0
  0
SPLINE
  5
451
100
AcDbEntity
  8
0
  6
CONTINUOUS
 62
           3
100
AcDbSpline
210
0.0
220
0.0
230
1.0
 70
           0
 71
           3
 72
           8
 73
           5
 74
           7
 42
0.00000000001
 43
0.00000000001
 44
0.00000000001
 40
0.0
 40
0.0
 40
0.0
 40
0.5558562714169836
 40
1.5343210643726553
 40
2.9385072682927018
 40
2.9385072682927018
 40
2.9385072682927018
 10
5517.778428990654
 20
1359.9999994040479
 30
0.0
 10
5517.8468620781241
 20
1359.999553710677
 30
0.0
 10
5518.8216848690054
 20
1359.993204851213
 30
0.0
 10
5519.7769631737228
 20
1359.765309021863
 30
0.0
 10
5520.6651804244812
 20
1359.553411603069
 30
0.0
 11
5517.778428990654
 21
1359.9999994040479
 31
0.0
 11
5517.9180438933854
 21
1359.9990901152978
 31
0.0
 11
5518.2000224266412
 21
1359.9972536357895
 31
0.0
 11
5518.7643434402671
 21
1359.9708199944764
 31
0.0
 11
5519.2139815964183
 21
1359.8996166396903
 31
0.0
 11
5519.8582720920858
 21
1359.745911571621
 31
0.0
 11
5520.6651804244812
 21
1359.553411603069
 31
0.0
  0
CIRCLE
  5
450
100
AcDbEntity
  8
1
  6
CONTINUOUS
 62
           7
100
AcDbCircle
 10
0.000000000004
 20
6064.999999999998
 40
399.999999999999
  0
CIRCLE
  5
44F
100
AcDbEntity
  8
1
  6
CONTINUOUS
 62
           4
100
AcDbCircle
 10
0.000000000004
 20
6064.999999999998
 40
125.0
  0
CIRCLE
  5
44E
100
AcDbEntity
  8
1
  6
CONTINUOUS
 62
           4
100
AcDbCircle
 10
0.000000000004
 20
6064.999999999998
 40
100.9476
  0
CIRCLE
  5
44D
100
AcDbEntity
  8
1
  6
CONTINUOUS
 62
           7
100
AcDbCircle
 10
-1450.0
 20
4814.999999999999
 40
45.0
  0
CIRCLE
  5
44C
100
AcDbEntity
  8
1
  6
CONTINUOUS
 62
           7
100
AcDbCircle
 10
4931.878432268971
 20
1485.000000000004
 40
10.0
  0
CIRCLE
  5
44B
100
AcDbEntity
  8
1
  6
CONTINUOUS
 62
           7
100
AcDbCircle
 10
4931.878432268971
 20
1515.000000000004
 40
10.0
  0
CIRCLE
  5
44A
100
AcDbEntity
  8
1
  6
CONTINUOUS
 62
           7
100
AcDbCircle
 10
4931.878432268971
 20
1500.000000000004
 40
40.0
  0
CIRCLE
  5
449
100
AcDbEntity
  8
1
  6
CONTINUOUS
 62
           7
100
AcDbCircle
 10
4701.878432268971
 20
1500.000000000004
 40
40.0
  0
CIRCLE
  5
448
100
AcDbEntity
  8
1
  6
CONTINUOUS
 62
           7
100
AcDbCircle
 10
4701.878432268971
 20
1500.000000000004
 40
9.25
  0
CIRCLE
  5
447
100
AcDbEntity
  8
1
  6
CONTINUOUS
 62
           7
100
AcDbCircle
 10
550.0
 20
4814.999999999999
 40
45.0
  0
CIRCLE
  5
446
100
AcDbEntity
  8
1
  6
CONTINUOUS
 62
           2
100
AcDbCircle
 10
5901.878432268973
 20
600.000000000004
 40
8.35
  0
CIRCLE
  5
445
100
AcDbEntity
  8
1
  6
CONTINUOUS
 62
           7
100
AcDbCircle
 10
5901.878432268973
 20
600.000000000004
 40
15.0
  0
CIRCLE
  5
444
100
AcDbEntity
  8
1
  6
CONTINUOUS
 62
           3
100
AcDbCircle
 10
-491.52774467812
 20
1295.200848327049
 40
40.0
  0
ARC
  5
443
100
AcDbEntity
  8
7
  6
CONTINUOUS
 62
           7
100
AcDbCircle
 10
5987.918432268973
 20
3178.133628400005
 40
7.440000000001
100
AcDbArc
 50
122.681915000002
 51
180.0
  0
ARC
  5
442
100
AcDbEntity
  8
7
  6
CONTINUOUS
 62
           7
100
AcDbCircle
 10
6013.358432268975
 20
3204.160000000004
 40
3.84
100
AcDbArc
 50
90.0
 51
180.0
  0
ARC
  5
441
100
AcDbEntity
  8
7
  6
CONTINUOUS
 62
           7
100
AcDbCircle
 10
6007.11843226897
 20
3204.449360800003
 40
2.399999999999
100
AcDbArc
 50
-54.999999999961
 51
0.0
  0
ARC
  5
440
100
AcDbEntity
  8
7
  6
CONTINUOUS
 62
           7
100
AcDbCircle
 10
6187.398432268972
 20
3204.160000000004
 40
3.839999999997
100
AcDbArc
 50
0.0
 51
90.0
  0
ARC
  5
43F
100
AcDbEntity
  8
7
  6
CONTINUOUS
 62
           7
100
AcDbCircle
 10
6193.63843226897
 20
3204.449360800003
 40
2.400000000001
100
AcDbArc
 50
180.0
 51
-125.000000000039
  0
ARC
  5
43E
100
AcDbEntity
  8
7
  6
CONTINUOUS
 62
           7
100
AcDbCircle
 10
6218.386256668975
 20
3184.600000000004
 40
2.399999999999
100
AcDbArc
 50
-125.000000000039
 51
-90.0
  0
ARC
  5
43D
100
AcDbEntity
  8
7
  6
CONTINUOUS
 62
           7
100
AcDbCircle
 10
6219.438432268973
 20
3178.360000000005
 40
3.84
100
AcDbArc
 50
0.0
 51
90.0
  0
ARC
  5
43C
100
AcDbEntity
  8
7
  6
CONTINUOUS
 62
           7
100
AcDbCircle
 10
117.560000000005
 20
3178.360000000006
 40
3.84
100
AcDbArc
 50
0.0
 51
90.0
  0
ARC
  5
43B
100
AcDbEntity
  8
7
  6
CONTINUOUS
 62
           7
100
AcDbCircle
 10
116.507824400003
 20
3184.600000000004
 40
2.399999999996
100
AcDbArc
 50
-124.99999999998
 51
-90.0
  0
ARC
  5
43A
100
AcDbEntity
  8
7
  6
CONTINUOUS
 62
           7
100
AcDbCircle
 10
91.760000000006
 20
3204.449360800003
 40
2.400000000001
100
AcDbArc
 50
180.0
 51
-125.000000000039
  0
ARC
  5
439
100
AcDbEntity
  8
7
  6
CONTINUOUS
 62
           7
100
AcDbCircle
 10
85.520000000004
 20
3204.160000000004
 40
3.84
100
AcDbArc
 50
0.0
 51
90.0
  0
ARC
  5
438
100
AcDbEntity
  8
7
  6
CONTINUOUS
 62
           7
100
AcDbCircle
 10
-94.759999999995
 20
3204.449360800003
 40
2.399999999999
100
AcDbArc
 50
-54.999999999961
 51
0.0
  0
ARC
  5
437
100
AcDbEntity
  8
7
  6
CONTINUOUS
 62
           7
100
AcDbCircle
 10
-88.519999999997
 20
3204.160000000004
 40
3.84
100
AcDbArc
 50
90.0
 51
180.0
  0
ARC
  5
436
100
AcDbEntity
  8
7
  6
CONTINUOUS
 62
           7
100
AcDbCircle
 10
-113.959999999996
 20
3178.133628400005
 40
7.440000000001
100
AcDbArc
 50
122.681915000002
 51
180.0
  0
ARC
  5
435
100
AcDbEntity
  8
0
  6
CONTINUOUS
 62
           7
100
AcDbCircle
 10
-67.999999999996
 20
6104.999999999998
 40
669.999999999999
100
AcDbArc
 50
-90.0
 51
-65.560184603745
  0
ARC
  5
434
100
AcDbEntity
  8
0
  6
CONTINUOUS
 62
           7
100
AcDbCircle
 10
45.000000000004
 20
6041.999999999998
 40
469.999999999995
100
AcDbArc
 50
73.766596122265
 51
91.7405042324
  0
ARC
  5
433
100
AcDbEntity
  8
0
  6
CONTINUOUS
 62
           7
100
AcDbCircle
 10
-19.999999999996
 20
5994.999999999998
 40
549.999999999999
100
AcDbArc
 50
19.235892312417
 51
32.0167313156
  0
ARC
  5
432
100
AcDbEntity
  8
0
  6
CONTINUOUS
 62
           7
100
AcDbCircle
 10
-67.999999999996
 20
6104.999999999996
 40
670.000000000001
100
AcDbArc
 50
-176.149739729349
 51
-90.0
  0
ARC
  5
431
100
AcDbEntity
  8
1
  6
CONTINUOUS
 62
           7
100
AcDbCircle
 10
-736.804904288234
 20
6064.999999999998
 40
5.0
100
AcDbArc
 50
-86.363530447536
 51
93.208888116186
  0
ARC
  5
430
100
AcDbEntity
  8
0
  6
CONTINUOUS
 62
           7
100
AcDbCircle
 10
-67.999999999996
 20
6104.999999999998
 40
670.0
100
AcDbArc
 50
180.0
 51
-177.004902602006
  0
ARC
  5
42F
100
AcDbEntity
  8
1
  6
CONTINUOUS
 62
           7
100
AcDbCircle
 10
500.919408978731
 20
6171.473707246296
 40
5.000000000002
100
AcDbArc
 50
108.975456054164
 51
-71.545416462309
  0
ARC
  5
42E
100
AcDbEntity
  8
0
  6
CONTINUOUS
 62
           7
100
AcDbCircle
 10
-19.999999999996
 20
5994.999999999998
 40
550.000000000001
100
AcDbArc
 50
0.053742830624
 51
18.194147279427
  0
ARC
  5
42D
100
AcDbEntity
  8
0
  6
CONTINUOUS
 62
           7
100
AcDbCircle
 10
-19.999999999996
 20
5994.999999999998
 40
549.999999999999
100
AcDbArc
 50
-65.3714141245
 51
-0.988002202365
  0
ARC
  5
42C
100
AcDbEntity
  8
1
  6
CONTINUOUS
 62
           7
100
AcDbCircle
 10
529.98172068327
 20
5990.515926598164
 40
4.999999999999
100
AcDbArc
 50
89.793306572368
 51
-90.727565944124
  0
ARC
  5
42B
100
AcDbEntity
  8
1
  6
CONTINUOUS
 62
           7
100
AcDbCircle
 10
181.182082628217
 20
6491.838238004548
 40
4.999999999998
100
AcDbArc
 50
163.461829900465
 51
-17.147702543106
  0
ARC
  5
42A
100
AcDbEntity
  8
0
  6
CONTINUOUS
 62
           7
100
AcDbCircle
 10
45.000000000004
 20
6041.999999999998
 40
469.999999999992
100
AcDbArc
 50
31.359627184827
 51
72.547531235072
  0
ARC
  5
429
100
AcDbEntity
  8
1
  6
CONTINUOUS
 62
           7
100
AcDbCircle
 10
0.000000000004
 20
6064.999999999998
 40
150.000000000001
100
AcDbArc
 50
23.882765003116
 51
-90.0
  0
ARC
  5
428
100
AcDbEntity
  8
1
  6
CONTINUOUS
 62
           7
100
AcDbCircle
 10
0.000000000004
 20
6064.999999999998
 40
132.840000000001
100
AcDbArc
 50
-75.809724714477
 51
-75.809724714477
  0
ARC
  5
427
100
AcDbEntity
  8
1
  6
CONTINUOUS
 62
           7
100
AcDbCircle
 10
0.000000000004
 20
6064.999999999998
 40
150.0
100
AcDbArc
 50
-90.0
 51
-23.882765003116
  0
ARC
  5
426
100
AcDbEntity
  8
1
  6
CONTINUOUS
 62
           3
100
AcDbCircle
 10
6022.041999960022
 20
1925.0
 40
9.499999999999
100
AcDbArc
 50
-124.797812779177
 51
0.0
  0
ARC
  5
425
100
AcDbEntity
  8
1
  6
CONTINUOUS
 62
           3
100
AcDbCircle
 10
6022.041999960022
 20
1925.0
 40
9.5
100
AcDbArc
 50
0.0
 51
125.916957371441
  0
ARC
  5
424
100
AcDbEntity
  8
1
  6
CONTINUOUS
 62
           3
100
AcDbCircle
 10
6022.041999960022
 20
1925.0
 40
5.871834995061
100
AcDbArc
 50
0.0
 51
38.599713917924
  0
ARC
  5
423
100
AcDbEntity
  8
1
  6
CONTINUOUS
 62
           3
100
AcDbCircle
 10
6022.041999960022
 20
1925.0
 40
5.871834995069
100
AcDbArc
 50
38.599713917924
 51
90.0
  0
ARC
  5
422
100
AcDbEntity
  8
1
  6
CONTINUOUS
 62
           3
100
AcDbCircle
 10
6022.041999960022
 20
1925.0
 40
5.871834995067
100
AcDbArc
 50
-90.0
 51
0.0
  0
ARC
  5
421
100
AcDbEntity
  8
0
  6
CONTINUOUS
 62
           3
100
AcDbCircle
 10
5580.278428990494
 20
1368.000000000113
 40
2.5
100
AcDbArc
 50
0.0
 51
180.0
  0
ARC
  5
420
100
AcDbEntity
  8
0
  6
CONTINUOUS
 62
           3
100
AcDbCircle
 10
5580.278428990494
 20
1631.999999999898
 40
2.499999999993
100
AcDbArc
 50
180.0
 51
0.0
  0
ARC
  5
41F
100
AcDbEntity
  8
0
  6
CONTINUOUS
 62
           3
100
AcDbCircle
 10
5455.278428990803
 20
1631.999999999898
 40
2.5
100
AcDbArc
 50
180.0
 51
0.0
  0
ARC
  5
41E
100
AcDbEntity
  8
0
  6
CONTINUOUS
 62
           3
100
AcDbCircle
 10
5455.278428990803
 20
1368.000000000113
 40
2.499999999991
100
AcDbArc
 50
0.0
 51
180.0
  0
ARC
  5
41D
100
AcDbEntity
  8
0
  6
CONTINUOUS
 62
           3
100
AcDbCircle
 10
5459.778428990794
 20
1508.999999999996
 40
0.999999999996
100
AcDbArc
 50
-90.0
 51
90.0
  0
ARC
  5
41C
100
AcDbEntity
  8
0
  6
CONTINUOUS
 62
           3
100
AcDbCircle
 10
5459.778428990794
 20
1431.000000000062
 40
1.0
100
AcDbArc
 50
-90.0
 51
90.0
  0
ARC
  5
41B
100
AcDbEntity
  8
0
  6
CONTINUOUS
 62
           3
100
AcDbCircle
 10
5459.778428990794
 20
1409.000000000178
 40
0.999999999996
100
AcDbArc
 50
-90.0
 51
90.0
  0
ARC
  5
41A
100
AcDbEntity
  8
0
  6
CONTINUOUS
 62
           3
100
AcDbCircle
 10
5575.778428990501
 20
1409.000000000178
 40
1.0
100
AcDbArc
 50
90.0
 51
-90.0
  0
ARC
  5
419
100
AcDbEntity
  8
0
  6
CONTINUOUS
 62
           3
100
AcDbCircle
 10
5575.778428990501
 20
1431.000000000062
 40
0.999999999996
100
AcDbArc
 50
90.0
 51
-90.0
  0
ARC
  5
418
100
AcDbEntity
  8
0
  6
CONTINUOUS
 62
           3
100
AcDbCircle
 10
5575.778428990501
 20
1508.999999999996
 40
1.0
100
AcDbArc
 50
90.0
 51
-90.0
  0
ARC
  5
417
100
AcDbEntity
  8
0
  6
CONTINUOUS
 62
           3
100
AcDbCircle
 10
5575.778428990501
 20
1530.99999999988
 40
1.0
100
AcDbArc
 50
90.0
 51
-90.0
  0
ARC
  5
416
100
AcDbEntity
  8
0
  6
CONTINUOUS
 62
           3
100
AcDbCircle
 10
5459.778428990794
 20
1530.99999999988
 40
0.999999999996
100
AcDbArc
 50
-90.0
 51
90.0
  0
ARC
  5
415
100
AcDbEntity
  8
0
  6
CONTINUOUS
 62
           3
100
AcDbCircle
 10
5524.251931682442
 20
1389.999999999996
 40
0.900000000001
100
AcDbArc
 50
-90.0
 51
-62.733955549507
  0
ARC
  5
414
100
AcDbEntity
  8
0
  6
CONTINUOUS
 62
           3
100
AcDbCircle
 10
5511.304926298852
 20
1389.999999999996
 40
0.9
100
AcDbArc
 50
-117.266044450493
 51
-90.0
  0
ARC
  5
413
100
AcDbEntity
  8
0
  6
CONTINUOUS
 62
           3
100
AcDbCircle
 10
5517.778428990654
 20
1315.000000000058
 40
53.999999999964
100
AcDbArc
 50
180.0
 51
0.0
  0
ARC
  5
412
100
AcDbEntity
  8
0
  6
CONTINUOUS
 62
           3
100
AcDbCircle
 10
5517.778428990654
 20
1315.000000000058
 40
45.999999999971
100
AcDbArc
 50
180.0
 51
0.0
  0
ARC
  5
411
100
AcDbEntity
  8
0
  6
CONTINUOUS
 62
           3
100
AcDbCircle
 10
5517.778428990654
 20
1355.000000000222
 40
4.0
100
AcDbArc
 50
180.0
 51
0.0
  0
ARC
  5
410
100
AcDbEntity
  8
1
  6
CONTINUOUS
 62
           7
100
AcDbCircle
 10
2079.0
 20
4894.999999999999
 40
17.0
100
AcDbArc
 50
-90.0
 51
90.0
  0
ARC
  5
40F
100
AcDbEntity
  8
1
  6
CONTINUOUS
 62
           7
100
AcDbCircle
 10
4931.878432268971
 20
1500.000000000004
 40
52.5
100
AcDbArc
 50
148.774146998024
 51
-148.774146998023
  0
ARC
  5
40E
100
AcDbEntity
  8
1
  6
CONTINUOUS
 62
           7
100
AcDbCircle
 10
4931.878432268971
 20
1500.000000000004
 40
52.499999999999
100
AcDbArc
 50
58.774146998025
 51
121.225853001972
  0
ARC
  5
40D
100
AcDbEntity
  8
1
  6
CONTINUOUS
 62
           7
100
AcDbCircle
 10
4931.878432268971
 20
1500.000000000004
 40
52.5
100
AcDbArc
 50
0.0
 51
31.225853001973
  0
ARC
  5
40C
100
AcDbEntity
  8
1
  6
CONTINUOUS
 62
           7
100
AcDbCircle
 10
4887.217267033805
 20
1455.338834764834
 40
12.5
100
AcDbArc
 50
135.000000000017
 51
-45.000000000001
  0
ARC
  5
40B
100
AcDbEntity
  8
1
  6
CONTINUOUS
 62
           7
100
AcDbCircle
 10
4887.217267033805
 20
1544.661165235164
 40
12.500000000004
100
AcDbArc
 50
45.000000000034
 51
-135.000000000046
  0
ARC
  5
40A
100
AcDbEntity
  8
1
  6
CONTINUOUS
 62
           7
100
AcDbCircle
 10
4976.53959750414
 20
1544.661165235164
 40
12.499999999991
100
AcDbArc
 50
-44.999999999965
 51
134.999999999966
  0
ARC
  5
409
100
AcDbEntity
  8
1
  6
CONTINUOUS
 62
           7
100
AcDbCircle
 10
4931.878432268971
 20
1500.000000000004
 40
52.500000000006
100
AcDbArc
 50
-121.225853001967
 51
-58.774146998031
  0
ARC
  5
408
100
AcDbEntity
  8
1
  6
CONTINUOUS
 62
           7
100
AcDbCircle
 10
4931.878432268971
 20
1500.000000000004
 40
52.500000000004
100
AcDbArc
 50
-31.225853001974
 51
0.0
  0
ARC
  5
407
100
AcDbEntity
  8
1
  6
CONTINUOUS
 62
           7
100
AcDbCircle
 10
4976.53959750414
 20
1455.338834764834
 40
12.499999999997
100
AcDbArc
 50
-134.999999999999
 51
44.999999999995
  0
ARC
  5
406
100
AcDbEntity
  8
1
  6
CONTINUOUS
 62
           7
100
AcDbCircle
 10
4746.53959750414
 20
1455.338834764834
 40
12.499999999998
100
AcDbArc
 50
-135.000000000005
 51
44.999999999995
  0
ARC
  5
405
100
AcDbEntity
  8
1
  6
CONTINUOUS
 62
           7
100
AcDbCircle
 10
4701.878432268971
 20
1500.000000000004
 40
52.500000000003
100
AcDbArc
 50
-31.225853001975
 51
0.0
  0
ARC
  5
404
100
AcDbEntity
  8
1
  6
CONTINUOUS
 62
           7
100
AcDbCircle
 10
4701.878432268971
 20
1500.000000000004
 40
52.500000000006
100
AcDbArc
 50
-121.225853001967
 51
-58.774146998031
  0
ARC
  5
403
100
AcDbEntity
  8
1
  6
CONTINUOUS
 62
           7
100
AcDbCircle
 10
4746.53959750414
 20
1544.661165235164
 40
12.499999999991
100
AcDbArc
 50
-44.999999999965
 51
134.999999999972
  0
ARC
  5
402
100
AcDbEntity
  8
1
  6
CONTINUOUS
 62
           7
100
AcDbCircle
 10
4657.217267033805
 20
1544.661165235164
 40
12.500000000004
100
AcDbArc
 50
45.000000000034
 51
-135.000000000046
  0
ARC
  5
401
100
AcDbEntity
  8
1
  6
CONTINUOUS
 62
           7
100
AcDbCircle
 10
4657.217267033805
 20
1455.338834764834
 40
12.5
100
AcDbArc
 50
135.000000000017
 51
-45.000000000001
  0
ARC
  5
400
100
AcDbEntity
  8
1
  6
CONTINUOUS
 62
           7
100
AcDbCircle
 10
4701.878432268971
 20
1500.000000000004
 40
52.5
100
AcDbArc
 50
0.0
 51
31.225853001974
  0
ARC
  5
3FF
100
AcDbEntity
  8
1
  6
CONTINUOUS
 62
           7
100
AcDbCircle
 10
4701.878432268971
 20
1500.000000000004
 40
52.499999999998
100
AcDbArc
 50
58.774146998026
 51
121.225853001972
  0
ARC
  5
3FE
100
AcDbEntity
  8
1
  6
CONTINUOUS
 62
           7
100
AcDbCircle
 10
4701.878432268971
 20
1500.000000000004
 40
52.5
100
AcDbArc
 50
148.774146998024
 51
-148.774146998023
  0
ARC
  5
3FD
100
AcDbEntity
  8
1
  6
CONTINUOUS
 62
           7
100
AcDbCircle
 10
2079.0
 20
4664.999999999999
 40
17.0
100
AcDbArc
 50
-90.0
 51
90.0
  0
ARC
  5
3FC
100
AcDbEntity
  8
1
  6
CONTINUOUS
 62
           3
100
AcDbCircle
 10
-488.490241678121
 20
1267.114622327059
 40
0.500000000002
100
AcDbArc
 50
-83.827497998172
 51
-5.00679300022
  0
ARC
  5
3FB
100
AcDbEntity
  8
1
  6
CONTINUOUS
 62
           3
100
AcDbCircle
 10
-494.56524767812
 20
1267.114622327059
 40
0.499999999996
100
AcDbArc
 50
-174.993206999702
 51
-96.172501999302
  0
ARC
  5
3FA
100
AcDbEntity
  8
1
  6
CONTINUOUS
 62
           3
100
AcDbCircle
 10
-488.490241678121
 20
1323.287074327051
 40
0.500000000005
100
AcDbArc
 50
5.006793001362
 51
83.827497998172
  0
ARC
  5
3F9
100
AcDbEntity
  8
1
  6
CONTINUOUS
 62
           3
100
AcDbCircle
 10
-494.56524767812
 20
1323.287074327051
 40
0.5
100
AcDbArc
 50
96.172501999302
 51
174.99320699856
  0
ARC
  5
3F8
100
AcDbEntity
  8
1
  6
CONTINUOUS
 62
           3
100
AcDbCircle
 10
-495.566047678114
 20
1295.200848327049
 40
9.999999999999
100
AcDbArc
 50
-5.006792999977
 51
5.006793000029
  0
ARC
  5
3F7
100
AcDbEntity
  8
1
  6
CONTINUOUS
 62
           3
100
AcDbCircle
 10
-487.48944267812
 20
1295.200848327049
 40
10.0
100
AcDbArc
 50
174.993206999971
 51
-174.993207000022
  0
ARC
  5
3F6
100
AcDbEntity
  8
1
  6
CONTINUOUS
 62
           3
100
AcDbCircle
 10
-491.52774467812
 20
1295.200848327049
 40
10.749999999991
100
AcDbArc
 50
118.773506999969
 51
-118.773506999954
  0
ARC
  5
3F5
100
AcDbEntity
  8
1
  6
CONTINUOUS
 62
           3
100
AcDbCircle
 10
-491.52774467812
 20
1295.200848327049
 40
10.749999999999
100
AcDbArc
 50
-61.226493000019
 51
0.0
  0
ARC
  5
3F4
100
AcDbEntity
  8
1
  6
CONTINUOUS
 62
           3
100
AcDbCircle
 10
-491.52774467812
 20
1295.200848327049
 40
10.75
100
AcDbArc
 50
0.0
 51
61.226493000003
  0
ARC
  5
3F3
100
AcDbEntity
  8
1
  6
CONTINUOUS
 62
           3
100
AcDbCircle
 10
-491.52774467812
 20
1295.200848327049
 40
28.749999999987
100
AcDbArc
 50
-96.172501999994
 51
-83.827497999994
  0
ARC
  5
3F2
100
AcDbEntity
  8
1
  6
CONTINUOUS
 62
           3
100
AcDbCircle
 10
-491.52774467812
 20
1295.200848327049
 40
28.75000000001
100
AcDbArc
 50
83.827497999999
 51
96.172501999989
  0
LINE
  5
3F1
100
AcDbEntity
  8
1
  6
CONTINUOUS
 62
           4
100
AcDbLine
 10
6474.378432268972
 20
2081.000000000004
 11
6474.378432268972
 21
2075.000000000004
  0
LINE
  5
3F0
100
AcDbEntity
  8
1
  6
CONTINUOUS
 62
           4
100
AcDbLine
 10
5729.378432268972
 20
2075.000000000004
 11
5729.378432268972
 21
2081.000000000004
  0
LINE
  5
3EF
100
AcDbEntity
  8
1
  6
CONTINUOUS
 62
           7
100
AcDbLine
 10
6474.378432268972
 20
2075.000000000004
 11
5729.378432268972
 21
2075.000000000004
  0
LINE
  5
3EE
100
AcDbEntity
  8
1
  6
CONTINUOUS
 62
           4
100
AcDbLine
 10
5729.378432268972
 20
2081.000000000004
 11
6474.378432268972
 21
2081.000000000004
  0
LINE
  5
3ED
100
AcDbEntity
  8
0
  6
CONTINUOUS
 62
           7
100
AcDbLine
 10
6435.078432268972
 20
2081.000000000004
 11
6435.078432268972
 21
2128.300000000005
  0
LINE
  5
3EC
100
AcDbEntity
  8
0
  6
CONTINUOUS
 62
           7
100
AcDbLine
 10
5768.678432268971
 20
2128.300000000005
 11
5768.678432268971
 21
2081.000000000004
  0
LINE
  5
3EB
100
AcDbEntity
  8
1
  6
CONTINUOUS
 62
           4
100
AcDbLine
 10
5841.878432268972
 20
2698.700000000003
 11
5841.878432268972
 21
2697.700000000003
  0
LINE
  5
3EA
100
AcDbEntity
  8
1
  6
CONTINUOUS
 62
           4
100
AcDbLine
 10
6361.878432268972
 20
2698.700000000003
 11
6361.878432268972
 21
2697.700000000003
  0
LINE
  5
3E9
100
AcDbEntity
  8
1
  6
CONTINUOUS
 62
           4
100
AcDbLine
 10
6356.878432268972
 20
2703.700000000003
 11
6361.878432268972
 21
2698.700000000003
  0
LINE
  5
3E8
100
AcDbEntity
  8
1
  6
CONTINUOUS
 62
           4
100
AcDbLine
 10
6356.878432268972
 20
2703.700000000003
 11
5846.878432268972
 21
2703.700000000003
  0
LINE
  5
3E7
100
AcDbEntity
  8
1
  6
CONTINUOUS
 62
           4
100
AcDbLine
 10
5841.878432268972
 20
2698.700000000003
 11
5846.878432268972
 21
2703.700000000003
  0
LINE
  5
3E6
100
AcDbEntity
  8
976
  6
CONTINUOUS
 62
           7
100
AcDbLine
 10
6608.319110235072
 20
2697.700000000003
 11
6209.87859204186
 21
2697.700000000003
  0
LINE
  5
3E5
100
AcDbEntity
  8
976
  6
CONTINUOUS
 62
           7
100
AcDbLine
 10
6611.878432268972
 20
2166.300000000005
 11
5426.666961936931
 21
2166.300000000005
  0
LINE
  5
3E4
100
AcDbEntity
  8
976
  6
CONTINUOUS
 62
           7
100
AcDbLine
 10
6611.878432268972
 20
2166.300000000005
 11
6611.878432268972
 21
2133.300000000005
  0
LINE
  5
3E3
100
AcDbEntity
  8
976
  6
CONTINUOUS
 62
           7
100
AcDbLine
 10
5426.666961936931
 20
2128.300000000005
 11
6027.101124227698
 21
2128.300000000007
  0
LINE
  5
3E2
100
AcDbEntity
  8
976
  6
CONTINUOUS
 62
           7
100
AcDbLine
 10
5426.666961936931
 20
2659.700000000003
 11
5426.666961936931
 21
2697.700000000003
  0
LINE
  5
3E1
100
AcDbEntity
  8
976
  6
CONTINUOUS
 62
           7
100
AcDbLine
 10
5426.666961936931
 20
2128.300000000005
 11
5426.666961936931
 21
2166.300000000005
  0
LINE
  5
3E0
100
AcDbEntity
  8
1
  6
CONTINUOUS
 62
           7
100
AcDbLine
 10
6611.878432268972
 20
2692.700000000003
 11
6608.319110235072
 21
2697.700000000003
  0
LINE
  5
3DF
100
AcDbEntity
  8
1
  6
CONTINUOUS
 62
           7
100
AcDbLine
 10
6611.878432268972
 20
2133.300000000005
 11
6608.319110235072
 21
2128.300000000005
  0
LINE
  5
3DE
100
AcDbEntity
  8
1
  6
CONTINUOUS
 62
           7
100
AcDbLine
 10
6691.878432268972
 20
2660.500000000004
 11
6657.378432268972
 21
2660.500000000004
  0
LINE
  5
3DD
100
AcDbEntity
  8
1
  6
CONTINUOUS
 62
           7
100
AcDbLine
 10
6646.378432268972
 20
2660.500000000004
 11
6611.878432268972
 21
2660.500000000004
  0
LINE
  5
3DC
100
AcDbEntity
  8
1
  6
CONTINUOUS
 62
           7
100
AcDbLine
 10
6611.878432268972
 20
2165.500000000004
 11
6646.378432268972
 21
2165.500000000004
  0
LINE
  5
3DB
100
AcDbEntity
  8
1
  6
CONTINUOUS
 62
           7
100
AcDbLine
 10
5471.878432268972
 20
2659.700000000003
 11
5471.878432268972
 21
2166.300000000005
  0
LINE
  5
3DA
100
AcDbEntity
  8
1
  6
CONTINUOUS
 62
           7
100
AcDbLine
 10
6651.878432268972
 20
2660.500000000004
 11
6691.878432268972
 21
2660.500000000004
  0
LINE
  5
3D9
100
AcDbEntity
  8
1
  6
CONTINUOUS
 62
           7
100
AcDbLine
 10
6611.878432268972
 20
2161.000000000004
 11
6611.878432268972
 21
2665.000000000004
  0
LINE
  5
3D8
100
AcDbEntity
  8
1
  6
CONTINUOUS
 62
           7
100
AcDbLine
 10
6611.878432268972
 20
2660.500000000004
 11
6651.878432268972
 21
2660.500000000004
  0
LINE
  5
3D7
100
AcDbEntity
  8
1
  6
CONTINUOUS
 62
           7
100
AcDbLine
 10
6651.878432268972
 20
2165.500000000004
 11
6611.878432268972
 21
2165.500000000004
  0
LINE
  5
3D6
100
AcDbEntity
  8
1
  6
CONTINUOUS
 62
           4
100
AcDbLine
 10
6647.578432268969
 20
2660.500000000004
 11
6647.578432268969
 21
2165.500000000004
  0
LINE
  5
3D5
100
AcDbEntity
  8
1
  6
CONTINUOUS
 62
           4
100
AcDbLine
 10
6656.178432268971
 20
2165.500000000004
 11
6656.178432268971
 21
2660.500000000004
  0
LINE
  5
3D4
100
AcDbEntity
  8
1
  6
CONTINUOUS
 62
           7
100
AcDbLine
 10
6651.878432268972
 20
2700.500000000004
 11
6651.878432268972
 21
2125.500000000004
  0
LINE
  5
3D3
100
AcDbEntity
  8
1
  6
CONTINUOUS
 62
           4
100
AcDbLine
 10
6656.378432268972
 20
2666.000000000004
 11
6656.378432268972
 21
2700.500000000004
  0
LINE
  5
3D2
100
AcDbEntity
  8
1
  6
CONTINUOUS
 62
           4
100
AcDbLine
 10
6656.378432268972
 20
2700.500000000004
 11
6651.878432268972
 21
2700.500000000004
  0
LINE
  5
3D1
100
AcDbEntity
  8
1
  6
CONTINUOUS
 62
           4
100
AcDbLine
 10
6651.878432268972
 20
2700.500000000004
 11
6647.378432268972
 21
2700.500000000004
  0
LINE
  5
3D0
100
AcDbEntity
  8
1
  6
CONTINUOUS
 62
           4
100
AcDbLine
 10
6647.378432268972
 20
2700.500000000004
 11
6647.378432268972
 21
2666.000000000004
  0
LINE
  5
3CF
100
AcDbEntity
  8
1
  6
CONTINUOUS
 62
           4
100
AcDbLine
 10
6611.878432268972
 20
2665.000000000004
 11
6646.378432268972
 21
2665.000000000004
  0
LINE
  5
3CE
100
AcDbEntity
  8
1
  6
CONTINUOUS
 62
           4
100
AcDbLine
 10
6651.878432268972
 20
2125.500000000004
 11
6656.378432268972
 21
2125.500000000004
  0
LINE
  5
3CD
100
AcDbEntity
  8
1
  6
CONTINUOUS
 62
           4
100
AcDbLine
 10
6656.378432268972
 20
2125.500000000004
 11
6656.378432268972
 21
2160.000000000004
  0
LINE
  5
3CC
100
AcDbEntity
  8
1
  6
CONTINUOUS
 62
           4
100
AcDbLine
 10
6691.878432268972
 20
2161.000000000004
 11
6657.378432268972
 21
2161.000000000004
  0
LINE
  5
3CB
100
AcDbEntity
  8
1
  6
CONTINUOUS
 62
           4
100
AcDbLine
 10
6647.378432268972
 20
2160.000000000004
 11
6647.378432268972
 21
2125.500000000004
  0
LINE
  5
3CA
100
AcDbEntity
  8
1
  6
CONTINUOUS
 62
           4
100
AcDbLine
 10
6647.378432268972
 20
2125.500000000004
 11
6651.878432268972
 21
2125.500000000004
  0
LINE
  5
3C9
100
AcDbEntity
  8
1
  6
CONTINUOUS
 62
           7
100
AcDbLine
 10
6657.378432268972
 20
2165.500000000004
 11
6691.878432268972
 21
2165.500000000004
  0
LINE
  5
3C8
100
AcDbEntity
  8
1
  6
CONTINUOUS
 62
           4
100
AcDbLine
 10
6646.378432268972
 20
2161.000000000004
 11
6611.878432268972
 21
2161.000000000004
  0
LINE
  5
3C7
100
AcDbEntity
  8
976
  6
CONTINUOUS
 62
           7
100
AcDbLine
 10
6611.878432268972
 20
2659.700000000003
 11
6611.878432268972
 21
2692.700000000003
  0
LINE
  5
3C6
100
AcDbEntity
  8
976
  6
CONTINUOUS
 62
           7
100
AcDbLine
 10
6523.878432268972
 20
2659.700000000003
 11
6523.878432268972
 21
2697.700000000003
  0
LINE
  5
3C5
100
AcDbEntity
  8
976
  6
CONTINUOUS
 62
           7
100
AcDbLine
 10
6209.87859204186
 20
2659.700000000003
 11
6209.87859204186
 21
2697.700000000003
  0
LINE
  5
3C4
100
AcDbEntity
  8
976
  6
CONTINUOUS
 62
           7
100
AcDbLine
 10
6027.101124227695
 20
2659.700000000003
 11
6027.101124227698
 21
2697.700000000003
  0
LINE
  5
3C3
100
AcDbEntity
  8
976
  6
CONTINUOUS
 62
           7
100
AcDbLine
 10
6027.101124227698
 20
2697.700000000003
 11
5426.666961936931
 21
2697.700000000003
  0
LINE
  5
3C2
100
AcDbEntity
  8
976
  6
CONTINUOUS
 62
           7
100
AcDbLine
 10
6523.878432268972
 20
2128.300000000007
 11
6523.878432268972
 21
2166.300000000007
  0
LINE
  5
3C1
100
AcDbEntity
  8
976
  6
CONTINUOUS
 62
           7
100
AcDbLine
 10
6209.87859204186
 20
2128.300000000007
 11
6209.87859204186
 21
2166.300000000007
  0
LINE
  5
3C0
100
AcDbEntity
  8
976
  6
CONTINUOUS
 62
           7
100
AcDbLine
 10
6027.101124227698
 20
2128.300000000007
 11
6027.101124227695
 21
2166.300000000007
  0
LINE
  5
3BF
100
AcDbEntity
  8
976
  6
CONTINUOUS
 62
           7
100
AcDbLine
 10
6209.87859204186
 20
2128.300000000007
 11
6608.319110235072
 21
2128.300000000005
  0
LINE
  5
3BE
100
AcDbEntity
  8
1
  6
CONTINUOUS
 62
           2
100
AcDbLine
 10
5826.364976268062
 20
2593.000000000004
 11
5826.364976268062
 21
2233.000000000004
  0
LINE
  5
3BD
100
AcDbEntity
  8
1
  6
CONTINUOUS
 62
           2
100
AcDbLine
 10
5826.364976268062
 20
2233.000000000004
 11
6237.391888269878
 21
2233.000000000004
  0
LINE
  5
3BC
100
AcDbEntity
  8
1
  6
CONTINUOUS
 62
           2
100
AcDbLine
 10
6237.391888269878
 20
2233.000000000004
 11
6237.391888269878
 21
2593.000000000004
  0
LINE
  5
3BB
100
AcDbEntity
  8
1
  6
CONTINUOUS
 62
           2
100
AcDbLine
 10
6237.391888269878
 20
2593.000000000004
 11
5826.364976268062
 21
2593.000000000004
  0
LINE
  5
3BA
100
AcDbEntity
  8
1
  6
CONTINUOUS
 62
           4
100
AcDbLine
 10
6657.378432268972
 20
2665.000000000004
 11
6691.878432268972
 21
2665.000000000004
  0
LINE
  5
3B9
100
AcDbEntity
  8
1
  6
CONTINUOUS
 62
           7
100
AcDbLine
 10
6691.878432268972
 20
2165.500000000004
 11
6651.878432268972
 21
2165.500000000004
  0
LINE
  5
3B8
100
AcDbEntity
  8
976
  6
CONTINUOUS
 62
           7
100
AcDbLine
 10
6611.878432268972
 20
2659.700000000003
 11
5426.666961936931
 21
2659.700000000003
  0
LINE
  5
3B7
100
AcDbEntity
  8
1
  6
CONTINUOUS
 62
           7
100
AcDbLine
 10
6691.878432268972
 20
2665.000000000004
 11
6691.878432268972
 21
2161.000000000004
  0
LINE
  5
3B6
100
AcDbEntity
  8
2
  6
CONTINUOUS
 62
           4
100
AcDbLine
 10
6205.938432268973
 20
2703.700000000003
 11
6205.938432268973
 21
2707.800000000003
  0
LINE
  5
3B5
100
AcDbEntity
  8
1
  6
CONTINUOUS
 62
           7
100
AcDbLine
 10
6165.378432268972
 20
2940.500000000004
 11
6165.378432268972
 21
2864.500000000004
  0
LINE
  5
3B4
100
AcDbEntity
  8
1
  6
CONTINUOUS
 62
           7
100
AcDbLine
 10
6038.378432268972
 20
2864.500000000004
 11
6038.378432268972
 21
2940.500000000004
  0
LINE
  5
3B3
100
AcDbEntity
  8
1
  6
CONTINUOUS
 62
           7
100
AcDbLine
 10
6050.378432268972
 20
2952.500000000004
 11
6153.378432268972
 21
2952.500000000004
  0
LINE
  5
3B2
100
AcDbEntity
  8
1
  6
CONTINUOUS
 62
           7
100
AcDbLine
 10
6153.378432268972
 20
2852.500000000004
 11
6050.378432268972
 21
2852.500000000004
  0
LINE
  5
3B1
100
AcDbEntity
  8
7
  6
CONTINUOUS
 62
           7
100
AcDbLine
 10
6008.49501466897
 20
3202.483396000004
 11
5983.901020668971
 21
3184.395737200004
  0
LINE
  5
3B0
100
AcDbEntity
  8
7
  6
CONTINUOUS
 62
           7
100
AcDbLine
 10
6101.878432268972
 20
3208.000000000004
 11
6013.358432268975
 21
3208.000000000004
  0
LINE
  5
3AF
100
AcDbEntity
  8
7
  6
CONTINUOUS
 62
           7
100
AcDbLine
 10
5976.878432268972
 20
3112.186819200004
 11
5976.878432268972
 21
3145.231865248047
  0
LINE
  5
3AE
100
AcDbEntity
  8
7
  6
CONTINUOUS
 62
           7
100
AcDbLine
 10
6226.878432268972
 20
3112.186819200004
 11
5976.878432268972
 21
3112.186819200004
  0
LINE
  5
3AD
100
AcDbEntity
  8
7
  6
CONTINUOUS
 62
           7
100
AcDbLine
 10
6223.278432268973
 20
3178.360000000005
 11
6226.878432268972
 21
3145.231865248047
  0
LINE
  5
3AC
100
AcDbEntity
  8
7
  6
CONTINUOUS
 62
           7
100
AcDbLine
 10
5981.688004668973
 20
3182.200000000005
 11
6219.438432268973
 21
3182.200000000005
  0
LINE
  5
3AB
100
AcDbEntity
  8
7
  6
CONTINUOUS
 62
           7
100
AcDbLine
 10
6192.261848668972
 20
3202.483396000004
 11
6217.009673068973
 21
3182.634035200005
  0
LINE
  5
3AA
100
AcDbEntity
  8
7
  6
CONTINUOUS
 62
           7
100
AcDbLine
 10
6101.878432268972
 20
3208.000000000004
 11
6187.398432268972
 21
3208.000000000004
  0
LINE
  5
3A9
100
AcDbEntity
  8
2
  6
CONTINUOUS
 62
           7
100
AcDbLine
 10
6224.374829068973
 20
2739.600000000004
 11
6211.120802668971
 21
2707.800000000003
  0
LINE
  5
3A8
100
AcDbEntity
  8
2
  6
CONTINUOUS
 62
           4
100
AcDbLine
 10
6211.120802668971
 20
2707.800000000003
 11
5989.636061868969
 21
2707.800000000003
  0
LINE
  5
3A7
100
AcDbEntity
  8
2
  6
CONTINUOUS
 62
           7
100
AcDbLine
 10
6224.374829068973
 20
3098.386819200005
 11
6218.62308146897
 21
3112.186819200004
  0
LINE
  5
3A6
100
AcDbEntity
  8
2
  6
CONTINUOUS
 62
           4
100
AcDbLine
 10
5994.818432268974
 20
2707.800000000003
 11
5994.818432268974
 21
2703.700000000003
  0
LINE
  5
3A5
100
AcDbEntity
  8
2
  6
CONTINUOUS
 62
           7
100
AcDbLine
 10
5982.13378306897
 20
3112.186819200004
 11
5976.382035468971
 21
3098.386819200005
  0
LINE
  5
3A4
100
AcDbEntity
  8
2
  6
CONTINUOUS
 62
           7
100
AcDbLine
 10
5976.382035468971
 20
3098.386819200005
 11
5976.382035468971
 21
2739.600000000004
  0
LINE
  5
3A3
100
AcDbEntity
  8
2
  6
CONTINUOUS
 62
           7
100
AcDbLine
 10
5989.636061868969
 20
2707.800000000003
 11
5976.382035468971
 21
2739.600000000004
  0
LINE
  5
3A2
100
AcDbEntity
  8
1
  6
CONTINUOUS
 62
           7
100
AcDbLine
 10
6226.878432268972
 20
3145.231865248047
 11
5976.878432268972
 21
3145.231865248047
  0
LINE
  5
3A1
100
AcDbEntity
  8
7
  6
CONTINUOUS
 62
           7
100
AcDbLine
 10
5976.878432268972
 20
3145.231865248047
 11
5980.478432268974
 21
3178.133628400005
  0
LINE
  5
3A0
100
AcDbEntity
  8
7
  6
CONTINUOUS
 62
           7
100
AcDbLine
 10
6226.878432268972
 20
3145.231865248047
 11
6226.878432268972
 21
3112.186819200004
  0
LINE
  5
39F
100
AcDbEntity
  8
2
  6
CONTINUOUS
 62
           7
100
AcDbLine
 10
6224.374829068973
 20
2739.600000000004
 11
6224.374829068973
 21
3098.386819200005
  0
LINE
  5
39E
100
AcDbEntity
  8
1
  6
CONTINUOUS
 62
           7
100
AcDbLine
 10
-770.999999999996
 20
2150.500000000004
 11
-770.999999999996
 21
2701.303984566914
  0
LINE
  5
39D
100
AcDbEntity
  8
976
  6
CONTINUOUS
 62
           7
100
AcDbLine
 10
530.000000000004
 20
2698.503984566913
 11
530.000000000004
 21
2660.503984566913
  0
LINE
  5
39C
100
AcDbEntity
  8
1
  6
CONTINUOUS
 62
           4
100
AcDbLine
 10
255.000000000004
 20
2704.503984566913
 11
260.000000000004
 21
2699.503984566913
  0
LINE
  5
39B
100
AcDbEntity
  8
1
  6
CONTINUOUS
 62
           4
100
AcDbLine
 10
255.000000000004
 20
2704.503984566913
 11
-254.999999999996
 21
2704.503984566913
  0
LINE
  5
39A
100
AcDbEntity
  8
1
  6
CONTINUOUS
 62
           4
100
AcDbLine
 10
-259.999999999996
 20
2699.503984566913
 11
-254.999999999996
 21
2704.503984566913
  0
LINE
  5
399
100
AcDbEntity
  8
1
  6
CONTINUOUS
 62
           4
100
AcDbLine
 10
-259.999999999996
 20
2698.503984566913
 11
-259.999999999996
 21
2699.503984566913
  0
LINE
  5
398
100
AcDbEntity
  8
1
  6
CONTINUOUS
 62
           4
100
AcDbLine
 10
260.000000000004
 20
2698.503984566913
 11
260.000000000004
 21
2699.503984566913
  0
LINE
  5
397
100
AcDbEntity
  8
976
  6
CONTINUOUS
 62
           7
100
AcDbLine
 10
532.588132285822
 20
2660.503984566912
 11
-739.999999999996
 21
2660.503984566912
  0
LINE
  5
396
100
AcDbEntity
  8
1
  6
CONTINUOUS
 62
           7
100
AcDbLine
 10
-770.999999999996
 20
2661.303984566914
 11
-749.999999999996
 21
2661.303984566914
  0
LINE
  5
395
100
AcDbEntity
  8
1
  6
CONTINUOUS
 62
           7
100
AcDbLine
 10
-770.999999999996
 20
2701.303984566914
 11
-749.999999999996
 21
2701.303984566914
  0
LINE
  5
394
100
AcDbEntity
  8
1
  6
CONTINUOUS
 62
           4
100
AcDbLine
 10
-770.999999999996
 20
2665.803984566914
 11
-749.999999999996
 21
2665.803984566914
  0
LINE
  5
393
100
AcDbEntity
  8
976
  6
CONTINUOUS
 62
           7
100
AcDbLine
 10
498.588132285822
 20
2165.500000000004
 11
498.588132285822
 21
2157.000000000004
  0
LINE
  5
392
100
AcDbEntity
  8
976
  6
CONTINUOUS
 62
           7
100
AcDbLine
 10
498.588132285822
 20
2698.503984566913
 11
498.588132285822
 21
2660.503984566913
  0
LINE
  5
391
100
AcDbEntity
  8
976
  6
CONTINUOUS
 62
           7
100
AcDbLine
 10
-63.022294576585
 20
2698.503984566913
 11
-63.022294576585
 21
2660.503984566913
  0
LINE
  5
390
100
AcDbEntity
  8
976
  6
CONTINUOUS
 62
           7
100
AcDbLine
 10
-63.022294576585
 20
2165.500000000004
 11
-63.022294576585
 21
2150.700000000004
  0
LINE
  5
38F
100
AcDbEntity
  8
976
  6
CONTINUOUS
 62
           7
100
AcDbLine
 10
530.000000000004
 20
2698.503984566913
 11
-731.116882454309
 21
2698.503984566913
  0
LINE
  5
38E
100
AcDbEntity
  8
1
  6
CONTINUOUS
 62
           2
100
AcDbLine
 10
483.681715763567
 20
2233.000000000004
 11
522.588132285822
 21
2233.000000000004
  0
LINE
  5
38D
100
AcDbEntity
  8
1
  6
CONTINUOUS
 62
           2
100
AcDbLine
 10
483.681715763567
 20
2593.000000000004
 11
483.681715763567
 21
2233.000000000004
  0
LINE
  5
38C
100
AcDbEntity
  8
1
  6
CONTINUOUS
 62
           2
100
AcDbLine
 10
522.588132285822
 20
2593.000000000004
 11
483.681715763567
 21
2593.000000000004
  0
LINE
  5
38B
100
AcDbEntity
  8
1
  6
CONTINUOUS
 62
           7
100
AcDbLine
 10
-749.999999999996
 20
2164.700000000003
 11
-770.999999999996
 21
2164.700000000003
  0
LINE
  5
38A
100
AcDbEntity
  8
1
  6
CONTINUOUS
 62
           4
100
AcDbLine
 10
-749.999999999996
 20
2160.200000000004
 11
-770.999999999996
 21
2160.200000000004
  0
LINE
  5
389
100
AcDbEntity
  8
1
  6
CONTINUOUS
 62
           7
100
AcDbLine
 10
-729.999999999996
 20
2165.300000000004
 11
-729.999999999996
 21
2660.503984566913
  0
LINE
  5
388
100
AcDbEntity
  8
976
  6
CONTINUOUS
 62
           7
100
AcDbLine
 10
-731.116882454309
 20
2698.503984566913
 11
-731.116882454309
 21
2660.503984566913
  0
LINE
  5
387
100
AcDbEntity
  8
976
  6
CONTINUOUS
 62
           7
100
AcDbLine
 10
-731.116882454309
 20
2165.500000000004
 11
-731.116882454309
 21
2150.700000000004
  0
LINE
  5
386
100
AcDbEntity
  8
1
  6
CONTINUOUS
 62
           2
100
AcDbLine
 10
-630.593032057168
 20
2233.000000000004
 11
-313.160800656584
 21
2233.000000000004
  0
LINE
  5
385
100
AcDbEntity
  8
1
  6
CONTINUOUS
 62
           2
100
AcDbLine
 10
-313.160800656584
 20
2233.000000000004
 11
-313.160800656584
 21
2593.000000000004
  0
LINE
  5
384
100
AcDbEntity
  8
1
  6
CONTINUOUS
 62
           2
100
AcDbLine
 10
-313.160800656584
 20
2593.000000000004
 11
-630.593032057168
 21
2593.000000000004
  0
LINE
  5
383
100
AcDbEntity
  8
1
  6
CONTINUOUS
 62
           2
100
AcDbLine
 10
-630.593032057168
 20
2593.000000000004
 11
-630.593032057168
 21
2233.000000000004
  0
LINE
  5
382
100
AcDbEntity
  8
2
  6
CONTINUOUS
 62
           4
100
AcDbLine
 10
104.060000000005
 20
2704.503984566912
 11
104.060000000005
 21
2708.603984566912
  0
LINE
  5
381
100
AcDbEntity
  8
7
  6
CONTINUOUS
 62
           7
100
AcDbLine
 10
125.000000000004
 20
3145.231865248048
 11
125.000000000004
 21
3112.186819200002
  0
LINE
  5
380
100
AcDbEntity
  8
7
  6
CONTINUOUS
 62
           7
100
AcDbLine
 10
-124.999999999996
 20
3145.231865248048
 11
-121.399999999994
 21
3178.133628400005
  0
LINE
  5
37F
100
AcDbEntity
  8
1
  6
CONTINUOUS
 62
           7
100
AcDbLine
 10
125.000000000004
 20
3145.231865248048
 11
-124.999999999996
 21
3145.231865248048
  0
LINE
  5
37E
100
AcDbEntity
  8
2
  6
CONTINUOUS
 62
           7
100
AcDbLine
 10
-112.242370399996
 20
2708.603984566912
 11
-125.496396799998
 21
2740.403984566913
  0
LINE
  5
37D
100
AcDbEntity
  8
2
  6
CONTINUOUS
 62
           7
100
AcDbLine
 10
-119.744649199995
 20
3112.186819200002
 11
-125.496396799998
 21
3098.386819200004
  0
LINE
  5
37C
100
AcDbEntity
  8
2
  6
CONTINUOUS
 62
           7
100
AcDbLine
 10
-125.496396799998
 20
2740.403984566913
 11
-125.496396799998
 21
3098.386819200004
  0
LINE
  5
37B
100
AcDbEntity
  8
2
  6
CONTINUOUS
 62
           4
100
AcDbLine
 10
-107.059999999998
 20
2708.603984566912
 11
-107.059999999998
 21
2704.503984566912
  0
LINE
  5
37A
100
AcDbEntity
  8
2
  6
CONTINUOUS
 62
           7
100
AcDbLine
 10
122.496396800005
 20
3098.386819200004
 11
116.744649200005
 21
3112.186819200002
  0
LINE
  5
379
100
AcDbEntity
  8
2
  6
CONTINUOUS
 62
           4
100
AcDbLine
 10
109.242370400003
 20
2708.603984566912
 11
-112.242370399996
 21
2708.603984566912
  0
LINE
  5
378
100
AcDbEntity
  8
2
  6
CONTINUOUS
 62
           7
100
AcDbLine
 10
122.496396800005
 20
2740.403984566913
 11
122.496396800005
 21
3098.386819200004
  0
LINE
  5
377
100
AcDbEntity
  8
2
  6
CONTINUOUS
 62
           7
100
AcDbLine
 10
122.496396800005
 20
2740.403984566913
 11
109.242370400003
 21
2708.603984566912
  0
LINE
  5
376
100
AcDbEntity
  8
7
  6
CONTINUOUS
 62
           7
100
AcDbLine
 10
-88.519999999997
 20
3208.000000000004
 11
85.520000000004
 21
3208.000000000004
  0
LINE
  5
375
100
AcDbEntity
  8
7
  6
CONTINUOUS
 62
           7
100
AcDbLine
 10
90.383416400004
 20
3202.483396000004
 11
115.131240800005
 21
3182.634035200007
  0
LINE
  5
374
100
AcDbEntity
  8
7
  6
CONTINUOUS
 62
           7
100
AcDbLine
 10
-120.190427599995
 20
3182.200000000005
 11
117.560000000005
 21
3182.200000000005
  0
LINE
  5
373
100
AcDbEntity
  8
7
  6
CONTINUOUS
 62
           7
100
AcDbLine
 10
121.400000000005
 20
3178.360000000006
 11
125.000000000004
 21
3145.231865248048
  0
LINE
  5
372
100
AcDbEntity
  8
7
  6
CONTINUOUS
 62
           7
100
AcDbLine
 10
125.000000000004
 20
3112.186819200002
 11
-124.999999999996
 21
3112.186819200002
  0
LINE
  5
371
100
AcDbEntity
  8
7
  6
CONTINUOUS
 62
           7
100
AcDbLine
 10
-124.999999999996
 20
3112.186819200002
 11
-124.999999999996
 21
3145.231865248048
  0
LINE
  5
370
100
AcDbEntity
  8
7
  6
CONTINUOUS
 62
           7
100
AcDbLine
 10
-93.383417599995
 20
3202.483396000004
 11
-117.977411599997
 21
3184.395737200004
  0
LINE
  5
36F
100
AcDbEntity
  8
1
  6
CONTINUOUS
 62
           7
100
AcDbLine
 10
185.000000000007
 20
2852.5
 11
134.496396800005
 21
2852.5
  0
LINE
  5
36E
100
AcDbEntity
  8
1
  6
CONTINUOUS
 62
           7
100
AcDbLine
 10
134.496396800005
 20
2952.5
 11
185.000000000007
 21
2952.5
  0
LINE
  5
36D
100
AcDbEntity
  8
1
  6
CONTINUOUS
 62
           7
100
AcDbLine
 10
122.496396800005
 20
2864.5
 11
122.496396800005
 21
2940.5
  0
LINE
  5
36C
100
AcDbEntity
  8
1
  6
CONTINUOUS
 62
           7
100
AcDbLine
 10
197.000000000007
 20
2940.5
 11
197.000000000007
 21
2864.5
  0
LINE
  5
36B
100
AcDbEntity
  8
1
  6
CONTINUOUS
 62
           7
100
AcDbLine
 10
522.588132285822
 20
2182.000000000004
 11
522.588132285822
 21
2660.503984566913
  0
LINE
  5
36A
100
AcDbEntity
  8
976
  6
CONTINUOUS
 62
           7
100
AcDbLine
 10
505.0
 20
2165.500000000004
 11
-739.999999999996
 21
2165.500000000004
  0
LINE
  5
369
100
AcDbEntity
  8
1
  6
CONTINUOUS
 62
           7
100
AcDbLine
 10
-768.999999999996
 20
6614.999999999998
 11
41.000000000004
 21
6614.999999999998
  0
LINE
  5
368
100
AcDbEntity
  8
1
  6
CONTINUOUS
 62
           7
100
AcDbLine
 10
-763.999999999996
 20
6574.999999999998
 11
-768.999999999996
 21
6579.999999999998
  0
LINE
  5
367
100
AcDbEntity
  8
1
  6
CONTINUOUS
 62
           7
100
AcDbLine
 10
36.000000000004
 20
6574.999999999998
 11
41.000000000004
 21
6579.999999999998
  0
LINE
  5
366
100
AcDbEntity
  8
1
  6
CONTINUOUS
 62
           7
100
AcDbLine
 10
36.000000000004
 20
6574.999999999998
 11
-763.999999999996
 21
6574.999999999998
  0
LINE
  5
365
100
AcDbEntity
  8
1
  6
CONTINUOUS
 62
           7
100
AcDbLine
 10
-768.999999999996
 20
6579.999999999998
 11
-768.999999999996
 21
6614.999999999998
  0
LINE
  5
364
100
AcDbEntity
  8
1
  6
CONTINUOUS
 62
           7
100
AcDbLine
 10
41.000000000004
 20
6614.999999999998
 11
41.000000000004
 21
6579.999999999998
  0
LINE
  5
363
100
AcDbEntity
  8
1
  6
CONTINUOUS
 62
           4
100
AcDbLine
 10
41.000000000004
 20
6610.499999999998
 11
-768.999999999996
 21
6610.499999999998
  0
LINE
  5
362
100
AcDbEntity
  8
1
  6
CONTINUOUS
 62
           4
100
AcDbLine
 10
-768.999999999996
 20
6619.499999999996
 11
41.000000000004
 21
6619.499999999998
  0
LINE
  5
361
100
AcDbEntity
  8
1
  6
CONTINUOUS
 62
           7
100
AcDbLine
 10
41.000000000004
 20
6649.999999999998
 11
41.000000000004
 21
6614.999999999998
  0
LINE
  5
360
100
AcDbEntity
  8
1
  6
CONTINUOUS
 62
           7
100
AcDbLine
 10
-768.999999999996
 20
6614.999999999998
 11
-768.999999999996
 21
6649.999999999998
  0
LINE
  5
35F
100
AcDbEntity
  8
1
  6
CONTINUOUS
 62
           7
100
AcDbLine
 10
-763.999999999996
 20
6654.999999999996
 11
36.000000000004
 21
6654.999999999998
  0
LINE
  5
35E
100
AcDbEntity
  8
1
  6
CONTINUOUS
 62
           7
100
AcDbLine
 10
41.000000000004
 20
6649.999999999998
 11
36.000000000004
 21
6654.999999999998
  0
LINE
  5
35D
100
AcDbEntity
  8
1
  6
CONTINUOUS
 62
           7
100
AcDbLine
 10
-768.999999999996
 20
6649.999999999998
 11
-763.999999999996
 21
6654.999999999996
  0
LINE
  5
35C
100
AcDbEntity
  8
1
  6
CONTINUOUS
 62
           7
100
AcDbLine
 10
527.411867714181
 20
5990.222691958723
 11
-63.022294576585
 21
5399.788529667957
  0
LINE
  5
35B
100
AcDbEntity
  8
1
  6
CONTINUOUS
 62
           7
100
AcDbLine
 10
-729.116882454313
 20
6065.883117545685
 11
-63.022294576585
 21
5399.788529667957
  0
LINE
  5
35A
100
AcDbEntity
  8
1
  6
CONTINUOUS
 62
           7
100
AcDbLine
 10
496.000000000004
 20
6173.000159772886
 11
182.000000000004
 21
6486.999999999998
  0
LINE
  5
359
100
AcDbEntity
  8
1
  6
CONTINUOUS
 62
           7
100
AcDbLine
 10
-729.116882454313
 20
6065.883117545685
 11
-219.999999999996
 21
6574.999999999998
  0
LINE
  5
358
100
AcDbEntity
  8
0
  6
CONTINUOUS
 62
           7
100
AcDbLine
 10
0.000000000004
 20
6564.999999999998
 11
0.000000000004
 21
6574.999999999998
  0
LINE
  5
357
100
AcDbEntity
  8
1
  6
CONTINUOUS
 62
           7
100
AcDbLine
 10
0.000000000004
 20
6564.999999999998
 11
0.000000000004
 21
6574.999999999998
  0
LINE
  5
356
100
AcDbEntity
  8
0
  6
CONTINUOUS
 62
           7
100
AcDbLine
 10
-729.999999999996
 20
6574.999999999998
 11
-729.999999999996
 21
6564.999999999998
  0
LINE
  5
355
100
AcDbEntity
  8
0
  6
CONTINUOUS
 62
           7
100
AcDbLine
 10
-737.999999999996
 20
6554.999999999998
 11
-737.999999999996
 21
6104.999999999998
  0
LINE
  5
354
100
AcDbEntity
  8
0
  6
CONTINUOUS
 62
           7
100
AcDbLine
 10
-729.999999999996
 20
6564.999999999998
 11
-737.999999999996
 21
6554.999999999998
  0
LINE
  5
353
100
AcDbEntity
  8
0
  6
CONTINUOUS
 62
           7
100
AcDbLine
 10
30.724756890086
 20
6511.783160015502
 11
0.000000000004
 21
6564.999999999998
  0
LINE
  5
352
100
AcDbEntity
  8
1
  6
CONTINUOUS
 62
           7
100
AcDbLine
 10
-225.999999999996
 20
6290.999999999998
 11
-225.999999999996
 21
5804.999999999998
  0
LINE
  5
351
100
AcDbEntity
  8
1
  6
CONTINUOUS
 62
           7
100
AcDbLine
 10
226.000000000004
 20
6290.999999999998
 11
-259.999999999996
 21
6290.999999999998
  0
LINE
  5
350
100
AcDbEntity
  8
1
  6
CONTINUOUS
 62
           7
100
AcDbLine
 10
-225.999999999996
 20
5838.999999999998
 11
260.000000000004
 21
5838.999999999998
  0
LINE
  5
34F
100
AcDbEntity
  8
1
  6
CONTINUOUS
 62
           7
100
AcDbLine
 10
226.000000000004
 20
5838.999999999998
 11
226.000000000004
 21
6324.999999999998
  0
LINE
  5
34E
100
AcDbEntity
  8
1
  6
DOT_CENTER
 62
           2
100
AcDbLine
 10
-364.999999999996
 20
6708.027293831614
 11
-364.999999999996
 21
6261.695406410116
  0
LINE
  5
34D
100
AcDbEntity
  8
1
  6
CONTINUOUS
 62
           7
100
AcDbLine
 10
197.000000000004
 20
6116.5
 11
197.000000000004
 21
6013.5
  0
LINE
  5
34C
100
AcDbEntity
  8
1
  6
CONTINUOUS
 62
           7
100
AcDbLine
 10
132.8249665982
 20
6013.5
 11
132.8249665982
 21
6116.5
  0
LINE
  5
34B
100
AcDbEntity
  8
1
  6
CONTINUOUS
 62
           7
100
AcDbLine
 10
144.8249665982
 20
6128.5
 11
185.000000000004
 21
6128.5
  0
LINE
  5
34A
100
AcDbEntity
  8
1
  6
CONTINUOUS
 62
           7
100
AcDbLine
 10
185.000000000004
 20
6001.5
 11
144.8249665982
 21
6001.5
  0
LINE
  5
349
100
AcDbEntity
  8
1
  6
CONTINUOUS
 62
           4
100
AcDbLine
 10
134.432661752788
 20
6122.5
 11
117.908702762052
 21
6122.5
  0
LINE
  5
348
100
AcDbEntity
  8
1
  6
CONTINUOUS
 62
           4
100
AcDbLine
 10
134.432661752788
 20
6007.5
 11
117.908702762052
 21
6007.5
  0
LINE
  5
347
100
AcDbEntity
  8
1
  6
CONTINUOUS
 62
           3
100
AcDbLine
 10
6022.041999960022
 20
1935.969655114603
 11
6016.367959937203
 21
1932.69374658004
  0
LINE
  5
346
100
AcDbEntity
  8
1
  6
CONTINUOUS
 62
           3
100
AcDbLine
 10
6031.541999960022
 20
1930.484827557302
 11
6022.041999960022
 21
1935.969655114603
  0
LINE
  5
345
100
AcDbEntity
  8
1
  6
CONTINUOUS
 62
           3
100
AcDbLine
 10
6031.541999960022
 20
1919.5151724427
 11
6031.541999960022
 21
1930.484827557302
  0
LINE
  5
344
100
AcDbEntity
  8
1
  6
CONTINUOUS
 62
           3
100
AcDbLine
 10
6022.041999960022
 20
1914.030344885397
 11
6031.541999960022
 21
1919.5151724427
  0
LINE
  5
343
100
AcDbEntity
  8
1
  6
CONTINUOUS
 62
           3
100
AcDbLine
 10
6016.36795993721
 20
1917.30625341996
 11
6022.041999960022
 21
1914.030344885397
  0
LINE
  5
342
100
AcDbEntity
  8
1
  6
DOT_CENTER
 62
           3
100
AcDbLine
 10
5998.096951827602
 20
1925.0
 11
6039.546127531421
 21
1925.0
  0
LINE
  5
341
100
AcDbEntity
  8
1
  6
CONTINUOUS
 62
           3
100
AcDbLine
 10
6011.267647140923
 20
1916.75
 11
6011.267647140923
 21
1917.30625341996
  0
LINE
  5
340
100
AcDbEntity
  8
1
  6
CONTINUOUS
 62
           3
100
AcDbLine
 10
6011.267647140923
 20
1916.75
 11
6001.593036175624
 21
1916.75
  0
LINE
  5
33F
100
AcDbEntity
  8
1
  6
CONTINUOUS
 62
           3
100
AcDbLine
 10
6001.593036175624
 20
1916.75
 11
6001.593036175624
 21
1925.0
  0
LINE
  5
33E
100
AcDbEntity
  8
1
  6
CONTINUOUS
 62
           3
100
AcDbLine
 10
6001.593036175624
 20
1919.0
 11
6000.747230653442
 21
1919.0
  0
LINE
  5
33D
100
AcDbEntity
  8
1
  6
CONTINUOUS
 62
           3
100
AcDbLine
 10
6000.747230653442
 20
1917.30625341996
 11
6000.747230653442
 21
1925.0
  0
LINE
  5
33C
100
AcDbEntity
  8
1
  6
CONTINUOUS
 62
           3
100
AcDbLine
 10
6000.747230653442
 20
1917.30625341996
 11
6000.041999960022
 21
1917.30625341996
  0
LINE
  5
33B
100
AcDbEntity
  8
1
  6
CONTINUOUS
 62
           3
100
AcDbLine
 10
5999.541999960022
 20
1925.0
 11
5999.541999960022
 21
1917.80625341996
  0
LINE
  5
33A
100
AcDbEntity
  8
1
  6
CONTINUOUS
 62
           3
100
AcDbLine
 10
5999.541999960022
 20
1932.19374658004
 11
5999.541999960022
 21
1925.0
  0
LINE
  5
339
100
AcDbEntity
  8
1
  6
CONTINUOUS
 62
           3
100
AcDbLine
 10
6000.041999960022
 20
1932.69374658004
 11
6000.747230653442
 21
1932.69374658004
  0
LINE
  5
338
100
AcDbEntity
  8
1
  6
CONTINUOUS
 62
           3
100
AcDbLine
 10
6000.747230653442
 20
1925.0
 11
6000.747230653442
 21
1932.69374658004
  0
LINE
  5
337
100
AcDbEntity
  8
1
  6
CONTINUOUS
 62
           3
100
AcDbLine
 10
6000.747230653442
 20
1931.0
 11
6001.593036175624
 21
1931.0
  0
LINE
  5
336
100
AcDbEntity
  8
1
  6
CONTINUOUS
 62
           3
100
AcDbLine
 10
6001.593036175624
 20
1933.25
 11
6011.267647140923
 21
1933.25
  0
LINE
  5
335
100
AcDbEntity
  8
1
  6
CONTINUOUS
 62
           3
100
AcDbLine
 10
6001.593036175624
 20
1925.0
 11
6001.593036175624
 21
1933.25
  0
LINE
  5
334
100
AcDbEntity
  8
1
  6
CONTINUOUS
 62
           3
100
AcDbLine
 10
6011.267647140923
 20
1932.69374658004
 11
6011.267647140923
 21
1933.25
  0
LINE
  5
333
100
AcDbEntity
  8
1
  6
CONTINUOUS
 62
           3
100
AcDbLine
 10
6011.267647140923
 20
1917.30625341996
 11
6011.267647140923
 21
1932.69374658004
  0
LINE
  5
332
100
AcDbEntity
  8
1
  6
CONTINUOUS
 62
           3
100
AcDbLine
 10
6017.132762687614
 20
1917.30625341996
 11
6017.132762687614
 21
1932.69374658004
  0
LINE
  5
331
100
AcDbEntity
  8
1
  6
CONTINUOUS
 62
           3
100
AcDbLine
 10
6017.132762687614
 20
1917.30625341996
 11
6011.267647140923
 21
1917.30625341996
  0
LINE
  5
330
100
AcDbEntity
  8
1
  6
CONTINUOUS
 62
           3
100
AcDbLine
 10
6017.132762687614
 20
1932.69374658004
 11
6011.267647140923
 21
1932.69374658004
  0
LINE
  5
32F
100
AcDbEntity
  8
1
  6
CONTINUOUS
 62
           3
100
AcDbLine
 10
6017.132762687614
 20
1930.871834995069
 11
6022.041999960022
 21
1930.871834995069
  0
LINE
  5
32E
100
AcDbEntity
  8
1
  6
DOT_CENTER
 62
           3
100
AcDbLine
 10
6022.041999960022
 20
1938.643555804874
 11
6022.041999960022
 21
1907.508008255125
  0
LINE
  5
32D
100
AcDbEntity
  8
1
  6
CONTINUOUS
 62
           3
100
AcDbLine
 10
6022.041999960022
 20
1919.128165004933
 11
6017.132762687614
 21
1919.128165004933
  0
LINE
  5
32C
100
AcDbEntity
  8
0
  6
CONTINUOUS
 62
           3
100
AcDbLine
 10
5516.723155763153
 20
1393.116392195192
 11
5517.778428990654
 21
1393.131740391393
  0
LINE
  5
32B
100
AcDbEntity
  8
0
  6
CONTINUOUS
 62
           3
100
AcDbLine
 10
5515.782237772255
 20
1393.072016537193
 11
5516.723155763153
 21
1393.116392195192
  0
LINE
  5
32A
100
AcDbEntity
  8
0
  6
CONTINUOUS
 62
           3
100
AcDbLine
 10
5515.057637842552
 20
1393.003411590991
 11
5515.782237772255
 21
1393.072016537193
  0
LINE
  5
329
100
AcDbEntity
  8
0
  6
CONTINUOUS
 62
           3
100
AcDbLine
 10
5514.627878109355
 20
1392.918020486792
 11
5515.057637842552
 21
1393.003411590991
  0
LINE
  5
328
100
AcDbEntity
  8
0
  6
CONTINUOUS
 62
           3
100
AcDbLine
 10
5514.539529357351
 20
1392.825089394992
 11
5514.627878109355
 21
1392.918020486792
  0
LINE
  5
327
100
AcDbEntity
  8
0
  6
CONTINUOUS
 62
           3
100
AcDbLine
 10
5514.778428964555
 20
1392.739541828792
 11
5514.539529357351
 21
1392.825089394992
  0
LINE
  5
326
100
AcDbEntity
  8
0
  6
CONTINUOUS
 62
           3
100
AcDbLine
 10
5521.017328623942
 20
1392.825089394992
 11
5520.778429016742
 21
1392.739541828792
  0
LINE
  5
325
100
AcDbEntity
  8
0
  6
CONTINUOUS
 62
           3
100
AcDbLine
 10
5520.928979871942
 20
1392.918020486792
 11
5521.017328623942
 21
1392.825089394992
  0
LINE
  5
324
100
AcDbEntity
  8
0
  6
CONTINUOUS
 62
           3
100
AcDbLine
 10
5520.499220138743
 20
1393.003411590991
 11
5520.928979871942
 21
1392.918020486792
  0
LINE
  5
323
100
AcDbEntity
  8
0
  6
CONTINUOUS
 62
           3
100
AcDbLine
 10
5519.774620209042
 20
1393.072016537193
 11
5520.499220138743
 21
1393.003411590991
  0
LINE
  5
322
100
AcDbEntity
  8
0
  6
CONTINUOUS
 62
           3
100
AcDbLine
 10
5518.833702218153
 20
1393.116392195192
 11
5519.774620209042
 21
1393.072016537193
  0
LINE
  5
321
100
AcDbEntity
  8
0
  6
CONTINUOUS
 62
           3
100
AcDbLine
 10
5517.778428990654
 20
1393.131740391393
 11
5518.833702218153
 21
1393.116392195192
  0
LINE
  5
320
100
AcDbEntity
  8
FORMAT
  6
CONTINUOUS
 62
           3
100
AcDbLine
 10
5514.278428990552
 20
1392.596845102893
 11
5503.778428990563
 21
1392.596845102893
  0
LINE
  5
31F
100
AcDbEntity
  8
FORMAT
  6
DOT_CENTER
 62
           3
100
AcDbLine
 10
5517.778428990654
 20
1249.759397252255
 11
5517.778428990654
 21
1725.39439076857
  0
LINE
  5
31E
100
AcDbEntity
  8
FORMAT
  6
CONTINUOUS
 62
           3
100
AcDbLine
 10
5521.278428990743
 20
1392.596845102893
 11
5514.278428990552
 21
1392.596845102893
  0
LINE
  5
31D
100
AcDbEntity
  8
FORMAT
  6
CONTINUOUS
 62
           3
100
AcDbLine
 10
5531.778428990734
 20
1392.596845102893
 11
5521.278428990743
 21
1392.596845102893
  0
LINE
  5
31C
100
AcDbEntity
  8
FORMAT
  6
DOT_CENTER
 62
           3
100
AcDbLine
 10
5442.878428990613
 20
1375.000000000007
 11
5429.278428990723
 21
1375.000000000007
  0
LINE
  5
31B
100
AcDbEntity
  8
FORMAT
  6
DOT_CENTER
 62
           3
100
AcDbLine
 10
5442.878428990613
 20
1625.0
 11
5429.278428990723
 21
1625.0
  0
LINE
  5
31A
100
AcDbEntity
  8
0
  6
CONTINUOUS
 62
           3
100
AcDbLine
 10
5452.778431375
 20
1364.999994635815
 11
5437.378431458214
 21
1364.999994635815
  0
LINE
  5
319
100
AcDbEntity
  8
0
  6
CONTINUOUS
 62
           3
100
AcDbLine
 10
5456.278427292104
 20
1590.000003576231
 11
5456.278427292104
 21
1509.999999776395
  0
LINE
  5
318
100
AcDbEntity
  8
0
  6
CONTINUOUS
 62
           3
100
AcDbLine
 10
5459.278429646496
 20
1590.000003576231
 11
5456.278427292104
 21
1590.000003576231
  0
LINE
  5
317
100
AcDbEntity
  8
0
  6
CONTINUOUS
 62
           3
100
AcDbLine
 10
5459.278429646496
 20
1550.000000744964
 11
5459.278429646496
 21
1590.000003576231
  0
LINE
  5
316
100
AcDbEntity
  8
0
  6
CONTINUOUS
 62
           3
100
AcDbLine
 10
5459.278429646496
 20
1529.999999329481
 11
5459.278429646496
 21
1532.000001519878
  0
LINE
  5
315
100
AcDbEntity
  8
0
  6
CONTINUOUS
 62
           3
100
AcDbLine
 10
5456.278427292104
 20
1509.999999776395
 11
5457.853621591303
 21
1509.999999776395
  0
LINE
  5
314
100
AcDbEntity
  8
0
  6
CONTINUOUS
 62
           3
100
AcDbLine
 10
5577.7784276496
 20
1368.000000715314
 11
5577.7784276496
 21
1367.300003767014
  0
LINE
  5
313
100
AcDbEntity
  8
0
  6
CONTINUOUS
 62
           3
100
AcDbLine
 10
5582.778426606294
 20
1364.999994635815
 11
5582.778426606294
 21
1368.000000715314
  0
LINE
  5
312
100
AcDbEntity
  8
0
  6
CONTINUOUS
 62
           3
100
AcDbLine
 10
5582.778426606294
 20
1635.000005364196
 11
5582.778426606294
 21
1631.999999284697
  0
LINE
  5
311
100
AcDbEntity
  8
0
  6
CONTINUOUS
 62
           3
100
AcDbLine
 10
5577.7784276496
 20
1631.999999284697
 11
5577.7784276496
 21
1632.699996232994
  0
LINE
  5
310
100
AcDbEntity
  8
0
  6
CONTINUOUS
 62
           3
100
AcDbLine
 10
5457.778430331693
 20
1631.999999284697
 11
5457.778430331693
 21
1632.699996232994
  0
LINE
  5
30F
100
AcDbEntity
  8
0
  6
CONTINUOUS
 62
           3
100
AcDbLine
 10
5452.778431375
 20
1635.000005364196
 11
5452.778431375
 21
1631.999999284697
  0
LINE
  5
30E
100
AcDbEntity
  8
0
  6
CONTINUOUS
 62
           3
100
AcDbLine
 10
5452.778431375
 20
1635.000005364196
 11
5437.378431458214
 21
1635.000005364196
  0
LINE
  5
30D
100
AcDbEntity
  8
0
  6
CONTINUOUS
 62
           3
100
AcDbLine
 10
5452.778431375
 20
1364.999994635815
 11
5452.778431375
 21
1368.000000715314
  0
LINE
  5
30C
100
AcDbEntity
  8
0
  6
CONTINUOUS
 62
           3
100
AcDbLine
 10
5457.778430331693
 20
1368.000000715314
 11
5457.778430331693
 21
1367.300003767014
  0
LINE
  5
30B
100
AcDbEntity
  8
0
  6
CONTINUOUS
 62
           3
100
AcDbLine
 10
5456.278427292104
 20
1409.99999642378
 11
5456.278427292104
 21
1490.000000223612
  0
LINE
  5
30A
100
AcDbEntity
  8
0
  6
CONTINUOUS
 62
           3
100
AcDbLine
 10
5456.278427292104
 20
1490.000000223612
 11
5457.778430331693
 21
1490.000000223612
  0
LINE
  5
309
100
AcDbEntity
  8
0
  6
CONTINUOUS
 62
           3
100
AcDbLine
 10
5459.278429646496
 20
1431.999996304559
 11
5459.278429646496
 21
1429.999999701962
  0
LINE
  5
308
100
AcDbEntity
  8
0
  6
CONTINUOUS
 62
           3
100
AcDbLine
 10
5457.853621591303
 20
1409.99999642378
 11
5456.278427292104
 21
1409.99999642378
  0
LINE
  5
307
100
AcDbEntity
  8
0
  6
CONTINUOUS
 62
           3
100
AcDbLine
 10
5579.278430689205
 20
1590.000003576231
 11
5579.278430689205
 21
1509.999999776395
  0
LINE
  5
306
100
AcDbEntity
  8
0
  6
CONTINUOUS
 62
           3
100
AcDbLine
 10
5579.278430689205
 20
1509.999999776395
 11
5577.703236390002
 21
1509.999999776395
  0
LINE
  5
305
100
AcDbEntity
  8
0
  6
CONTINUOUS
 62
           3
100
AcDbLine
 10
5576.278428335105
 20
1550.000000744964
 11
5576.278428335105
 21
1590.000003576231
  0
LINE
  5
304
100
AcDbEntity
  8
0
  6
CONTINUOUS
 62
           3
100
AcDbLine
 10
5576.278428335105
 20
1529.999999329481
 11
5576.278428335105
 21
1532.000001519878
  0
LINE
  5
303
100
AcDbEntity
  8
0
  6
CONTINUOUS
 62
           3
100
AcDbLine
 10
5576.278428335105
 20
1590.000003576231
 11
5579.278430689205
 21
1590.000003576231
  0
LINE
  5
302
100
AcDbEntity
  8
0
  6
CONTINUOUS
 62
           3
100
AcDbLine
 10
5579.278430689205
 20
1409.99999642378
 11
5579.278430689205
 21
1490.000000223612
  0
LINE
  5
301
100
AcDbEntity
  8
0
  6
CONTINUOUS
 62
           3
100
AcDbLine
 10
5577.703236390002
 20
1409.99999642378
 11
5579.278430689205
 21
1409.99999642378
  0
LINE
  5
300
100
AcDbEntity
  8
0
  6
CONTINUOUS
 62
           3
100
AcDbLine
 10
5576.278428335105
 20
1431.999996304559
 11
5576.278428335105
 21
1429.999999701962
  0
LINE
  5
2FF
100
AcDbEntity
  8
0
  6
CONTINUOUS
 62
           3
100
AcDbLine
 10
5579.278430689205
 20
1490.000000223612
 11
5577.7784276496
 21
1490.000000223612
  0
LINE
  5
2FE
100
AcDbEntity
  8
0
  6
CONTINUOUS
 62
           3
100
AcDbLine
 10
5437.378431458214
 20
1635.000005364196
 11
5435.278425712313
 21
1635.000005364196
  0
LINE
  5
2FD
100
AcDbEntity
  8
0
  6
CONTINUOUS
 62
           3
100
AcDbLine
 10
5435.278425712313
 20
1635.000005364196
 11
5435.278425712313
 21
1364.999994635815
  0
LINE
  5
2FC
100
AcDbEntity
  8
0
  6
CONTINUOUS
 62
           3
100
AcDbLine
 10
5437.378431458214
 20
1364.999994635815
 11
5435.278425712313
 21
1364.999994635815
  0
LINE
  5
2FB
100
AcDbEntity
  8
0
  6
CONTINUOUS
 62
           3
100
AcDbLine
 10
5457.778430331693
 20
1366.600006818713
 11
5457.778430331693
 21
1367.300003767014
  0
LINE
  5
2FA
100
AcDbEntity
  8
0
  6
CONTINUOUS
 62
           3
100
AcDbLine
 10
5577.7784276496
 20
1366.600006818713
 11
5577.7784276496
 21
1367.300003767014
  0
LINE
  5
2F9
100
AcDbEntity
  8
0
  6
CONTINUOUS
 62
           3
100
AcDbLine
 10
5457.778430331693
 20
1633.399993180996
 11
5457.778430331693
 21
1632.699996232994
  0
LINE
  5
2F8
100
AcDbEntity
  8
0
  6
CONTINUOUS
 62
           3
100
AcDbLine
 10
5577.7784276496
 20
1633.399993180996
 11
5577.7784276496
 21
1632.699996232994
  0
LINE
  5
2F7
100
AcDbEntity
  8
0
  6
CONTINUOUS
 62
           3
100
AcDbLine
 10
5572.778428692602
 20
1633.399993180996
 11
5577.7784276496
 21
1633.399993180996
  0
LINE
  5
2F6
100
AcDbEntity
  8
0
  6
CONTINUOUS
 62
           3
100
AcDbLine
 10
5577.7784276496
 20
1635.000005364196
 11
5572.778428692602
 21
1635.000005364196
  0
LINE
  5
2F5
100
AcDbEntity
  8
0
  6
CONTINUOUS
 62
           3
100
AcDbLine
 10
5577.7784276496
 20
1633.399993180996
 11
5577.7784276496
 21
1635.000005364196
  0
LINE
  5
2F4
100
AcDbEntity
  8
0
  6
CONTINUOUS
 62
           3
100
AcDbLine
 10
5572.778428692602
 20
1366.600006818713
 11
5577.7784276496
 21
1366.600006818713
  0
LINE
  5
2F3
100
AcDbEntity
  8
0
  6
CONTINUOUS
 62
           3
100
AcDbLine
 10
5577.7784276496
 20
1364.999994635815
 11
5572.778428692602
 21
1364.999994635815
  0
LINE
  5
2F2
100
AcDbEntity
  8
0
  6
CONTINUOUS
 62
           3
100
AcDbLine
 10
5577.7784276496
 20
1366.600006818713
 11
5577.7784276496
 21
1364.999994635815
  0
LINE
  5
2F1
100
AcDbEntity
  8
0
  6
CONTINUOUS
 62
           3
100
AcDbLine
 10
5562.778430778611
 20
1366.600006818713
 11
5564.778427381212
 21
1366.600006818713
  0
LINE
  5
2F0
100
AcDbEntity
  8
0
  6
CONTINUOUS
 62
           3
100
AcDbLine
 10
5564.778427381212
 20
1364.999994635815
 11
5562.778430778611
 21
1364.999994635815
  0
LINE
  5
2EF
100
AcDbEntity
  8
0
  6
CONTINUOUS
 62
           3
100
AcDbLine
 10
5564.778427381212
 20
1366.600006818713
 11
5564.778427381212
 21
1364.999994635815
  0
LINE
  5
2EE
100
AcDbEntity
  8
0
  6
CONTINUOUS
 62
           3
100
AcDbLine
 10
5562.778430778611
 20
1633.399993180996
 11
5564.778427381212
 21
1633.399993180996
  0
LINE
  5
2ED
100
AcDbEntity
  8
0
  6
CONTINUOUS
 62
           3
100
AcDbLine
 10
5564.778427381212
 20
1635.000005364196
 11
5562.778430778611
 21
1635.000005364196
  0
LINE
  5
2EC
100
AcDbEntity
  8
0
  6
CONTINUOUS
 62
           3
100
AcDbLine
 10
5564.778427381212
 20
1633.399993180996
 11
5564.778427381212
 21
1635.000005364196
  0
LINE
  5
2EB
100
AcDbEntity
  8
0
  6
CONTINUOUS
 62
           3
100
AcDbLine
 10
5570.7784283649
 20
1366.600006818713
 11
5572.778428692602
 21
1366.600006818713
  0
LINE
  5
2EA
100
AcDbEntity
  8
0
  6
CONTINUOUS
 62
           3
100
AcDbLine
 10
5572.778428692602
 20
1364.999994635815
 11
5570.7784283649
 21
1364.999994635815
  0
LINE
  5
2E9
100
AcDbEntity
  8
0
  6
CONTINUOUS
 62
           3
100
AcDbLine
 10
5570.7784283649
 20
1364.999994635815
 11
5570.7784283649
 21
1366.600006818713
  0
LINE
  5
2E8
100
AcDbEntity
  8
0
  6
CONTINUOUS
 62
           3
100
AcDbLine
 10
5570.7784283649
 20
1633.399993180996
 11
5572.778428692602
 21
1633.399993180996
  0
LINE
  5
2E7
100
AcDbEntity
  8
0
  6
CONTINUOUS
 62
           3
100
AcDbLine
 10
5572.778428692602
 20
1635.000005364196
 11
5570.7784283649
 21
1635.000005364196
  0
LINE
  5
2E6
100
AcDbEntity
  8
0
  6
CONTINUOUS
 62
           3
100
AcDbLine
 10
5570.7784283649
 20
1635.000005364196
 11
5570.7784283649
 21
1633.399993180996
  0
LINE
  5
2E5
100
AcDbEntity
  8
0
  6
CONTINUOUS
 62
           3
100
AcDbLine
 10
5462.778429288692
 20
1633.399993180996
 11
5457.778430331693
 21
1633.399993180996
  0
LINE
  5
2E4
100
AcDbEntity
  8
0
  6
CONTINUOUS
 62
           3
100
AcDbLine
 10
5457.778430331693
 20
1635.000005364196
 11
5462.778429288692
 21
1635.000005364196
  0
LINE
  5
2E3
100
AcDbEntity
  8
0
  6
CONTINUOUS
 62
           3
100
AcDbLine
 10
5457.778430331693
 20
1633.399993180996
 11
5457.778430331693
 21
1635.000005364196
  0
LINE
  5
2E2
100
AcDbEntity
  8
0
  6
CONTINUOUS
 62
           3
100
AcDbLine
 10
5462.778429288692
 20
1366.600006818713
 11
5457.778430331693
 21
1366.600006818713
  0
LINE
  5
2E1
100
AcDbEntity
  8
0
  6
CONTINUOUS
 62
           3
100
AcDbLine
 10
5457.778430331693
 20
1364.999994635815
 11
5462.778429288692
 21
1364.999994635815
  0
LINE
  5
2E0
100
AcDbEntity
  8
0
  6
CONTINUOUS
 62
           3
100
AcDbLine
 10
5457.778430331693
 20
1366.600006818713
 11
5457.778430331693
 21
1364.999994635815
  0
LINE
  5
2DF
100
AcDbEntity
  8
0
  6
CONTINUOUS
 62
           3
100
AcDbLine
 10
5472.778427202682
 20
1633.399993180996
 11
5562.778430778611
 21
1633.399993180996
  0
LINE
  5
2DE
100
AcDbEntity
  8
0
  6
CONTINUOUS
 62
           3
100
AcDbLine
 10
5472.778427202682
 20
1635.000005364196
 11
5562.778430778611
 21
1635.000005364196
  0
LINE
  5
2DD
100
AcDbEntity
  8
0
  6
CONTINUOUS
 62
           3
100
AcDbLine
 10
5472.778427202682
 20
1366.600006818713
 11
5562.778430778611
 21
1366.600006818713
  0
LINE
  5
2DC
100
AcDbEntity
  8
0
  6
CONTINUOUS
 62
           3
100
AcDbLine
 10
5472.778427202682
 20
1364.999994635815
 11
5562.778430778611
 21
1364.999994635815
  0
LINE
  5
2DB
100
AcDbEntity
  8
0
  6
CONTINUOUS
 62
           3
100
AcDbLine
 10
5472.778427202682
 20
1366.600006818713
 11
5470.778430600083
 21
1366.600006818713
  0
LINE
  5
2DA
100
AcDbEntity
  8
0
  6
CONTINUOUS
 62
           3
100
AcDbLine
 10
5470.778430600083
 20
1366.600006818713
 11
5470.778430600083
 21
1364.999994635815
  0
LINE
  5
2D9
100
AcDbEntity
  8
0
  6
CONTINUOUS
 62
           3
100
AcDbLine
 10
5470.778430600083
 20
1364.999994635815
 11
5472.778427202682
 21
1364.999994635815
  0
LINE
  5
2D8
100
AcDbEntity
  8
0
  6
CONTINUOUS
 62
           3
100
AcDbLine
 10
5472.778427202682
 20
1633.399993180996
 11
5470.778430600083
 21
1633.399993180996
  0
LINE
  5
2D7
100
AcDbEntity
  8
0
  6
CONTINUOUS
 62
           3
100
AcDbLine
 10
5470.778430600083
 20
1635.000005364196
 11
5472.778427202682
 21
1635.000005364196
  0
LINE
  5
2D6
100
AcDbEntity
  8
0
  6
CONTINUOUS
 62
           3
100
AcDbLine
 10
5470.778430600083
 20
1633.399993180996
 11
5470.778430600083
 21
1635.000005364196
  0
LINE
  5
2D5
100
AcDbEntity
  8
0
  6
CONTINUOUS
 62
           3
100
AcDbLine
 10
5464.778429616692
 20
1633.399993180996
 11
5462.778429288692
 21
1633.399993180996
  0
LINE
  5
2D4
100
AcDbEntity
  8
0
  6
CONTINUOUS
 62
           3
100
AcDbLine
 10
5464.778429616692
 20
1635.000005364196
 11
5464.778429616692
 21
1633.399993180996
  0
LINE
  5
2D3
100
AcDbEntity
  8
0
  6
CONTINUOUS
 62
           3
100
AcDbLine
 10
5462.778429288692
 20
1635.000005364196
 11
5464.778429616692
 21
1635.000005364196
  0
LINE
  5
2D2
100
AcDbEntity
  8
0
  6
CONTINUOUS
 62
           3
100
AcDbLine
 10
5464.778429616692
 20
1366.600006818713
 11
5462.778429288692
 21
1366.600006818713
  0
LINE
  5
2D1
100
AcDbEntity
  8
0
  6
CONTINUOUS
 62
           3
100
AcDbLine
 10
5462.778429288692
 20
1364.999994635815
 11
5464.778429616692
 21
1364.999994635815
  0
LINE
  5
2D0
100
AcDbEntity
  8
0
  6
CONTINUOUS
 62
           3
100
AcDbLine
 10
5464.778429616692
 20
1364.999994635815
 11
5464.778429616692
 21
1366.600006818713
  0
LINE
  5
2CF
100
AcDbEntity
  8
0
  6
CONTINUOUS
 62
           3
100
AcDbLine
 10
5577.703236390002
 20
1409.99999642378
 11
5576.078428674604
 21
1409.99999642378
  0
LINE
  5
2CE
100
AcDbEntity
  8
0
  6
CONTINUOUS
 62
           3
100
AcDbLine
 10
5576.078428674604
 20
1429.999999701962
 11
5577.7784276496
 21
1429.999999701962
  0
LINE
  5
2CD
100
AcDbEntity
  8
0
  6
CONTINUOUS
 62
           3
100
AcDbLine
 10
5577.7784276496
 20
1429.999999701962
 11
5577.7784276496
 21
1409.99999642378
  0
LINE
  5
2CC
100
AcDbEntity
  8
0
  6
CONTINUOUS
 62
           3
100
AcDbLine
 10
5457.778430331693
 20
1529.999999329481
 11
5459.478429306695
 21
1529.999999329481
  0
LINE
  5
2CB
100
AcDbEntity
  8
0
  6
CONTINUOUS
 62
           3
100
AcDbLine
 10
5457.778430331693
 20
1509.999999776395
 11
5457.778430331693
 21
1529.999999329481
  0
LINE
  5
2CA
100
AcDbEntity
  8
0
  6
CONTINUOUS
 62
           3
100
AcDbLine
 10
5459.478429306695
 20
1509.999999776395
 11
5457.853621591303
 21
1509.999999776395
  0
LINE
  5
2C9
100
AcDbEntity
  8
0
  6
CONTINUOUS
 62
           3
100
AcDbLine
 10
5457.853621591303
 20
1409.99999642378
 11
5459.478429306695
 21
1409.99999642378
  0
LINE
  5
2C8
100
AcDbEntity
  8
0
  6
CONTINUOUS
 62
           3
100
AcDbLine
 10
5459.478429306695
 20
1429.999999701962
 11
5457.778430331693
 21
1429.999999701962
  0
LINE
  5
2C7
100
AcDbEntity
  8
0
  6
CONTINUOUS
 62
           3
100
AcDbLine
 10
5457.778430331693
 20
1429.999999701962
 11
5457.778430331693
 21
1409.99999642378
  0
LINE
  5
2C6
100
AcDbEntity
  8
0
  6
CONTINUOUS
 62
           3
100
AcDbLine
 10
5459.478429306695
 20
1529.999999329481
 11
5459.778430659693
 21
1529.999999329481
  0
LINE
  5
2C5
100
AcDbEntity
  8
0
  6
CONTINUOUS
 62
           3
100
AcDbLine
 10
5459.778430659693
 20
1509.999999776395
 11
5459.478429306695
 21
1509.999999776395
  0
LINE
  5
2C4
100
AcDbEntity
  8
0
  6
CONTINUOUS
 62
           3
100
AcDbLine
 10
5457.778430331693
 20
1508.0000003799
 11
5459.778430659693
 21
1508.0000003799
  0
LINE
  5
2C3
100
AcDbEntity
  8
0
  6
CONTINUOUS
 62
           3
100
AcDbLine
 10
5457.778430331693
 20
1508.0000003799
 11
5457.778430331693
 21
1431.999996304559
  0
LINE
  5
2C2
100
AcDbEntity
  8
0
  6
CONTINUOUS
 62
           3
100
AcDbLine
 10
5457.778430331693
 20
1431.999996304559
 11
5459.778430659693
 21
1431.999996304559
  0
LINE
  5
2C1
100
AcDbEntity
  8
0
  6
CONTINUOUS
 62
           3
100
AcDbLine
 10
5459.778430659693
 20
1429.999999701962
 11
5459.478429306695
 21
1429.999999701962
  0
LINE
  5
2C0
100
AcDbEntity
  8
0
  6
CONTINUOUS
 62
           3
100
AcDbLine
 10
5459.478429306695
 20
1409.99999642378
 11
5459.778430659693
 21
1409.99999642378
  0
LINE
  5
2BF
100
AcDbEntity
  8
0
  6
CONTINUOUS
 62
           3
100
AcDbLine
 10
5459.778430659693
 20
1407.999999821182
 11
5457.778430331693
 21
1407.999999821182
  0
LINE
  5
2BE
100
AcDbEntity
  8
0
  6
CONTINUOUS
 62
           3
100
AcDbLine
 10
5457.778430331693
 20
1391.699999570792
 11
5457.778430331693
 21
1407.999999821182
  0
LINE
  5
2BD
100
AcDbEntity
  8
0
  6
CONTINUOUS
 62
           3
100
AcDbLine
 10
5577.7784276496
 20
1391.699999570792
 11
5577.7784276496
 21
1407.999999821182
  0
LINE
  5
2BC
100
AcDbEntity
  8
0
  6
CONTINUOUS
 62
           3
100
AcDbLine
 10
5575.778427321602
 20
1407.999999821182
 11
5577.7784276496
 21
1407.999999821182
  0
LINE
  5
2BB
100
AcDbEntity
  8
0
  6
CONTINUOUS
 62
           3
100
AcDbLine
 10
5576.078428674604
 20
1409.99999642378
 11
5575.778427321602
 21
1409.99999642378
  0
LINE
  5
2BA
100
AcDbEntity
  8
0
  6
CONTINUOUS
 62
           3
100
AcDbLine
 10
5575.778427321602
 20
1429.999999701962
 11
5576.078428674604
 21
1429.999999701962
  0
LINE
  5
2B9
100
AcDbEntity
  8
0
  6
CONTINUOUS
 62
           3
100
AcDbLine
 10
5577.7784276496
 20
1431.999996304559
 11
5575.778427321602
 21
1431.999996304559
  0
LINE
  5
2B8
100
AcDbEntity
  8
0
  6
CONTINUOUS
 62
           3
100
AcDbLine
 10
5577.7784276496
 20
1508.0000003799
 11
5577.7784276496
 21
1431.999996304559
  0
LINE
  5
2B7
100
AcDbEntity
  8
0
  6
CONTINUOUS
 62
           3
100
AcDbLine
 10
5577.7784276496
 20
1508.0000003799
 11
5575.778427321602
 21
1508.0000003799
  0
LINE
  5
2B6
100
AcDbEntity
  8
0
  6
CONTINUOUS
 62
           3
100
AcDbLine
 10
5575.778427321602
 20
1509.999999776395
 11
5576.078428674604
 21
1509.999999776395
  0
LINE
  5
2B5
100
AcDbEntity
  8
0
  6
CONTINUOUS
 62
           3
100
AcDbLine
 10
5576.078428674604
 20
1529.999999329481
 11
5575.778427321602
 21
1529.999999329481
  0
LINE
  5
2B4
100
AcDbEntity
  8
0
  6
CONTINUOUS
 62
           3
100
AcDbLine
 10
5575.778427321602
 20
1532.000001519878
 11
5577.7784276496
 21
1532.000001519878
  0
LINE
  5
2B3
100
AcDbEntity
  8
0
  6
CONTINUOUS
 62
           3
100
AcDbLine
 10
5577.7784276496
 20
1548.300001770265
 11
5577.7784276496
 21
1532.000001519878
  0
LINE
  5
2B2
100
AcDbEntity
  8
0
  6
CONTINUOUS
 62
           3
100
AcDbLine
 10
5457.778430331693
 20
1548.300001770265
 11
5457.778430331693
 21
1532.000001519878
  0
LINE
  5
2B1
100
AcDbEntity
  8
0
  6
CONTINUOUS
 62
           3
100
AcDbLine
 10
5459.778430659693
 20
1532.000001519878
 11
5457.778430331693
 21
1532.000001519878
  0
LINE
  5
2B0
100
AcDbEntity
  8
0
  6
CONTINUOUS
 62
           3
100
AcDbLine
 10
5576.078428674604
 20
1509.999999776395
 11
5577.703236390002
 21
1509.999999776395
  0
LINE
  5
2AF
100
AcDbEntity
  8
0
  6
CONTINUOUS
 62
           3
100
AcDbLine
 10
5577.7784276496
 20
1509.999999776395
 11
5577.7784276496
 21
1529.999999329481
  0
LINE
  5
2AE
100
AcDbEntity
  8
0
  6
CONTINUOUS
 62
           3
100
AcDbLine
 10
5577.7784276496
 20
1529.999999329481
 11
5576.078428674604
 21
1529.999999329481
  0
LINE
  5
2AD
100
AcDbEntity
  8
0
  6
CONTINUOUS
 62
           3
100
AcDbLine
 10
5577.7784276496
 20
1548.799999058065
 11
5577.7784276496
 21
1548.300001770265
  0
LINE
  5
2AC
100
AcDbEntity
  8
0
  6
CONTINUOUS
 62
           3
100
AcDbLine
 10
5457.778430331693
 20
1548.799999058065
 11
5457.778430331693
 21
1548.300001770265
  0
LINE
  5
2AB
100
AcDbEntity
  8
0
  6
CONTINUOUS
 62
           3
100
AcDbLine
 10
5457.778430331693
 20
1391.199998557593
 11
5457.778430331693
 21
1391.699999570792
  0
LINE
  5
2AA
100
AcDbEntity
  8
0
  6
CONTINUOUS
 62
           3
100
AcDbLine
 10
5577.7784276496
 20
1391.199998557593
 11
5577.7784276496
 21
1391.699999570792
  0
LINE
  5
2A9
100
AcDbEntity
  8
0
  6
CONTINUOUS
 62
           3
100
AcDbLine
 10
5520.778429016742
 20
1550.000000744964
 11
5521.028429057742
 21
1550.000000744964
  0
LINE
  5
2A8
100
AcDbEntity
  8
0
  6
CONTINUOUS
 62
           3
100
AcDbLine
 10
5514.528428923555
 20
1550.000000744964
 11
5514.778428964555
 21
1550.000000744964
  0
LINE
  5
2A7
100
AcDbEntity
  8
0
  6
CONTINUOUS
 62
           3
100
AcDbLine
 10
5520.778429016742
 20
1548.799999058065
 11
5521.028429057742
 21
1548.799999058065
  0
LINE
  5
2A6
100
AcDbEntity
  8
0
  6
CONTINUOUS
 62
           3
100
AcDbLine
 10
5514.528428923555
 20
1548.799999058065
 11
5514.778428964555
 21
1548.799999058065
  0
LINE
  5
2A5
100
AcDbEntity
  8
0
  6
CONTINUOUS
 62
           3
100
AcDbLine
 10
5514.778428964555
 20
1391.199998557593
 11
5514.528428923555
 21
1391.199998557593
  0
LINE
  5
2A4
100
AcDbEntity
  8
0
  6
CONTINUOUS
 62
           3
100
AcDbLine
 10
5521.028429057742
 20
1391.199998557593
 11
5520.778429016742
 21
1391.199998557593
  0
LINE
  5
2A3
100
AcDbEntity
  8
0
  6
CONTINUOUS
 62
           3
100
AcDbLine
 10
5462.778429288692
 20
1391.199998557593
 11
5457.778430331693
 21
1391.199998557593
  0
LINE
  5
2A2
100
AcDbEntity
  8
0
  6
CONTINUOUS
 62
           3
100
AcDbLine
 10
5457.778430331693
 20
1390.000000596097
 11
5462.778429288692
 21
1390.000000596097
  0
LINE
  5
2A1
100
AcDbEntity
  8
0
  6
CONTINUOUS
 62
           3
100
AcDbLine
 10
5457.778430331693
 20
1391.199998557593
 11
5457.778430331693
 21
1390.000000596097
  0
LINE
  5
2A0
100
AcDbEntity
  8
0
  6
CONTINUOUS
 62
           3
100
AcDbLine
 10
5457.778430331693
 20
1550.000000744964
 11
5462.778429288692
 21
1550.000000744964
  0
LINE
  5
29F
100
AcDbEntity
  8
0
  6
CONTINUOUS
 62
           3
100
AcDbLine
 10
5462.778429288692
 20
1548.799999058065
 11
5457.778430331693
 21
1548.799999058065
  0
LINE
  5
29E
100
AcDbEntity
  8
0
  6
CONTINUOUS
 62
           3
100
AcDbLine
 10
5457.778430331693
 20
1548.799999058065
 11
5457.778430331693
 21
1550.000000744964
  0
LINE
  5
29D
100
AcDbEntity
  8
0
  6
CONTINUOUS
 62
           3
100
AcDbLine
 10
5562.778430778611
 20
1550.000000744964
 11
5547.778428320124
 21
1550.000000744964
  0
LINE
  5
29C
100
AcDbEntity
  8
0
  6
CONTINUOUS
 62
           3
100
AcDbLine
 10
5562.778430778611
 20
1548.799999058065
 11
5547.778428320124
 21
1548.799999058065
  0
LINE
  5
29B
100
AcDbEntity
  8
0
  6
CONTINUOUS
 62
           3
100
AcDbLine
 10
5577.7784276496
 20
1550.000000744964
 11
5572.778428692602
 21
1550.000000744964
  0
LINE
  5
29A
100
AcDbEntity
  8
0
  6
CONTINUOUS
 62
           3
100
AcDbLine
 10
5572.778428692602
 20
1548.799999058065
 11
5577.7784276496
 21
1548.799999058065
  0
LINE
  5
299
100
AcDbEntity
  8
0
  6
CONTINUOUS
 62
           3
100
AcDbLine
 10
5577.7784276496
 20
1548.799999058065
 11
5577.7784276496
 21
1550.000000744964
  0
LINE
  5
298
100
AcDbEntity
  8
0
  6
CONTINUOUS
 62
           3
100
AcDbLine
 10
5562.778430778611
 20
1391.199998557593
 11
5547.778428320124
 21
1391.199998557593
  0
LINE
  5
297
100
AcDbEntity
  8
0
  6
CONTINUOUS
 62
           3
100
AcDbLine
 10
5562.778430778611
 20
1390.000000596097
 11
5547.778428320124
 21
1390.000000596097
  0
LINE
  5
296
100
AcDbEntity
  8
0
  6
CONTINUOUS
 62
           3
100
AcDbLine
 10
5472.778427202682
 20
1550.000000744964
 11
5487.77842966117
 21
1550.000000744964
  0
LINE
  5
295
100
AcDbEntity
  8
0
  6
CONTINUOUS
 62
           3
100
AcDbLine
 10
5472.778427202682
 20
1548.799999058065
 11
5487.77842966117
 21
1548.799999058065
  0
LINE
  5
294
100
AcDbEntity
  8
0
  6
CONTINUOUS
 62
           3
100
AcDbLine
 10
5572.778428692602
 20
1391.199998557593
 11
5577.7784276496
 21
1391.199998557593
  0
LINE
  5
293
100
AcDbEntity
  8
0
  6
CONTINUOUS
 62
           3
100
AcDbLine
 10
5577.7784276496
 20
1390.000000596097
 11
5572.778428692602
 21
1390.000000596097
  0
LINE
  5
292
100
AcDbEntity
  8
0
  6
CONTINUOUS
 62
           3
100
AcDbLine
 10
5577.7784276496
 20
1391.199998557593
 11
5577.7784276496
 21
1390.000000596097
  0
LINE
  5
291
100
AcDbEntity
  8
0
  6
CONTINUOUS
 62
           3
100
AcDbLine
 10
5472.778427202682
 20
1391.199998557593
 11
5487.77842966117
 21
1391.199998557593
  0
LINE
  5
290
100
AcDbEntity
  8
0
  6
CONTINUOUS
 62
           3
100
AcDbLine
 10
5472.778427202682
 20
1390.000000596097
 11
5487.77842966117
 21
1390.000000596097
  0
LINE
  5
28F
100
AcDbEntity
  8
0
  6
CONTINUOUS
 62
           3
100
AcDbLine
 10
5470.778430600083
 20
1550.000000744964
 11
5472.778427202682
 21
1550.000000744964
  0
LINE
  5
28E
100
AcDbEntity
  8
0
  6
CONTINUOUS
 62
           3
100
AcDbLine
 10
5472.778427202682
 20
1548.799999058065
 11
5470.778430600083
 21
1548.799999058065
  0
LINE
  5
28D
100
AcDbEntity
  8
0
  6
CONTINUOUS
 62
           3
100
AcDbLine
 10
5470.778430600083
 20
1548.799999058065
 11
5470.778430600083
 21
1550.000000744964
  0
LINE
  5
28C
100
AcDbEntity
  8
0
  6
CONTINUOUS
 62
           3
100
AcDbLine
 10
5462.778429288692
 20
1550.000000744964
 11
5464.778429616692
 21
1550.000000744964
  0
LINE
  5
28B
100
AcDbEntity
  8
0
  6
CONTINUOUS
 62
           3
100
AcDbLine
 10
5464.778429616692
 20
1548.799999058065
 11
5462.778429288692
 21
1548.799999058065
  0
LINE
  5
28A
100
AcDbEntity
  8
0
  6
CONTINUOUS
 62
           3
100
AcDbLine
 10
5464.778429616692
 20
1550.000000744964
 11
5464.778429616692
 21
1548.799999058065
  0
LINE
  5
289
100
AcDbEntity
  8
0
  6
CONTINUOUS
 62
           3
100
AcDbLine
 10
5562.778430778611
 20
1391.199998557593
 11
5564.778427381212
 21
1391.199998557593
  0
LINE
  5
288
100
AcDbEntity
  8
0
  6
CONTINUOUS
 62
           3
100
AcDbLine
 10
5564.778427381212
 20
1390.000000596097
 11
5562.778430778611
 21
1390.000000596097
  0
LINE
  5
287
100
AcDbEntity
  8
0
  6
CONTINUOUS
 62
           3
100
AcDbLine
 10
5564.778427381212
 20
1391.199998557593
 11
5564.778427381212
 21
1390.000000596097
  0
LINE
  5
286
100
AcDbEntity
  8
0
  6
CONTINUOUS
 62
           3
100
AcDbLine
 10
5570.7784283649
 20
1391.199998557593
 11
5572.778428692602
 21
1391.199998557593
  0
LINE
  5
285
100
AcDbEntity
  8
0
  6
CONTINUOUS
 62
           3
100
AcDbLine
 10
5572.778428692602
 20
1390.000000596097
 11
5570.7784283649
 21
1390.000000596097
  0
LINE
  5
284
100
AcDbEntity
  8
0
  6
CONTINUOUS
 62
           3
100
AcDbLine
 10
5570.7784283649
 20
1390.000000596097
 11
5570.7784283649
 21
1391.199998557593
  0
LINE
  5
283
100
AcDbEntity
  8
0
  6
CONTINUOUS
 62
           3
100
AcDbLine
 10
5564.778427381212
 20
1550.000000744964
 11
5562.778430778611
 21
1550.000000744964
  0
LINE
  5
282
100
AcDbEntity
  8
0
  6
CONTINUOUS
 62
           3
100
AcDbLine
 10
5562.778430778611
 20
1548.799999058065
 11
5564.778427381212
 21
1548.799999058065
  0
LINE
  5
281
100
AcDbEntity
  8
0
  6
CONTINUOUS
 62
           3
100
AcDbLine
 10
5564.778427381212
 20
1548.799999058065
 11
5564.778427381212
 21
1550.000000744964
  0
LINE
  5
280
100
AcDbEntity
  8
0
  6
CONTINUOUS
 62
           3
100
AcDbLine
 10
5572.778428692602
 20
1550.000000744964
 11
5570.7784283649
 21
1550.000000744964
  0
LINE
  5
27F
100
AcDbEntity
  8
0
  6
CONTINUOUS
 62
           3
100
AcDbLine
 10
5570.7784283649
 20
1548.799999058065
 11
5572.778428692602
 21
1548.799999058065
  0
LINE
  5
27E
100
AcDbEntity
  8
0
  6
CONTINUOUS
 62
           3
100
AcDbLine
 10
5570.7784283649
 20
1550.000000744964
 11
5570.7784283649
 21
1548.799999058065
  0
LINE
  5
27D
100
AcDbEntity
  8
0
  6
CONTINUOUS
 62
           3
100
AcDbLine
 10
5472.778427202682
 20
1391.199998557593
 11
5470.778430600083
 21
1391.199998557593
  0
LINE
  5
27C
100
AcDbEntity
  8
0
  6
CONTINUOUS
 62
           3
100
AcDbLine
 10
5470.778430600083
 20
1390.000000596097
 11
5472.778427202682
 21
1390.000000596097
  0
LINE
  5
27B
100
AcDbEntity
  8
0
  6
CONTINUOUS
 62
           3
100
AcDbLine
 10
5470.778430600083
 20
1391.199998557593
 11
5470.778430600083
 21
1390.000000596097
  0
LINE
  5
27A
100
AcDbEntity
  8
0
  6
CONTINUOUS
 62
           3
100
AcDbLine
 10
5464.778429616692
 20
1391.199998557593
 11
5462.778429288692
 21
1391.199998557593
  0
LINE
  5
279
100
AcDbEntity
  8
0
  6
CONTINUOUS
 62
           3
100
AcDbLine
 10
5462.778429288692
 20
1390.000000596097
 11
5464.778429616692
 21
1390.000000596097
  0
LINE
  5
278
100
AcDbEntity
  8
0
  6
CONTINUOUS
 62
           3
100
AcDbLine
 10
5464.778429616692
 20
1390.000000596097
 11
5464.778429616692
 21
1391.199998557593
  0
LINE
  5
277
100
AcDbEntity
  8
0
  6
CONTINUOUS
 62
           3
100
AcDbLine
 10
5514.278428882555
 20
1391.199998557593
 11
5514.528428923555
 21
1391.199998557593
  0
LINE
  5
276
100
AcDbEntity
  8
0
  6
CONTINUOUS
 62
           3
100
AcDbLine
 10
5514.528428923555
 20
1391.199998557593
 11
5514.528428923555
 21
1390.000000596097
  0
LINE
  5
275
100
AcDbEntity
  8
0
  6
CONTINUOUS
 62
           3
100
AcDbLine
 10
5547.778428320124
 20
1391.199998557593
 11
5537.778428543732
 21
1391.199998557593
  0
LINE
  5
274
100
AcDbEntity
  8
0
  6
CONTINUOUS
 62
           3
100
AcDbLine
 10
5547.778428320124
 20
1390.000000596097
 11
5537.778428543732
 21
1390.000000596097
  0
LINE
  5
273
100
AcDbEntity
  8
0
  6
CONTINUOUS
 62
           3
100
AcDbLine
 10
5547.778428320124
 20
1391.199998557593
 11
5547.778428320124
 21
1390.000000596097
  0
LINE
  5
272
100
AcDbEntity
  8
0
  6
CONTINUOUS
 62
           3
100
AcDbLine
 10
5512.528429061453
 20
1550.000000744964
 11
5514.528428923555
 21
1550.000000744964
  0
LINE
  5
271
100
AcDbEntity
  8
0
  6
CONTINUOUS
 62
           3
100
AcDbLine
 10
5514.528428923555
 20
1548.799999058065
 11
5512.528429061453
 21
1548.799999058065
  0
LINE
  5
270
100
AcDbEntity
  8
0
  6
CONTINUOUS
 62
           3
100
AcDbLine
 10
5514.528428923555
 20
1550.000000744964
 11
5514.528428923555
 21
1548.799999058065
  0
LINE
  5
26F
100
AcDbEntity
  8
0
  6
CONTINUOUS
 62
           3
100
AcDbLine
 10
5525.778429370543
 20
1391.199998557593
 11
5537.778428543732
 21
1391.199998557593
  0
LINE
  5
26E
100
AcDbEntity
  8
0
  6
CONTINUOUS
 62
           3
100
AcDbLine
 10
5525.778429370543
 20
1390.000000596097
 11
5537.778428543732
 21
1390.000000596097
  0
LINE
  5
26D
100
AcDbEntity
  8
0
  6
CONTINUOUS
 62
           3
100
AcDbLine
 10
5537.778428543732
 20
1391.199998557593
 11
5537.778428543732
 21
1390.000000596097
  0
LINE
  5
26C
100
AcDbEntity
  8
0
  6
CONTINUOUS
 62
           3
100
AcDbLine
 10
5487.77842966117
 20
1391.199998557593
 11
5497.778429437565
 21
1391.199998557593
  0
LINE
  5
26B
100
AcDbEntity
  8
0
  6
CONTINUOUS
 62
           3
100
AcDbLine
 10
5487.77842966117
 20
1390.000000596097
 11
5497.778429437565
 21
1390.000000596097
  0
LINE
  5
26A
100
AcDbEntity
  8
0
  6
CONTINUOUS
 62
           3
100
AcDbLine
 10
5487.77842966117
 20
1391.199998557593
 11
5487.77842966117
 21
1390.000000596097
  0
LINE
  5
269
100
AcDbEntity
  8
0
  6
CONTINUOUS
 62
           3
100
AcDbLine
 10
5521.028429057742
 20
1550.000000744964
 11
5523.028428919844
 21
1550.000000744964
  0
LINE
  5
268
100
AcDbEntity
  8
0
  6
CONTINUOUS
 62
           3
100
AcDbLine
 10
5523.028428919844
 20
1548.799999058065
 11
5521.028429057742
 21
1548.799999058065
  0
LINE
  5
267
100
AcDbEntity
  8
0
  6
CONTINUOUS
 62
           3
100
AcDbLine
 10
5521.028429057742
 20
1548.799999058065
 11
5521.028429057742
 21
1550.000000744964
  0
LINE
  5
266
100
AcDbEntity
  8
0
  6
CONTINUOUS
 62
           3
100
AcDbLine
 10
5547.778428320124
 20
1550.000000744964
 11
5537.778428543732
 21
1550.000000744964
  0
LINE
  5
265
100
AcDbEntity
  8
0
  6
CONTINUOUS
 62
           3
100
AcDbLine
 10
5547.778428320124
 20
1548.799999058065
 11
5537.778428543732
 21
1548.799999058065
  0
LINE
  5
264
100
AcDbEntity
  8
0
  6
CONTINUOUS
 62
           3
100
AcDbLine
 10
5547.778428320124
 20
1548.799999058065
 11
5547.778428320124
 21
1550.000000744964
  0
LINE
  5
263
100
AcDbEntity
  8
0
  6
CONTINUOUS
 62
           3
100
AcDbLine
 10
5521.028429057742
 20
1391.199998557593
 11
5521.278429098742
 21
1391.199998557593
  0
LINE
  5
262
100
AcDbEntity
  8
0
  6
CONTINUOUS
 62
           3
100
AcDbLine
 10
5521.028429057742
 20
1390.000000596097
 11
5521.028429057742
 21
1391.199998557593
  0
LINE
  5
261
100
AcDbEntity
  8
0
  6
CONTINUOUS
 62
           3
100
AcDbLine
 10
5497.778429437565
 20
1391.199998557593
 11
5509.778428610754
 21
1391.199998557593
  0
LINE
  5
260
100
AcDbEntity
  8
0
  6
CONTINUOUS
 62
           3
100
AcDbLine
 10
5497.778429437565
 20
1390.000000596097
 11
5509.778428610754
 21
1390.000000596097
  0
LINE
  5
25F
100
AcDbEntity
  8
0
  6
CONTINUOUS
 62
           3
100
AcDbLine
 10
5497.778429437565
 20
1391.199998557593
 11
5497.778429437565
 21
1390.000000596097
  0
LINE
  5
25E
100
AcDbEntity
  8
0
  6
CONTINUOUS
 62
           3
100
AcDbLine
 10
5497.778429437565
 20
1550.000000744964
 11
5512.528429061453
 21
1550.000000744964
  0
LINE
  5
25D
100
AcDbEntity
  8
0
  6
CONTINUOUS
 62
           3
100
AcDbLine
 10
5497.778429437565
 20
1548.799999058065
 11
5512.528429061453
 21
1548.799999058065
  0
LINE
  5
25C
100
AcDbEntity
  8
0
  6
CONTINUOUS
 62
           3
100
AcDbLine
 10
5523.028428919844
 20
1550.000000744964
 11
5537.778428543732
 21
1550.000000744964
  0
LINE
  5
25B
100
AcDbEntity
  8
0
  6
CONTINUOUS
 62
           3
100
AcDbLine
 10
5523.028428919844
 20
1548.799999058065
 11
5537.778428543732
 21
1548.799999058065
  0
LINE
  5
25A
100
AcDbEntity
  8
0
  6
CONTINUOUS
 62
           3
100
AcDbLine
 10
5537.778428543732
 20
1548.799999058065
 11
5537.778428543732
 21
1550.000000744964
  0
LINE
  5
259
100
AcDbEntity
  8
0
  6
CONTINUOUS
 62
           3
100
AcDbLine
 10
5487.77842966117
 20
1548.799999058065
 11
5487.77842966117
 21
1550.000000744964
  0
LINE
  5
258
100
AcDbEntity
  8
0
  6
CONTINUOUS
 62
           3
100
AcDbLine
 10
5487.77842966117
 20
1548.799999058065
 11
5497.778429437565
 21
1548.799999058065
  0
LINE
  5
257
100
AcDbEntity
  8
0
  6
CONTINUOUS
 62
           3
100
AcDbLine
 10
5497.778429437565
 20
1548.799999058065
 11
5497.778429437565
 21
1550.000000744964
  0
LINE
  5
256
100
AcDbEntity
  8
0
  6
CONTINUOUS
 62
           3
100
AcDbLine
 10
5487.77842966117
 20
1550.000000744964
 11
5497.778429437565
 21
1550.000000744964
  0
LINE
  5
255
100
AcDbEntity
  8
0
  6
CONTINUOUS
 62
           3
100
AcDbLine
 10
5525.778429370543
 20
1389.200001954996
 11
5525.778429370543
 21
1388.276241719796
  0
LINE
  5
254
100
AcDbEntity
  8
0
  6
CONTINUOUS
 62
           3
100
AcDbLine
 10
5509.778428610754
 20
1389.200001954996
 11
5509.778428610754
 21
1388.276241719796
  0
LINE
  5
253
100
AcDbEntity
  8
0
  6
CONTINUOUS
 62
           3
100
AcDbLine
 10
5512.778429102453
 20
1388.276241719796
 11
5509.778428610754
 21
1388.276241719796
  0
LINE
  5
252
100
AcDbEntity
  8
0
  6
CONTINUOUS
 62
           3
100
AcDbLine
 10
5525.778429370543
 20
1388.276241719796
 11
5522.778428878844
 21
1388.276241719796
  0
LINE
  5
251
100
AcDbEntity
  8
0
  6
CONTINUOUS
 62
           3
100
AcDbLine
 10
5520.278428934742
 20
1384.1999992729
 11
5522.778428878892
 21
1384.1999992729
  0
LINE
  5
250
100
AcDbEntity
  8
0
  6
CONTINUOUS
 62
           3
100
AcDbLine
 10
5512.778429102413
 20
1384.1999992729
 11
5515.278429046533
 21
1384.1999992729
  0
LINE
  5
24F
100
AcDbEntity
  8
0
  6
CONTINUOUS
 62
           3
100
AcDbLine
 10
5522.778428878844
 20
1384.646579623302
 11
5522.778428878844
 21
1389.100000262195
  0
LINE
  5
24E
100
AcDbEntity
  8
0
  6
CONTINUOUS
 62
           3
100
AcDbLine
 10
5512.778429102453
 20
1384.646579623302
 11
5512.778429102453
 21
1389.100000262195
  0
LINE
  5
24D
100
AcDbEntity
  8
0
  6
CONTINUOUS
 62
           3
100
AcDbLine
 10
5512.778429102453
 20
1384.646579623302
 11
5515.278429046533
 21
1384.1999992729
  0
LINE
  5
24C
100
AcDbEntity
  8
0
  6
CONTINUOUS
 62
           3
100
AcDbLine
 10
5517.778428990654
 20
1384.646579623295
 11
5517.778428990654
 21
1389.100000262195
  0
LINE
  5
24B
100
AcDbEntity
  8
0
  6
CONTINUOUS
 62
           3
100
AcDbLine
 10
5515.278429046533
 20
1384.1999992729
 11
5520.278428934742
 21
1384.1999992729
  0
LINE
  5
24A
100
AcDbEntity
  8
0
  6
CONTINUOUS
 62
           3
100
AcDbLine
 10
5517.778428990654
 20
1384.646579623295
 11
5520.278428934742
 21
1384.1999992729
  0
LINE
  5
249
100
AcDbEntity
  8
0
  6
CONTINUOUS
 62
           3
100
AcDbLine
 10
5514.278428882555
 20
1389.200001954996
 11
5521.278429098742
 21
1389.200001954996
  0
LINE
  5
248
100
AcDbEntity
  8
0
  6
CONTINUOUS
 62
           3
100
AcDbLine
 10
5514.278428882555
 20
1390.000000596097
 11
5521.278429098742
 21
1390.000000596097
  0
LINE
  5
247
100
AcDbEntity
  8
0
  6
CONTINUOUS
 62
           3
100
AcDbLine
 10
5521.278429098742
 20
1393.990144133491
 11
5514.278428882555
 21
1393.990144133491
  0
LINE
  5
246
100
AcDbEntity
  8
0
  6
CONTINUOUS
 62
           3
100
AcDbLine
 10
5514.778428964555
 20
1392.246469855294
 11
5514.278428882555
 21
1392.246469855294
  0
LINE
  5
245
100
AcDbEntity
  8
0
  6
CONTINUOUS
 62
           3
100
AcDbLine
 10
5521.278429098742
 20
1392.246469855294
 11
5520.778429016742
 21
1392.246469855294
  0
LINE
  5
244
100
AcDbEntity
  8
0
  6
CONTINUOUS
 62
           3
100
AcDbLine
 10
5525.778429370543
 20
1394.799999892894
 11
5525.778429370543
 21
1389.200001954996
  0
LINE
  5
243
100
AcDbEntity
  8
0
  6
CONTINUOUS
 62
           3
100
AcDbLine
 10
5509.778428610754
 20
1394.799999892894
 11
5509.778428610754
 21
1389.200001954996
  0
LINE
  5
242
100
AcDbEntity
  8
0
  6
CONTINUOUS
 62
           3
100
AcDbLine
 10
5514.278428882555
 20
1389.200001954996
 11
5514.278428882555
 21
1394.799999892894
  0
LINE
  5
241
100
AcDbEntity
  8
0
  6
CONTINUOUS
 62
           3
100
AcDbLine
 10
5521.278429098742
 20
1394.799999892894
 11
5521.278429098742
 21
1389.200001954996
  0
LINE
  5
240
100
AcDbEntity
  8
0
  6
CONTINUOUS
 62
           3
100
AcDbLine
 10
5514.278428882555
 20
1389.200001954996
 11
5509.778428610754
 21
1389.200001954996
  0
LINE
  5
23F
100
AcDbEntity
  8
0
  6
CONTINUOUS
 62
           3
100
AcDbLine
 10
5514.278428882555
 20
1394.792847335491
 11
5521.278429098742
 21
1394.792847335491
  0
LINE
  5
23E
100
AcDbEntity
  8
0
  6
CONTINUOUS
 62
           3
100
AcDbLine
 10
5525.778429370543
 20
1389.200001954996
 11
5521.278429098742
 21
1389.200001954996
  0
LINE
  5
23D
100
AcDbEntity
  8
0
  6
CONTINUOUS
 62
           3
100
AcDbLine
 10
5519.77842908554
 20
1638.422653078993
 11
5515.778428895754
 21
1638.422653078993
  0
LINE
  5
23C
100
AcDbEntity
  8
0
  6
CONTINUOUS
 62
           3
100
AcDbLine
 10
5514.778428964555
 20
1637.422651052293
 11
5520.778429016742
 21
1637.422651052293
  0
LINE
  5
23B
100
AcDbEntity
  8
0
  6
CONTINUOUS
 62
           3
100
AcDbLine
 10
5463.778427589992
 20
1665.000006556369
 11
5467.778428245691
 21
1665.000006556369
  0
LINE
  5
23A
100
AcDbEntity
  8
0
  6
CONTINUOUS
 62
           3
100
AcDbLine
 10
5467.778428245691
 20
1665.000006556369
 11
5471.778428901394
 21
1665.000006556369
  0
LINE
  5
239
100
AcDbEntity
  8
0
  6
CONTINUOUS
 62
           3
100
AcDbLine
 10
5513.448301956325
 20
1367.599993944255
 11
5512.778429102453
 21
1367.599993944114
  0
LINE
  5
238
100
AcDbEntity
  8
0
  6
CONTINUOUS
 62
           3
100
AcDbLine
 10
5522.778428878844
 20
1367.599993944114
 11
5522.108556024983
 21
1367.599993944255
  0
LINE
  5
237
100
AcDbEntity
  8
0
  6
CONTINUOUS
 62
           3
100
AcDbLine
 10
5513.448301956325
 20
1372.600004077041
 11
5512.778429102453
 21
1372.600004077009
  0
LINE
  5
236
100
AcDbEntity
  8
0
  6
CONTINUOUS
 62
           3
100
AcDbLine
 10
5522.108556024983
 20
1367.599993944255
 11
5517.778428990654
 21
1367.599993944255
  0
LINE
  5
235
100
AcDbEntity
  8
0
  6
CONTINUOUS
 62
           3
100
AcDbLine
 10
5517.778428990654
 20
1367.599993944255
 11
5513.448301956325
 21
1367.599993944255
  0
LINE
  5
234
100
AcDbEntity
  8
0
  6
CONTINUOUS
 62
           3
100
AcDbLine
 10
5512.004926122952
 20
1372.153416276109
 11
5512.004926122952
 21
1368.046581745311
  0
LINE
  5
233
100
AcDbEntity
  8
0
  6
CONTINUOUS
 62
           3
100
AcDbLine
 10
5512.004926122952
 20
1368.046581745311
 11
5513.448301956325
 21
1367.599993944255
  0
LINE
  5
232
100
AcDbEntity
  8
0
  6
CONTINUOUS
 62
           3
100
AcDbLine
 10
5514.891677556823
 20
1372.153416276062
 11
5513.448301956325
 21
1372.600004077041
  0
LINE
  5
231
100
AcDbEntity
  8
0
  6
CONTINUOUS
 62
           3
100
AcDbLine
 10
5520.665180424343
 20
1368.046581745311
 11
5522.108556024983
 21
1367.599993944255
  0
LINE
  5
230
100
AcDbEntity
  8
0
  6
CONTINUOUS
 62
           3
100
AcDbLine
 10
5523.551931858345
 20
1372.153416276109
 11
5523.551931858345
 21
1368.046581745311
  0
LINE
  5
22F
100
AcDbEntity
  8
0
  6
CONTINUOUS
 62
           3
100
AcDbLine
 10
5523.551931858345
 20
1372.153416276109
 11
5522.108556024983
 21
1372.600004077041
  0
LINE
  5
22E
100
AcDbEntity
  8
0
  6
CONTINUOUS
 62
           3
100
AcDbLine
 10
5514.891677556823
 20
1372.153416276062
 11
5514.891677556823
 21
1368.046581745235
  0
LINE
  5
22D
100
AcDbEntity
  8
0
  6
CONTINUOUS
 62
           3
100
AcDbLine
 10
5520.665180424481
 20
1372.153416276062
 11
5520.665180424343
 21
1368.046581745311
  0
LINE
  5
22C
100
AcDbEntity
  8
0
  6
CONTINUOUS
 62
           3
100
AcDbLine
 10
5522.778428878844
 20
1372.600004077009
 11
5522.108556024983
 21
1372.600004077041
  0
LINE
  5
22B
100
AcDbEntity
  8
0
  6
CONTINUOUS
 62
           3
100
AcDbLine
 10
5522.778428878844
 20
1377.599999308604
 11
5522.108556024983
 21
1377.599999308666
  0
LINE
  5
22A
100
AcDbEntity
  8
0
  6
CONTINUOUS
 62
           3
100
AcDbLine
 10
5513.448301956325
 20
1377.599999308666
 11
5512.778429102453
 21
1377.599999308604
  0
LINE
  5
229
100
AcDbEntity
  8
0
  6
CONTINUOUS
 62
           3
100
AcDbLine
 10
5517.778428990654
 20
1372.600004077041
 11
5513.448301956325
 21
1372.600004077041
  0
LINE
  5
228
100
AcDbEntity
  8
0
  6
CONTINUOUS
 62
           3
100
AcDbLine
 10
5522.108556024983
 20
1372.600004077041
 11
5517.778428990654
 21
1372.600004077041
  0
LINE
  5
227
100
AcDbEntity
  8
0
  6
CONTINUOUS
 62
           3
100
AcDbLine
 10
5517.778428990654
 20
1377.599999308666
 11
5513.448301956325
 21
1377.599999308666
  0
LINE
  5
226
100
AcDbEntity
  8
0
  6
CONTINUOUS
 62
           3
100
AcDbLine
 10
5512.004926122952
 20
1377.153418958205
 11
5512.004926122952
 21
1373.046576976911
  0
LINE
  5
225
100
AcDbEntity
  8
0
  6
CONTINUOUS
 62
           3
100
AcDbLine
 10
5512.004926122952
 20
1373.046576976911
 11
5513.448301956325
 21
1372.600004077041
  0
LINE
  5
224
100
AcDbEntity
  8
0
  6
CONTINUOUS
 62
           3
100
AcDbLine
 10
5514.891677556823
 20
1377.153418958267
 11
5513.448301956325
 21
1377.599999308666
  0
LINE
  5
223
100
AcDbEntity
  8
0
  6
CONTINUOUS
 62
           3
100
AcDbLine
 10
5522.108556024983
 20
1377.599999308666
 11
5517.778428990654
 21
1377.599999308666
  0
LINE
  5
222
100
AcDbEntity
  8
0
  6
CONTINUOUS
 62
           3
100
AcDbLine
 10
5520.665180424343
 20
1373.046576976911
 11
5522.108556024983
 21
1372.600004077041
  0
LINE
  5
221
100
AcDbEntity
  8
0
  6
CONTINUOUS
 62
           3
100
AcDbLine
 10
5523.551931858345
 20
1377.153418958205
 11
5523.551931858345
 21
1373.046576976911
  0
LINE
  5
220
100
AcDbEntity
  8
0
  6
CONTINUOUS
 62
           3
100
AcDbLine
 10
5523.551931858345
 20
1377.153418958205
 11
5522.108556024983
 21
1377.599999308666
  0
LINE
  5
21F
100
AcDbEntity
  8
0
  6
CONTINUOUS
 62
           3
100
AcDbLine
 10
5514.891677556823
 20
1377.153418958267
 11
5514.891677556823
 21
1373.04657697686
  0
LINE
  5
21E
100
AcDbEntity
  8
0
  6
CONTINUOUS
 62
           3
100
AcDbLine
 10
5520.665180424481
 20
1377.153418958267
 11
5520.665180424343
 21
1373.046576976911
  0
LINE
  5
21D
100
AcDbEntity
  8
0
  6
CONTINUOUS
 62
           3
100
AcDbLine
 10
5512.004926122952
 20
1364.553421735916
 11
5512.004926122952
 21
1360.446587205122
  0
LINE
  5
21C
100
AcDbEntity
  8
0
  6
CONTINUOUS
 62
           3
100
AcDbLine
 10
5512.004926122952
 20
1360.446587205122
 11
5513.448301956325
 21
1359.999999404048
  0
LINE
  5
21B
100
AcDbEntity
  8
0
  6
CONTINUOUS
 62
           3
100
AcDbLine
 10
5514.891677556823
 20
1364.553421735858
 11
5513.448301956325
 21
1364.999994635673
  0
LINE
  5
21A
100
AcDbEntity
  8
0
  6
CONTINUOUS
 62
           3
100
AcDbLine
 10
5520.665180424343
 20
1360.446587205122
 11
5522.108556024943
 21
1359.999999403921
  0
LINE
  5
219
100
AcDbEntity
  8
0
  6
CONTINUOUS
 62
           3
100
AcDbLine
 10
5523.551931858345
 20
1364.553421735916
 11
5523.551931858345
 21
1360.446587205122
  0
LINE
  5
218
100
AcDbEntity
  8
0
  6
CONTINUOUS
 62
           3
100
AcDbLine
 10
5523.551931858345
 20
1364.553421735916
 11
5522.108556024983
 21
1364.999994635673
  0
LINE
  5
217
100
AcDbEntity
  8
0
  6
CONTINUOUS
 62
           3
100
AcDbLine
 10
5514.891677556823
 20
1364.553421735858
 11
5514.891677556823
 21
1360.446587205024
  0
LINE
  5
216
100
AcDbEntity
  8
0
  6
CONTINUOUS
 62
           3
100
AcDbLine
 10
5520.665180424481
 20
1364.553421735858
 11
5520.665180424343
 21
1360.446587205122
  0
LINE
  5
215
100
AcDbEntity
  8
0
  6
CONTINUOUS
 62
           3
100
AcDbLine
 10
5512.778429102453
 20
1359.999999403921
 11
5513.448301956325
 21
1359.999999404048
  0
LINE
  5
214
100
AcDbEntity
  8
0
  6
CONTINUOUS
 62
           3
100
AcDbLine
 10
5522.778428878844
 20
1355.000004172322
 11
5522.108556024983
 21
1355.00000417242
  0
LINE
  5
213
100
AcDbEntity
  8
0
  6
CONTINUOUS
 62
           3
100
AcDbLine
 10
5512.778429102453
 20
1355.000004172322
 11
5513.448301956325
 21
1355.00000417242
  0
LINE
  5
212
100
AcDbEntity
  8
0
  6
CONTINUOUS
 62
           3
100
AcDbLine
 10
5523.551931858345
 20
1355.446577072224
 11
5522.108556024983
 21
1355.00000417242
  0
LINE
  5
211
100
AcDbEntity
  8
0
  6
CONTINUOUS
 62
           3
100
AcDbLine
 10
5523.551931858345
 20
1355.446577072224
 11
5523.551931858345
 21
1359.553411603021
  0
LINE
  5
210
100
AcDbEntity
  8
0
  6
CONTINUOUS
 62
           3
100
AcDbLine
 10
5512.004926122952
 20
1355.446577072224
 11
5512.004926122952
 21
1359.553411603021
  0
LINE
  5
20F
100
AcDbEntity
  8
0
  6
CONTINUOUS
 62
           3
100
AcDbLine
 10
5517.778428990654
 20
1359.999999404048
 11
5522.108556024943
 21
1359.999999403921
  0
LINE
  5
20E
100
AcDbEntity
  8
0
  6
CONTINUOUS
 62
           3
100
AcDbLine
 10
5520.665180424481
 20
1359.553411603069
 11
5522.108556024943
 21
1359.999999403921
  0
LINE
  5
20D
100
AcDbEntity
  8
0
  6
CONTINUOUS
 62
           3
100
AcDbLine
 10
5513.448301956325
 20
1359.999999404048
 11
5517.778428990654
 21
1359.999999404048
  0
LINE
  5
20C
100
AcDbEntity
  8
0
  6
CONTINUOUS
 62
           3
100
AcDbLine
 10
5513.448301956325
 20
1355.00000417242
 11
5517.778428990654
 21
1355.000004172322
  0
LINE
  5
20B
100
AcDbEntity
  8
0
  6
CONTINUOUS
 62
           3
100
AcDbLine
 10
5517.778428990654
 20
1355.000004172322
 11
5522.108556024983
 21
1355.00000417242
  0
LINE
  5
20A
100
AcDbEntity
  8
0
  6
CONTINUOUS
 62
           3
100
AcDbLine
 10
5514.891677556951
 20
1359.553411603021
 11
5517.778428990654
 21
1359.999999404048
  0
LINE
  5
209
100
AcDbEntity
  8
0
  6
CONTINUOUS
 62
           3
100
AcDbLine
 10
5514.891677556823
 20
1355.446577072242
 11
5514.891677556951
 21
1359.553411603021
  0
LINE
  5
208
100
AcDbEntity
  8
0
  6
CONTINUOUS
 62
           3
100
AcDbLine
 10
5520.665180424343
 20
1355.446577072224
 11
5517.778428990654
 21
1355.000004172322
  0
LINE
  5
207
100
AcDbEntity
  8
0
  6
CONTINUOUS
 62
           3
100
AcDbLine
 10
5520.665180424343
 20
1355.446577072224
 11
5520.665180424481
 21
1359.553411603069
  0
LINE
  5
206
100
AcDbEntity
  8
0
  6
CONTINUOUS
 62
           3
100
AcDbLine
 10
5574.778429020304
 20
1393.799997866194
 11
5574.778429020304
 21
1543.800000101368
  0
LINE
  5
205
100
AcDbEntity
  8
0
  6
CONTINUOUS
 62
           3
100
AcDbLine
 10
5463.778427589992
 20
1543.800000101368
 11
5460.77842896099
 21
1543.800000101368
  0
LINE
  5
204
100
AcDbEntity
  8
0
  6
CONTINUOUS
 62
           3
100
AcDbLine
 10
5514.778428964555
 20
1543.800000101368
 11
5471.778428901394
 21
1543.800000101368
  0
LINE
  5
203
100
AcDbEntity
  8
0
  6
CONTINUOUS
 62
           3
100
AcDbLine
 10
5563.778429079912
 20
1543.800000101368
 11
5520.778429016742
 21
1543.800000101368
  0
LINE
  5
202
100
AcDbEntity
  8
0
  6
CONTINUOUS
 62
           3
100
AcDbLine
 10
5574.778429020304
 20
1543.800000101368
 11
5571.778430391305
 21
1543.800000101368
  0
LINE
  5
201
100
AcDbEntity
  8
0
  6
CONTINUOUS
 62
           3
100
AcDbLine
 10
5460.77842896099
 20
1543.800000101368
 11
5460.77842896099
 21
1393.799997866194
  0
LINE
  5
200
100
AcDbEntity
  8
0
  6
CONTINUOUS
 62
           3
100
AcDbLine
 10
5571.778430391305
 20
1393.799997866194
 11
5574.778429020304
 21
1393.799997866194
  0
LINE
  5
1FF
100
AcDbEntity
  8
0
  6
CONTINUOUS
 62
           3
100
AcDbLine
 10
5525.778429370543
 20
1393.799997866194
 11
5563.778429079912
 21
1393.799997866194
  0
LINE
  5
1FE
100
AcDbEntity
  8
0
  6
CONTINUOUS
 62
           3
100
AcDbLine
 10
5471.778428901394
 20
1393.799997866194
 11
5509.778428610754
 21
1393.799997866194
  0
LINE
  5
1FD
100
AcDbEntity
  8
0
  6
CONTINUOUS
 62
           3
100
AcDbLine
 10
5460.77842896099
 20
1393.799997866194
 11
5463.778427589992
 21
1393.799997866194
  0
LINE
  5
1FC
100
AcDbEntity
  8
0
  6
CONTINUOUS
 62
           3
100
AcDbLine
 10
5511.304926298852
 20
1389.099999999995
 11
5524.251931682442
 21
1389.099999999995
  0
LINE
  5
1FB
100
AcDbEntity
  8
0
  6
CONTINUOUS
 62
           3
100
AcDbLine
 10
5525.778429370543
 20
1394.799999892894
 11
5521.278429098742
 21
1394.799999892894
  0
LINE
  5
1FA
100
AcDbEntity
  8
0
  6
CONTINUOUS
 62
           3
100
AcDbLine
 10
5514.278428882555
 20
1394.799999892894
 11
5509.778428610754
 21
1394.799999892894
  0
LINE
  5
1F9
100
AcDbEntity
  8
0
  6
CONTINUOUS
 62
           3
100
AcDbLine
 10
5515.778428895754
 20
1638.422653078993
 11
5514.778428964555
 21
1637.422651052293
  0
LINE
  5
1F8
100
AcDbEntity
  8
0
  6
CONTINUOUS
 62
           3
100
AcDbLine
 10
5520.778429016742
 20
1637.422651052293
 11
5519.77842908554
 21
1638.422653078993
  0
LINE
  5
1F7
100
AcDbEntity
  8
0
  6
CONTINUOUS
 62
           3
100
AcDbLine
 10
5514.778428964555
 20
1367.599993944114
 11
5514.778428964555
 21
1366.600006818713
  0
LINE
  5
1F6
100
AcDbEntity
  8
0
  6
CONTINUOUS
 62
           3
100
AcDbLine
 10
5514.778428964555
 20
1384.1999992729
 11
5514.778428964555
 21
1377.599999308604
  0
LINE
  5
1F5
100
AcDbEntity
  8
0
  6
CONTINUOUS
 62
           3
100
AcDbLine
 10
5514.778428964555
 20
1392.957426607594
 11
5514.778428964555
 21
1390.000000596097
  0
LINE
  5
1F4
100
AcDbEntity
  8
0
  6
CONTINUOUS
 62
           3
100
AcDbLine
 10
5514.778428964555
 20
1633.399993180996
 11
5514.778428964555
 21
1394.792847335491
  0
LINE
  5
1F3
100
AcDbEntity
  8
0
  6
CONTINUOUS
 62
           3
100
AcDbLine
 10
5514.778428964555
 20
1637.422651052293
 11
5514.778428964555
 21
1635.000005364196
  0
LINE
  5
1F2
100
AcDbEntity
  8
0
  6
CONTINUOUS
 62
           3
100
AcDbLine
 10
5520.778429016742
 20
1635.000005364196
 11
5520.778429016742
 21
1637.422651052293
  0
LINE
  5
1F1
100
AcDbEntity
  8
0
  6
CONTINUOUS
 62
           3
100
AcDbLine
 10
5520.778429016742
 20
1394.792847335491
 11
5520.778429016742
 21
1633.399993180996
  0
LINE
  5
1F0
100
AcDbEntity
  8
0
  6
CONTINUOUS
 62
           3
100
AcDbLine
 10
5520.778429016742
 20
1390.000000596097
 11
5520.778429016742
 21
1392.957426607594
  0
LINE
  5
1EF
100
AcDbEntity
  8
0
  6
CONTINUOUS
 62
           3
100
AcDbLine
 10
5520.778429016742
 20
1377.599999308604
 11
5520.778429016742
 21
1384.1999992729
  0
LINE
  5
1EE
100
AcDbEntity
  8
0
  6
CONTINUOUS
 62
           3
100
AcDbLine
 10
5520.778429016742
 20
1366.600006818713
 11
5520.778429016742
 21
1367.599993944114
  0
LINE
  5
1ED
100
AcDbEntity
  8
0
  6
CONTINUOUS
 62
           3
100
AcDbLine
 10
5471.778428901394
 20
1635.000005364196
 11
5471.778428901394
 21
1665.000006556369
  0
LINE
  5
1EC
100
AcDbEntity
  8
0
  6
CONTINUOUS
 62
           3
100
AcDbLine
 10
5471.778428901394
 20
1550.000000744964
 11
5471.778428901394
 21
1633.399993180996
  0
LINE
  5
1EB
100
AcDbEntity
  8
0
  6
CONTINUOUS
 62
           3
100
AcDbLine
 10
5471.778428901394
 20
1391.199998557593
 11
5471.778428901394
 21
1548.799999058065
  0
LINE
  5
1EA
100
AcDbEntity
  8
0
  6
CONTINUOUS
 62
           3
100
AcDbLine
 10
5471.778428901394
 20
1366.600006818713
 11
5471.778428901394
 21
1390.000000596097
  0
LINE
  5
1E9
100
AcDbEntity
  8
0
  6
CONTINUOUS
 62
           3
100
AcDbLine
 10
5463.778427589992
 20
1364.999994635815
 11
5463.778427589992
 21
1314.999997615956
  0
LINE
  5
1E8
100
AcDbEntity
  8
0
  6
CONTINUOUS
 62
           3
100
AcDbLine
 10
5463.778427589992
 20
1390.000000596097
 11
5463.778427589992
 21
1366.600006818713
  0
LINE
  5
1E7
100
AcDbEntity
  8
0
  6
CONTINUOUS
 62
           3
100
AcDbLine
 10
5463.778427589992
 20
1548.799999058065
 11
5463.778427589992
 21
1391.199998557593
  0
LINE
  5
1E6
100
AcDbEntity
  8
0
  6
CONTINUOUS
 62
           3
100
AcDbLine
 10
5463.778427589992
 20
1633.399993180996
 11
5463.778427589992
 21
1550.000000744964
  0
LINE
  5
1E5
100
AcDbEntity
  8
0
  6
CONTINUOUS
 62
           3
100
AcDbLine
 10
5463.778427589992
 20
1665.000006556369
 11
5463.778427589992
 21
1635.000005364196
  0
LINE
  5
1E4
100
AcDbEntity
  8
0
  6
CONTINUOUS
 62
           3
100
AcDbLine
 10
5571.778430391305
 20
1635.000005364196
 11
5571.778430391305
 21
1641.000000000002
  0
LINE
  5
1E3
100
AcDbEntity
  8
0
  6
CONTINUOUS
 62
           3
100
AcDbLine
 10
5571.778430391305
 20
1550.000000744964
 11
5571.778430391305
 21
1633.399993180996
  0
LINE
  5
1E2
100
AcDbEntity
  8
0
  6
CONTINUOUS
 62
           3
100
AcDbLine
 10
5571.778430391305
 20
1391.199998557593
 11
5571.778430391305
 21
1548.799999058065
  0
LINE
  5
1E1
100
AcDbEntity
  8
0
  6
CONTINUOUS
 62
           3
100
AcDbLine
 10
5571.778430391305
 20
1366.600006818713
 11
5571.778430391305
 21
1390.000000596097
  0
LINE
  5
1E0
100
AcDbEntity
  8
0
  6
CONTINUOUS
 62
           3
100
AcDbLine
 10
5571.778430391305
 20
1314.999997615956
 11
5571.778430391305
 21
1364.999994635815
  0
LINE
  5
1DF
100
AcDbEntity
  8
0
  6
CONTINUOUS
 62
           3
100
AcDbLine
 10
5563.778429079912
 20
1364.999994635815
 11
5563.778429079912
 21
1314.999997615956
  0
LINE
  5
1DE
100
AcDbEntity
  8
0
  6
CONTINUOUS
 62
           3
100
AcDbLine
 10
5563.778429079912
 20
1390.000000596097
 11
5563.778429079912
 21
1366.600006818713
  0
LINE
  5
1DD
100
AcDbEntity
  8
0
  6
CONTINUOUS
 62
           3
100
AcDbLine
 10
5563.778429079912
 20
1548.799999058065
 11
5563.778429079912
 21
1391.199998557593
  0
LINE
  5
1DC
100
AcDbEntity
  8
0
  6
CONTINUOUS
 62
           3
100
AcDbLine
 10
5563.778429079912
 20
1633.399993180996
 11
5563.778429079912
 21
1550.000000744964
  0
LINE
  5
1DB
100
AcDbEntity
  8
0
  6
CONTINUOUS
 62
           3
100
AcDbLine
 10
5563.778429079912
 20
1641.0
 11
5563.778429079912
 21
1635.000005364196
  0
LINE
  5
1DA
100
AcDbEntity
  8
0
  6
CONTINUOUS
 62
           3
100
AcDbLine
 10
5512.004926122952
 20
1368.046581745311
 11
5512.778429102453
 21
1367.599993944114
  0
LINE
  5
1D9
100
AcDbEntity
  8
0
  6
CONTINUOUS
 62
           3
100
AcDbLine
 10
5522.778428878844
 20
1367.599993944114
 11
5523.551931858345
 21
1368.046581745311
  0
LINE
  5
1D8
100
AcDbEntity
  8
0
  6
CONTINUOUS
 62
           3
100
AcDbLine
 10
5523.551931858345
 20
1372.153416276109
 11
5522.778428878844
 21
1372.600004077009
  0
LINE
  5
1D7
100
AcDbEntity
  8
0
  6
CONTINUOUS
 62
           3
100
AcDbLine
 10
5512.778429102453
 20
1372.600004077009
 11
5512.004926122952
 21
1372.153416276109
  0
LINE
  5
1D6
100
AcDbEntity
  8
0
  6
CONTINUOUS
 62
           3
100
AcDbLine
 10
5512.004926122952
 20
1373.046576976911
 11
5512.778429102453
 21
1372.600004077009
  0
LINE
  5
1D5
100
AcDbEntity
  8
0
  6
CONTINUOUS
 62
           3
100
AcDbLine
 10
5522.778428878844
 20
1372.600004077009
 11
5523.551931858345
 21
1373.046576976911
  0
LINE
  5
1D4
100
AcDbEntity
  8
0
  6
CONTINUOUS
 62
           3
100
AcDbLine
 10
5523.551931858345
 20
1377.153418958205
 11
5522.778428878844
 21
1377.599999308604
  0
LINE
  5
1D3
100
AcDbEntity
  8
0
  6
CONTINUOUS
 62
           3
100
AcDbLine
 10
5512.778429102453
 20
1377.599999308604
 11
5512.004926122952
 21
1377.153418958205
  0
LINE
  5
1D2
100
AcDbEntity
  8
0
  6
CONTINUOUS
 62
           3
100
AcDbLine
 10
5512.004926122952
 20
1360.446587205122
 11
5512.778429102453
 21
1359.999999403921
  0
LINE
  5
1D1
100
AcDbEntity
  8
0
  6
CONTINUOUS
 62
           3
100
AcDbLine
 10
5522.778428878844
 20
1359.999999403921
 11
5523.551931858345
 21
1360.446587205122
  0
LINE
  5
1D0
100
AcDbEntity
  8
0
  6
CONTINUOUS
 62
           3
100
AcDbLine
 10
5523.551931858345
 20
1364.553421735916
 11
5522.778428878844
 21
1364.999994635815
  0
LINE
  5
1CF
100
AcDbEntity
  8
0
  6
CONTINUOUS
 62
           3
100
AcDbLine
 10
5512.778429102453
 20
1364.999994635815
 11
5512.004926122952
 21
1364.553421735916
  0
LINE
  5
1CE
100
AcDbEntity
  8
0
  6
CONTINUOUS
 62
           3
100
AcDbLine
 10
5523.551931858345
 20
1359.553411603021
 11
5522.778428878844
 21
1359.999999403921
  0
LINE
  5
1CD
100
AcDbEntity
  8
0
  6
CONTINUOUS
 62
           3
100
AcDbLine
 10
5512.778429102453
 20
1359.999999403921
 11
5512.004926122952
 21
1359.553411603021
  0
LINE
  5
1CC
100
AcDbEntity
  8
0
  6
CONTINUOUS
 62
           3
100
AcDbLine
 10
5522.778428878844
 20
1355.000004172322
 11
5523.551931858345
 21
1355.446577072224
  0
LINE
  5
1CB
100
AcDbEntity
  8
0
  6
CONTINUOUS
 62
           3
100
AcDbLine
 10
5512.004926122952
 20
1355.446577072224
 11
5512.778429102453
 21
1355.000004172322
  0
LINE
  5
1CA
100
AcDbEntity
  8
0
  6
CONTINUOUS
 62
           3
100
AcDbLine
 10
5471.778428901394
 20
1314.999997615956
 11
5471.778428901394
 21
1364.999994635815
  0
LINE
  5
1C9
100
AcDbEntity
  8
1
  6
CONTINUOUS
 62
           3
100
AcDbLine
 10
5999.378432268981
 20
1929.0
 11
5851.778429079912
 21
1929.0
  0
LINE
  5
1C8
100
AcDbEntity
  8
1
  6
CONTINUOUS
 62
           3
100
AcDbLine
 10
5999.378432268981
 20
1921.000000000002
 11
5851.778430391305
 21
1921.000000000002
  0
LINE
  5
1C7
100
AcDbEntity
  8
1
  6
CONTINUOUS
 62
           7
100
AcDbLine
 10
-1487.499999999998
 20
2150.000000000001
 11
-1487.499999999998
 21
2155.683280999348
  0
LINE
  5
1C6
100
AcDbEntity
  8
1
  6
CONTINUOUS
 62
           7
100
AcDbLine
 10
-1412.499999999998
 20
2150.0
 11
-1412.499999999998
 21
2155.683280999348
  0
LINE
  5
1C5
100
AcDbEntity
  8
1
  6
CONTINUOUS
 62
           7
100
AcDbLine
 10
-1387.499999999998
 20
2171.000000000001
 11
-1387.499999999998
 21
2150.000000000001
  0
LINE
  5
1C4
100
AcDbEntity
  8
1
  6
CONTINUOUS
 62
           7
100
AcDbLine
 10
-1494.999999999998
 20
2184.000000000001
 11
-1404.999999999998
 21
2184.000000000001
  0
LINE
  5
1C3
100
AcDbEntity
  8
1
  6
CONTINUOUS
 62
           7
100
AcDbLine
 10
-1404.999999999998
 20
2171.000000000001
 11
-1387.499999999998
 21
2171.000000000001
  0
LINE
  5
1C2
100
AcDbEntity
  8
1
  6
CONTINUOUS
 62
           7
100
AcDbLine
 10
-1494.999999999998
 20
2171.000000000001
 11
-1512.499999999998
 21
2171.000000000001
  0
LINE
  5
1C1
100
AcDbEntity
  8
1
  6
CONTINUOUS
 62
           7
100
AcDbLine
 10
-1512.499999999998
 20
2171.000000000001
 11
-1512.499999999998
 21
2150.000000000001
  0
LINE
  5
1C0
100
AcDbEntity
  8
1
  6
CONTINUOUS
 62
           7
100
AcDbLine
 10
-1494.999999999998
 20
2188.000000000001
 11
-1494.999999999998
 21
2171.000000000001
  0
LINE
  5
1BF
100
AcDbEntity
  8
1
  6
CONTINUOUS
 62
           7
100
AcDbLine
 10
-1412.999999999998
 20
2196.000000000001
 11
-1486.999999999998
 21
2196.000000000001
  0
LINE
  5
1BE
100
AcDbEntity
  8
1
  6
CONTINUOUS
 62
           7
100
AcDbLine
 10
-1404.999999999998
 20
2188.000000000001
 11
-1404.999999999998
 21
2171.000000000001
  0
LINE
  5
1BD
100
AcDbEntity
  8
1
  6
CONTINUOUS
 62
           7
100
AcDbLine
 10
-1464.999999999998
 20
2156.000000000001
 11
-1464.999999999998
 21
2150.000000000001
  0
LINE
  5
1BC
100
AcDbEntity
  8
1
  6
CONTINUOUS
 62
           7
100
AcDbLine
 10
-1434.999999999998
 20
2156.000000000001
 11
-1434.999999999998
 21
2150.000000000001
  0
LINE
  5
1BB
100
AcDbEntity
  8
1
  6
DOT_CENTER
 62
           2
100
AcDbLine
 10
-1449.999999999998
 20
2202.686878034488
 11
-1449.999999999998
 21
2107.007003733832
  0
LINE
  5
1BA
100
AcDbEntity
  8
1
  6
CONTINUOUS
 62
           7
100
AcDbLine
 10
-1387.500000000002
 20
4799.999999999999
 11
-1407.573593128808
 21
4799.999999999999
  0
LINE
  5
1B9
100
AcDbEntity
  8
1
  6
CONTINUOUS
 62
           7
100
AcDbLine
 10
-1465.0
 20
4752.499999999999
 11
-1465.0
 21
4772.573593128806
  0
LINE
  5
1B8
100
AcDbEntity
  8
1
  6
CONTINUOUS
 62
           7
100
AcDbLine
 10
-1512.5
 20
4829.999999999999
 11
-1492.426406871193
 21
4830.0
  0
LINE
  5
1B7
100
AcDbEntity
  8
1
  6
CONTINUOUS
 62
           7
100
AcDbLine
 10
-1387.500000000002
 20
4830.0
 11
-1387.500000000002
 21
4799.999999999999
  0
LINE
  5
1B6
100
AcDbEntity
  8
1
  6
CONTINUOUS
 62
           7
100
AcDbLine
 10
-1435.0
 20
4752.499999999999
 11
-1465.0
 21
4752.499999999999
  0
LINE
  5
1B5
100
AcDbEntity
  8
1
  6
CONTINUOUS
 62
           7
100
AcDbLine
 10
-1512.5
 20
4799.999999999999
 11
-1512.5
 21
4829.999999999999
  0
LINE
  5
1B4
100
AcDbEntity
  8
1
  6
CONTINUOUS
 62
           7
100
AcDbLine
 10
-1407.573593128808
 20
4830.0
 11
-1387.500000000002
 21
4830.0
  0
LINE
  5
1B3
100
AcDbEntity
  8
1
  6
CONTINUOUS
 62
           7
100
AcDbLine
 10
-1435.0
 20
4772.573593128806
 11
-1435.0
 21
4752.499999999999
  0
LINE
  5
1B2
100
AcDbEntity
  8
1
  6
CONTINUOUS
 62
           7
100
AcDbLine
 10
-1492.426406871193
 20
4799.999999999999
 11
-1512.5
 21
4799.999999999999
  0
LINE
  5
1B1
100
AcDbEntity
  8
1
  6
CONTINUOUS
 62
           7
100
AcDbLine
 10
-1435.0
 20
4877.499999999999
 11
-1435.0
 21
4857.426406871193
  0
LINE
  5
1B0
100
AcDbEntity
  8
1
  6
CONTINUOUS
 62
           7
100
AcDbLine
 10
-1465.0
 20
4877.499999999999
 11
-1435.0
 21
4877.499999999999
  0
LINE
  5
1AF
100
AcDbEntity
  8
1
  6
CONTINUOUS
 62
           7
100
AcDbLine
 10
-1465.0
 20
4857.426406871192
 11
-1465.0
 21
4877.499999999999
  0
LINE
  5
1AE
100
AcDbEntity
  8
1
  6
CONTINUOUS
 62
           7
100
AcDbLine
 10
-333.999999999998
 20
4991.000000000001
 11
-333.999999999998
 21
4638.999999999999
  0
LINE
  5
1AD
100
AcDbEntity
  8
1
  6
CONTINUOUS
 62
           7
100
AcDbLine
 10
-1665.999999999998
 20
4991.000000000001
 11
-333.999999999998
 21
4991.000000000001
  0
LINE
  5
1AC
100
AcDbEntity
  8
1
  6
CONTINUOUS
 62
           7
100
AcDbLine
 10
-383.999999999998
 20
4941.000000000001
 11
-383.999999999998
 21
4688.999999999999
  0
LINE
  5
1AB
100
AcDbEntity
  8
1
  6
CONTINUOUS
 62
           7
100
AcDbLine
 10
-1615.999999999998
 20
4941.000000000001
 11
-383.999999999998
 21
4941.000000000001
  0
LINE
  5
1AA
100
AcDbEntity
  8
1
  6
CONTINUOUS
 62
           7
100
AcDbLine
 10
-1615.999999999998
 20
4688.999999999999
 11
-1615.999999999998
 21
4941.000000000001
  0
LINE
  5
1A9
100
AcDbEntity
  8
1
  6
CONTINUOUS
 62
           7
100
AcDbLine
 10
-383.999999999998
 20
4688.999999999999
 11
-1615.999999999998
 21
4688.999999999999
  0
LINE
  5
1A8
100
AcDbEntity
  8
1
  6
CONTINUOUS
 62
           7
100
AcDbLine
 10
-1665.999999999998
 20
4638.999999999999
 11
-1665.999999999998
 21
4991.000000000001
  0
LINE
  5
1A7
100
AcDbEntity
  8
1
  6
CONTINUOUS
 62
           7
100
AcDbLine
 10
-333.999999999998
 20
4638.999999999999
 11
-1665.999999999998
 21
4638.999999999999
  0
LINE
  5
1A6
100
AcDbEntity
  8
1
  6
DOT_CENTER
 62
           2
100
AcDbLine
 10
550.000000000002
 20
2202.686878034488
 11
550.000000000002
 21
2107.007003733832
  0
LINE
  5
1A5
100
AcDbEntity
  8
1
  6
CONTINUOUS
 62
           7
100
AcDbLine
 10
565.000000000002
 20
2156.000000000001
 11
565.000000000002
 21
2150.000000000001
  0
LINE
  5
1A4
100
AcDbEntity
  8
1
  6
CONTINUOUS
 62
           7
100
AcDbLine
 10
535.000000000002
 20
2156.000000000001
 11
535.000000000002
 21
2150.000000000001
  0
LINE
  5
1A3
100
AcDbEntity
  8
1
  6
CONTINUOUS
 62
           7
100
AcDbLine
 10
595.000000000002
 20
2188.000000000001
 11
595.000000000002
 21
2171.000000000001
  0
LINE
  5
1A2
100
AcDbEntity
  8
1
  6
CONTINUOUS
 62
           7
100
AcDbLine
 10
587.000000000002
 20
2196.000000000001
 11
513.000000000002
 21
2196.000000000001
  0
LINE
  5
1A1
100
AcDbEntity
  8
1
  6
CONTINUOUS
 62
           7
100
AcDbLine
 10
505.000000000002
 20
2188.000000000001
 11
505.000000000002
 21
2171.000000000001
  0
LINE
  5
1A0
100
AcDbEntity
  8
1
  6
CONTINUOUS
 62
           7
100
AcDbLine
 10
487.500000000002
 20
2171.000000000001
 11
487.500000000002
 21
2150.000000000001
  0
LINE
  5
19F
100
AcDbEntity
  8
1
  6
CONTINUOUS
 62
           7
100
AcDbLine
 10
505.000000000002
 20
2171.000000000001
 11
487.500000000002
 21
2171.000000000001
  0
LINE
  5
19E
100
AcDbEntity
  8
1
  6
CONTINUOUS
 62
           7
100
AcDbLine
 10
595.000000000002
 20
2171.000000000001
 11
612.500000000002
 21
2171.000000000001
  0
LINE
  5
19D
100
AcDbEntity
  8
1
  6
CONTINUOUS
 62
           7
100
AcDbLine
 10
505.000000000002
 20
2184.000000000001
 11
595.000000000002
 21
2184.000000000001
  0
LINE
  5
19C
100
AcDbEntity
  8
1
  6
CONTINUOUS
 62
           7
100
AcDbLine
 10
612.500000000002
 20
2171.000000000001
 11
612.500000000002
 21
2150.000000000001
  0
LINE
  5
19B
100
AcDbEntity
  8
1
  6
CONTINUOUS
 62
           7
100
AcDbLine
 10
587.500000000002
 20
2150.0
 11
587.500000000002
 21
2155.683280999348
  0
LINE
  5
19A
100
AcDbEntity
  8
1
  6
CONTINUOUS
 62
           7
100
AcDbLine
 10
512.500000000002
 20
2150.000000000001
 11
512.500000000002
 21
2155.683280999348
  0
LINE
  5
199
100
AcDbEntity
  8
1
  6
CONTINUOUS
 62
           7
100
AcDbLine
 10
1666.000000000002
 20
4638.999999999999
 11
334.000000000002
 21
4638.999999999999
  0
LINE
  5
198
100
AcDbEntity
  8
1
  6
CONTINUOUS
 62
           7
100
AcDbLine
 10
334.000000000002
 20
4638.999999999999
 11
334.000000000002
 21
4991.000000000001
  0
LINE
  5
197
100
AcDbEntity
  8
1
  6
CONTINUOUS
 62
           7
100
AcDbLine
 10
1616.000000000002
 20
4688.999999999999
 11
384.000000000002
 21
4688.999999999999
  0
LINE
  5
196
100
AcDbEntity
  8
1
  6
CONTINUOUS
 62
           7
100
AcDbLine
 10
384.000000000002
 20
4688.999999999999
 11
384.000000000002
 21
4941.000000000001
  0
LINE
  5
195
100
AcDbEntity
  8
1
  6
CONTINUOUS
 62
           7
100
AcDbLine
 10
384.000000000002
 20
4941.000000000001
 11
1616.000000000002
 21
4941.000000000001
  0
LINE
  5
194
100
AcDbEntity
  8
1
  6
CONTINUOUS
 62
           7
100
AcDbLine
 10
1616.000000000002
 20
4941.000000000001
 11
1616.000000000002
 21
4688.999999999999
  0
LINE
  5
193
100
AcDbEntity
  8
1
  6
CONTINUOUS
 62
           7
100
AcDbLine
 10
334.000000000002
 20
4991.000000000001
 11
1666.000000000002
 21
4991.000000000001
  0
LINE
  5
192
100
AcDbEntity
  8
1
  6
CONTINUOUS
 62
           7
100
AcDbLine
 10
1666.000000000002
 20
4991.000000000001
 11
1666.000000000002
 21
4638.999999999999
  0
LINE
  5
191
100
AcDbEntity
  8
1
  6
CONTINUOUS
 62
           7
100
AcDbLine
 10
4836.878432268975
 20
2136.000000000001
 11
4836.878432268975
 21
2156.000000000001
  0
LINE
  5
190
100
AcDbEntity
  8
1
  6
CONTINUOUS
 62
           7
100
AcDbLine
 10
4866.878432268975
 20
2136.000000000001
 11
4866.878432268975
 21
2156.000000000001
  0
LINE
  5
18F
100
AcDbEntity
  8
1
  6
CONTINUOUS
 62
           7
100
AcDbLine
 10
4806.878432268975
 20
2171.000000000001
 11
4806.878432268975
 21
2188.000000000001
  0
LINE
  5
18E
100
AcDbEntity
  8
1
  6
CONTINUOUS
 62
           7
100
AcDbLine
 10
4888.878432268975
 20
2196.000000000001
 11
4814.878432268975
 21
2196.000000000001
  0
LINE
  5
18D
100
AcDbEntity
  8
1
  6
CONTINUOUS
 62
           7
100
AcDbLine
 10
4896.878432268975
 20
2171.000000000001
 11
4896.878432268975
 21
2188.000000000001
  0
LINE
  5
18C
100
AcDbEntity
  8
1
  6
CONTINUOUS
 62
           7
100
AcDbLine
 10
4914.378432268975
 20
2136.000000000001
 11
4914.378432268975
 21
2171.000000000001
  0
LINE
  5
18B
100
AcDbEntity
  8
1
  6
CONTINUOUS
 62
           7
100
AcDbLine
 10
4914.378432268975
 20
2171.000000000001
 11
4896.878432268975
 21
2171.000000000001
  0
LINE
  5
18A
100
AcDbEntity
  8
1
  6
CONTINUOUS
 62
           7
100
AcDbLine
 10
4789.378432268975
 20
2136.000000000001
 11
4789.378432268975
 21
2171.000000000001
  0
LINE
  5
189
100
AcDbEntity
  8
1
  6
CONTINUOUS
 62
           7
100
AcDbLine
 10
4789.378432268975
 20
2171.000000000001
 11
4806.878432268975
 21
2171.000000000001
  0
LINE
  5
188
100
AcDbEntity
  8
1
  6
CONTINUOUS
 62
           7
100
AcDbLine
 10
4889.378432268975
 20
2155.683280999348
 11
4889.378432268975
 21
2136.000000000001
  0
LINE
  5
187
100
AcDbEntity
  8
1
  6
CONTINUOUS
 62
           7
100
AcDbLine
 10
4814.378432268975
 20
2155.683280999348
 11
4814.378432268975
 21
2136.000000000001
  0
LINE
  5
186
100
AcDbEntity
  8
1
  6
CONTINUOUS
 62
           7
100
AcDbLine
 10
4806.878432268975
 20
2184.000000000001
 11
4896.878432268975
 21
2184.000000000001
  0
LINE
  5
185
100
AcDbEntity
  8
1
  6
CONTINUOUS
 62
           7
100
AcDbLine
 10
4977.878432268975
 20
2136.000000000001
 11
4977.878432268975
 21
2050.000000000001
  0
LINE
  5
184
100
AcDbEntity
  8
1
  6
CONTINUOUS
 62
           7
100
AcDbLine
 10
4725.878432268975
 20
2136.000000000001
 11
4977.878432268975
 21
2136.000000000001
  0
LINE
  5
183
100
AcDbEntity
  8
1
  6
CONTINUOUS
 62
           7
100
AcDbLine
 10
4725.878432268975
 20
2050.000000000001
 11
4725.878432268975
 21
2136.000000000001
  0
LINE
  5
182
100
AcDbEntity
  8
1
  6
CONTINUOUS
 62
           7
100
AcDbLine
 10
0.0
 20
1763.744569986044
 11
0.0
 21
500.000000000004
  0
LINE
  5
181
100
AcDbEntity
  8
1
  6
CONTINUOUS
 62
           7
100
AcDbLine
 10
-15.0
 20
500.000000000004
 11
15.0
 21
500.000000000004
  0
LINE
  5
180
100
AcDbEntity
  8
1
  6
CONTINUOUS
 62
           7
100
AcDbLine
 10
0.0
 20
475.000000000004
 11
0.0
 21
400.000000000004
  0
LINE
  5
17F
100
AcDbEntity
  8
1
  6
CONTINUOUS
 62
           7
100
AcDbLine
 10
-15.0
 20
475.000000000004
 11
-15.0
 21
540.000000000004
  0
LINE
  5
17E
100
AcDbEntity
  8
1
  6
CONTINUOUS
 62
           7
100
AcDbLine
 10
-1985.0
 20
475.000000000004
 11
-1985.0
 21
540.000000000004
  0
LINE
  5
17D
100
AcDbEntity
  8
1
  6
CONTINUOUS
 62
           7
100
AcDbLine
 10
-2000.0
 20
475.000000000004
 11
2000.0
 21
475.000000000004
  0
LINE
  5
17C
100
AcDbEntity
  8
1
  6
CONTINUOUS
 62
           7
100
AcDbLine
 10
0.0
 20
5434.999999999999
 11
0.0
 21
4614.999999999999
  0
LINE
  5
17B
100
AcDbEntity
  8
1
  6
CONTINUOUS
 62
           7
100
AcDbLine
 10
-15.0
 20
540.000000000004
 11
-1985.0
 21
540.000000000004
  0
LINE
  5
17A
100
AcDbEntity
  8
1
  6
CONTINUOUS
 62
           7
100
AcDbLine
 10
-499.999999999999
 20
5592.871109973278
 11
-499.999999999999
 21
5564.999999999999
  0
LINE
  5
179
100
AcDbEntity
  8
1
  6
CONTINUOUS
 62
           2
100
AcDbLine
 10
-520.0
 20
5584.999999999999
 11
-520.0
 21
5610.433523174082
  0
LINE
  5
178
100
AcDbEntity
  8
1
  6
CONTINUOUS
 62
           7
100
AcDbLine
 10
2163.5
 20
4866.490190466974
 11
2180.0
 21
4866.490190466974
  0
LINE
  5
177
100
AcDbEntity
  8
1
  6
CONTINUOUS
 62
           7
100
AcDbLine
 10
2062.0
 20
4877.999999999999
 11
2079.0
 21
4877.999999999999
  0
LINE
  5
176
100
AcDbEntity
  8
1
  6
CONTINUOUS
 62
           7
100
AcDbLine
 10
2062.0
 20
4911.999999999999
 11
2079.0
 21
4911.999999999999
  0
LINE
  5
175
100
AcDbEntity
  8
1
  6
CONTINUOUS
 62
           7
100
AcDbLine
 10
2062.0
 20
4877.999999999999
 11
2062.0
 21
4845.328579645836
  0
LINE
  5
174
100
AcDbEntity
  8
1
  6
CONTINUOUS
 62
           7
100
AcDbLine
 10
2133.0
 20
4876.971103189578
 11
2133.000000000001
 21
4837.838834764832
  0
LINE
  5
173
100
AcDbEntity
  8
1
  6
CONTINUOUS
 62
           7
100
AcDbLine
 10
2118.0
 20
4876.971103189578
 11
2133.0
 21
4876.971103189578
  0
LINE
  5
172
100
AcDbEntity
  8
1
  6
CONTINUOUS
 62
           7
100
AcDbLine
 10
2113.338834764832
 20
4867.783322010192
 11
2113.338834764832
 21
4947.499999999999
  0
LINE
  5
171
100
AcDbEntity
  8
1
  6
CONTINUOUS
 62
           7
100
AcDbLine
 10
2113.338834764832
 20
4867.783322010192
 11
2118.0
 21
4876.971103189578
  0
LINE
  5
170
100
AcDbEntity
  8
1
  6
CONTINUOUS
 62
           7
100
AcDbLine
 10
2062.0
 20
4867.783322010192
 11
2113.338834764832
 21
4867.783322010192
  0
LINE
  5
16F
100
AcDbEntity
  8
1
  6
CONTINUOUS
 62
           7
100
AcDbLine
 10
2096.0
 20
4824.999999999999
 11
2050.0
 21
4824.999999999999
  0
LINE
  5
16E
100
AcDbEntity
  8
1
  6
CONTINUOUS
 62
           7
100
AcDbLine
 10
2096.0
 20
4964.999999999999
 11
2050.0
 21
4964.999999999999
  0
LINE
  5
16D
100
AcDbEntity
  8
1
  6
CONTINUOUS
 62
           7
100
AcDbLine
 10
2180.0
 20
4923.482374189475
 11
2163.5
 21
4923.482374189475
  0
LINE
  5
16C
100
AcDbEntity
  8
1
  6
CONTINUOUS
 62
           7
100
AcDbLine
 10
2180.0
 20
4866.490190466974
 11
2180.0
 21
4923.482374189475
  0
LINE
  5
16B
100
AcDbEntity
  8
1
  6
CONTINUOUS
 62
           7
100
AcDbLine
 10
2163.5
 20
4858.499999999999
 11
2163.5
 21
4931.499999999999
  0
LINE
  5
16A
100
AcDbEntity
  8
1
  6
CONTINUOUS
 62
           7
100
AcDbLine
 10
2133.0
 20
4952.161165235167
 11
2133.0
 21
4913.028896810424
  0
LINE
  5
169
100
AcDbEntity
  8
1
  6
CONTINUOUS
 62
           7
100
AcDbLine
 10
2133.0
 20
4952.161165235167
 11
2118.0
 21
4952.161165235167
  0
LINE
  5
168
100
AcDbEntity
  8
1
  6
CONTINUOUS
 62
           7
100
AcDbLine
 10
2133.000000000001
 20
4837.838834764832
 11
2118.000000000001
 21
4837.838834764832
  0
LINE
  5
167
100
AcDbEntity
  8
1
  6
CONTINUOUS
 62
           7
100
AcDbLine
 10
2151.5
 20
4854.999999999999
 11
2133.0
 21
4854.999999999999
  0
LINE
  5
166
100
AcDbEntity
  8
1
  6
CONTINUOUS
 62
           7
100
AcDbLine
 10
2151.500000000001
 20
4935.0
 11
2133.0
 21
4934.999999999999
  0
LINE
  5
165
100
AcDbEntity
  8
1
  6
CONTINUOUS
 62
           7
100
AcDbLine
 10
2050.0
 20
4944.671420354162
 11
2062.0
 21
4944.671420354162
  0
LINE
  5
164
100
AcDbEntity
  8
1
  6
CONTINUOUS
 62
           7
100
AcDbLine
 10
2096.0
 20
4824.999999999999
 11
2096.0
 21
4842.499999999999
  0
LINE
  5
163
100
AcDbEntity
  8
1
  6
CONTINUOUS
 62
           7
100
AcDbLine
 10
2096.0
 20
4947.499999999999
 11
2096.0
 21
4964.999999999999
  0
LINE
  5
162
100
AcDbEntity
  8
1
  6
CONTINUOUS
 62
           7
100
AcDbLine
 10
2151.5
 20
4854.999999999999
 11
2151.500000000001
 21
4935.0
  0
LINE
  5
161
100
AcDbEntity
  8
1
  6
CONTINUOUS
 62
           7
100
AcDbLine
 10
2163.5
 20
4858.499999999999
 11
2151.5
 21
4858.499999999999
  0
LINE
  5
160
100
AcDbEntity
  8
1
  6
CONTINUOUS
 62
           7
100
AcDbLine
 10
2163.5
 20
4931.499999999999
 11
2151.5
 21
4931.499999999999
  0
LINE
  5
15F
100
AcDbEntity
  8
1
  6
CONTINUOUS
 62
           7
100
AcDbLine
 10
2062.0
 20
4944.671420354162
 11
2062.0
 21
4911.999999999999
  0
LINE
  5
15E
100
AcDbEntity
  8
1
  6
CONTINUOUS
 62
           7
100
AcDbLine
 10
2118.000000000001
 20
4837.838834764832
 11
2113.338834764832
 21
4842.499999999999
  0
LINE
  5
15D
100
AcDbEntity
  8
1
  6
CONTINUOUS
 62
           7
100
AcDbLine
 10
2113.338834764832
 20
4842.499999999999
 11
2113.338834764832
 21
4867.783322010192
  0
LINE
  5
15C
100
AcDbEntity
  8
1
  6
CONTINUOUS
 62
           7
100
AcDbLine
 10
2113.338834764832
 20
4947.499999999999
 11
2118.0
 21
4952.161165235167
  0
LINE
  5
15B
100
AcDbEntity
  8
1
  6
CONTINUOUS
 62
           7
100
AcDbLine
 10
2113.338834764832
 20
4947.499999999999
 11
2096.0
 21
4947.499999999999
  0
LINE
  5
15A
100
AcDbEntity
  8
1
  6
CONTINUOUS
 62
           7
100
AcDbLine
 10
2113.338834764832
 20
4842.499999999999
 11
2096.0
 21
4842.499999999999
  0
LINE
  5
159
100
AcDbEntity
  8
1
  6
CONTINUOUS
 62
           7
100
AcDbLine
 10
2118.0
 20
4913.028896810424
 11
2113.338834764832
 21
4922.21667798981
  0
LINE
  5
158
100
AcDbEntity
  8
1
  6
CONTINUOUS
 62
           7
100
AcDbLine
 10
2113.338834764832
 20
4922.21667798981
 11
2062.0
 21
4922.21667798981
  0
LINE
  5
157
100
AcDbEntity
  8
1
  6
CONTINUOUS
 62
           7
100
AcDbLine
 10
2133.0
 20
4913.028896810424
 11
2118.0
 21
4913.028896810424
  0
LINE
  5
156
100
AcDbEntity
  8
1
  6
CONTINUOUS
 62
           7
100
AcDbLine
 10
2096.0
 20
4842.499999999999
 11
2062.0
 21
4842.499999999999
  0
LINE
  5
155
100
AcDbEntity
  8
1
  6
CONTINUOUS
 62
           7
100
AcDbLine
 10
2062.0
 20
4842.499999999999
 11
2062.0
 21
4845.328579645836
  0
LINE
  5
154
100
AcDbEntity
  8
1
  6
CONTINUOUS
 62
           7
100
AcDbLine
 10
2096.0
 20
4947.499999999999
 11
2062.0
 21
4947.499999999999
  0
LINE
  5
153
100
AcDbEntity
  8
1
  6
CONTINUOUS
 62
           7
100
AcDbLine
 10
2062.0
 20
4947.499999999999
 11
2062.0
 21
4926.378889924882
  0
LINE
  5
152
100
AcDbEntity
  8
1
  6
CONTINUOUS
 62
           7
100
AcDbLine
 10
2062.0
 20
4845.328579645836
 11
2050.0
 21
4845.328579645836
  0
LINE
  5
151
100
AcDbEntity
  8
1
  6
CONTINUOUS
 62
           7
100
AcDbLine
 10
4896.056101798635
 20
1446.500000000004
 11
4913.849535458548
 21
1464.293433659914
  0
LINE
  5
150
100
AcDbEntity
  8
1
  6
CONTINUOUS
 62
           7
100
AcDbLine
 10
4878.378432268971
 20
1535.822330470344
 11
4896.171865928886
 21
1518.028896810423
  0
LINE
  5
14F
100
AcDbEntity
  8
1
  6
CONTINUOUS
 62
           7
100
AcDbLine
 10
4967.70076273931
 20
1553.500000000004
 11
4949.907329079396
 21
1535.706566340094
  0
LINE
  5
14E
100
AcDbEntity
  8
1
  6
CONTINUOUS
 62
           7
100
AcDbLine
 10
4878.378432268971
 20
1464.177669529663
 11
4896.171865928886
 21
1481.971103189573
  0
LINE
  5
14D
100
AcDbEntity
  8
1
  6
CONTINUOUS
 62
           7
100
AcDbLine
 10
4896.056101798635
 20
1553.500000000004
 11
4913.849535458548
 21
1535.706566340094
  0
LINE
  5
14C
100
AcDbEntity
  8
1
  6
CONTINUOUS
 62
           7
100
AcDbLine
 10
4985.378432268971
 20
1535.822330470344
 11
4967.584998609061
 21
1518.028896810423
  0
LINE
  5
14B
100
AcDbEntity
  8
1
  6
CONTINUOUS
 62
           7
100
AcDbLine
 10
4967.70076273931
 20
1446.500000000004
 11
4949.907329079396
 21
1464.293433659914
  0
LINE
  5
14A
100
AcDbEntity
  8
1
  6
CONTINUOUS
 62
           7
100
AcDbLine
 10
4985.378432268971
 20
1464.177669529663
 11
4967.584998609061
 21
1481.971103189573
  0
LINE
  5
149
100
AcDbEntity
  8
1
  6
CONTINUOUS
 62
           7
100
AcDbLine
 10
4891.878432268971
 20
1570.000000000004
 11
4891.878432268971
 21
1556.259593518793
  0
LINE
  5
148
100
AcDbEntity
  8
1
  6
CONTINUOUS
 62
           7
100
AcDbLine
 10
4891.878432268971
 20
1570.000000000004
 11
4948.878432268971
 21
1570.000000000004
  0
LINE
  5
147
100
AcDbEntity
  8
1
  6
CONTINUOUS
 62
           7
100
AcDbLine
 10
4971.878432268971
 20
1430.000000000004
 11
4971.878432268971
 21
1443.740406481204
  0
LINE
  5
146
100
AcDbEntity
  8
1
  6
CONTINUOUS
 62
           7
100
AcDbLine
 10
4914.878432268971
 20
1570.000000000004
 11
4914.878432268971
 21
1549.671420354163
  0
LINE
  5
145
100
AcDbEntity
  8
1
  6
CONTINUOUS
 62
           7
100
AcDbLine
 10
4948.878432268971
 20
1549.671420354163
 11
4948.878432268971
 21
1570.000000000004
  0
LINE
  5
144
100
AcDbEntity
  8
1
  6
CONTINUOUS
 62
           7
100
AcDbLine
 10
4948.878432268971
 20
1430.000000000004
 11
4948.878432268971
 21
1450.328579645833
  0
LINE
  5
143
100
AcDbEntity
  8
1
  6
CONTINUOUS
 62
           7
100
AcDbLine
 10
4914.878432268971
 20
1430.000000000004
 11
4971.878432268971
 21
1430.000000000004
  0
LINE
  5
142
100
AcDbEntity
  8
1
  6
CONTINUOUS
 62
           7
100
AcDbLine
 10
4914.878432268971
 20
1450.328579645833
 11
4914.878432268971
 21
1430.000000000004
  0
LINE
  5
141
100
AcDbEntity
  8
1
  6
CONTINUOUS
 62
           2
100
AcDbLine
 10
4621.878432268971
 20
1330.000000000004
 11
4621.878432268971
 21
20.000000000004
  0
LINE
  5
140
100
AcDbEntity
  8
1
  6
CONTINUOUS
 62
           2
100
AcDbLine
 10
5081.878432268971
 20
1670.000000000004
 11
5081.878432268971
 21
1980.000000000004
  0
LINE
  5
13F
100
AcDbEntity
  8
1
  6
CONTINUOUS
 62
           7
100
AcDbLine
 10
4601.878432268971
 20
1670.000000000004
 11
5101.878432268973
 21
1670.000000000004
  0
LINE
  5
13E
100
AcDbEntity
  8
1
  6
CONTINUOUS
 62
           7
100
AcDbLine
 10
4601.878432268971
 20
1330.000000000004
 11
5101.878432268973
 21
1330.000000000004
  0
LINE
  5
13D
100
AcDbEntity
  8
1
  6
DOT_CENTER
 62
           2
100
AcDbLine
 10
-1680.912924024839
 20
4814.999999999999
 11
-295.075330103057
 21
4814.999999999999
  0
LINE
  5
13C
100
AcDbEntity
  8
1
  6
CONTINUOUS
 62
           7
100
AcDbLine
 10
4684.878432268971
 20
1450.328579645833
 11
4684.878432268971
 21
1430.000000000004
  0
LINE
  5
13B
100
AcDbEntity
  8
1
  6
CONTINUOUS
 62
           7
100
AcDbLine
 10
4684.878432268971
 20
1430.000000000004
 11
4741.878432268971
 21
1430.000000000004
  0
LINE
  5
13A
100
AcDbEntity
  8
1
  6
CONTINUOUS
 62
           7
100
AcDbLine
 10
4718.878432268971
 20
1430.000000000004
 11
4718.878432268971
 21
1450.328579645833
  0
LINE
  5
139
100
AcDbEntity
  8
1
  6
CONTINUOUS
 62
           7
100
AcDbLine
 10
4718.878432268971
 20
1549.671420354163
 11
4718.878432268971
 21
1570.000000000004
  0
LINE
  5
138
100
AcDbEntity
  8
1
  6
CONTINUOUS
 62
           7
100
AcDbLine
 10
4684.878432268971
 20
1570.000000000004
 11
4684.878432268971
 21
1549.671420354163
  0
LINE
  5
137
100
AcDbEntity
  8
1
  6
CONTINUOUS
 62
           7
100
AcDbLine
 10
4741.878432268971
 20
1430.000000000004
 11
4741.878432268971
 21
1443.740406481204
  0
LINE
  5
136
100
AcDbEntity
  8
1
  6
CONTINUOUS
 62
           7
100
AcDbLine
 10
4661.878432268971
 20
1570.000000000004
 11
4718.878432268971
 21
1570.000000000004
  0
LINE
  5
135
100
AcDbEntity
  8
1
  6
CONTINUOUS
 62
           7
100
AcDbLine
 10
4661.878432268971
 20
1570.000000000004
 11
4661.878432268971
 21
1556.259593518793
  0
LINE
  5
134
100
AcDbEntity
  8
1
  6
CONTINUOUS
 62
           7
100
AcDbLine
 10
4755.378432268971
 20
1464.177669529663
 11
4737.58499860906
 21
1481.971103189573
  0
LINE
  5
133
100
AcDbEntity
  8
1
  6
CONTINUOUS
 62
           7
100
AcDbLine
 10
4737.700762739309
 20
1446.500000000004
 11
4719.907329079397
 21
1464.293433659914
  0
LINE
  5
132
100
AcDbEntity
  8
1
  6
CONTINUOUS
 62
           7
100
AcDbLine
 10
4755.378432268971
 20
1535.822330470344
 11
4737.58499860906
 21
1518.028896810423
  0
LINE
  5
131
100
AcDbEntity
  8
1
  6
CONTINUOUS
 62
           7
100
AcDbLine
 10
4666.056101798635
 20
1553.500000000004
 11
4683.849535458548
 21
1535.706566340094
  0
LINE
  5
130
100
AcDbEntity
  8
1
  6
CONTINUOUS
 62
           7
100
AcDbLine
 10
4648.378432268971
 20
1464.177669529663
 11
4666.171865928886
 21
1481.971103189573
  0
LINE
  5
12F
100
AcDbEntity
  8
1
  6
CONTINUOUS
 62
           7
100
AcDbLine
 10
4737.700762739309
 20
1553.500000000004
 11
4719.907329079397
 21
1535.706566340094
  0
LINE
  5
12E
100
AcDbEntity
  8
1
  6
CONTINUOUS
 62
           7
100
AcDbLine
 10
4648.378432268971
 20
1535.822330470344
 11
4666.171865928886
 21
1518.028896810423
  0
LINE
  5
12D
100
AcDbEntity
  8
1
  6
CONTINUOUS
 62
           7
100
AcDbLine
 10
4666.056101798635
 20
1446.500000000004
 11
4683.849535458548
 21
1464.293433659914
  0
LINE
  5
12C
100
AcDbEntity
  8
1
  6
CONTINUOUS
 62
           7
100
AcDbLine
 10
4710.604422449763
 20
1496.930864068703
 11
4732.849353952661
 21
1474.685932565804
  0
LINE
  5
12B
100
AcDbEntity
  8
1
  6
CONTINUOUS
 62
           7
100
AcDbLine
 10
4704.947568200269
 20
1491.274009819213
 11
4727.192499703167
 21
1469.029078316313
  0
LINE
  5
12A
100
AcDbEntity
  8
1
  6
CONTINUOUS
 62
           7
100
AcDbLine
 10
4689.150510207616
 20
1515.556349186103
 11
4698.809296337676
 21
1508.725990180783
  0
LINE
  5
129
100
AcDbEntity
  8
1
  6
CONTINUOUS
 62
           7
100
AcDbLine
 10
4686.322083082869
 20
1512.727922061364
 11
4693.152442088184
 21
1503.069135931304
  0
LINE
  5
128
100
AcDbEntity
  8
1
  6
CONTINUOUS
 62
           7
100
AcDbLine
 10
4689.150510207616
 20
1515.556349186103
 11
4686.322083082869
 21
1512.727922061364
  0
LINE
  5
127
100
AcDbEntity
  8
1
  6
CONTINUOUS
 62
           7
100
AcDbLine
 10
2096.0
 20
1430.000000000004
 11
2050.0
 21
1430.000000000004
  0
LINE
  5
126
100
AcDbEntity
  8
1
  6
CONTINUOUS
 62
           7
100
AcDbLine
 10
2096.0
 20
1570.000000000004
 11
2050.0
 21
1570.000000000004
  0
LINE
  5
125
100
AcDbEntity
  8
1
  6
CONTINUOUS
 62
           7
100
AcDbLine
 10
2180.0
 20
1528.482374189474
 11
2163.5
 21
1528.482374189474
  0
LINE
  5
124
100
AcDbEntity
  8
1
  6
CONTINUOUS
 62
           7
100
AcDbLine
 10
2180.0
 20
1484.443650813893
 11
2163.5
 21
1484.443650813893
  0
LINE
  5
123
100
AcDbEntity
  8
1
  6
CONTINUOUS
 62
           7
100
AcDbLine
 10
2180.0
 20
1484.443650813893
 11
2180.0
 21
1528.482374189474
  0
LINE
  5
122
100
AcDbEntity
  8
1
  6
CONTINUOUS
 62
           7
100
AcDbLine
 10
2163.5
 20
1463.500000000004
 11
2163.5
 21
1536.500000000004
  0
LINE
  5
121
100
AcDbEntity
  8
1
  6
CONTINUOUS
 62
           7
100
AcDbLine
 10
2133.0
 20
1557.161165235164
 11
2133.0
 21
1515.556349186103
  0
LINE
  5
120
100
AcDbEntity
  8
1
  6
CONTINUOUS
 62
           7
100
AcDbLine
 10
2133.0
 20
1557.161165235164
 11
2118.0
 21
1557.161165235164
  0
LINE
  5
11F
100
AcDbEntity
  8
1
  6
CONTINUOUS
 62
           7
100
AcDbLine
 10
2133.0
 20
1442.838834764834
 11
2118.0
 21
1442.838834764834
  0
LINE
  5
11E
100
AcDbEntity
  8
1
  6
CONTINUOUS
 62
           7
100
AcDbLine
 10
2151.5
 20
1460.000000000004
 11
2133.0
 21
1460.000000000004
  0
LINE
  5
11D
100
AcDbEntity
  8
1
  6
CONTINUOUS
 62
           7
100
AcDbLine
 10
2151.5
 20
1540.000000000004
 11
2133.0
 21
1540.000000000004
  0
LINE
  5
11C
100
AcDbEntity
  8
1
  6
CONTINUOUS
 62
           7
100
AcDbLine
 10
2050.0
 20
1549.671420354163
 11
2062.0
 21
1549.671420354163
  0
LINE
  5
11B
100
AcDbEntity
  8
1
  6
CONTINUOUS
 62
           7
100
AcDbLine
 10
2096.0
 20
1430.000000000004
 11
2096.0
 21
1447.500000000004
  0
LINE
  5
11A
100
AcDbEntity
  8
1
  6
CONTINUOUS
 62
           7
100
AcDbLine
 10
2096.0
 20
1552.500000000004
 11
2096.0
 21
1570.000000000004
  0
LINE
  5
119
100
AcDbEntity
  8
1
  6
CONTINUOUS
 62
           7
100
AcDbLine
 10
2151.5
 20
1460.000000000004
 11
2151.5
 21
1540.000000000004
  0
LINE
  5
118
100
AcDbEntity
  8
1
  6
CONTINUOUS
 62
           7
100
AcDbLine
 10
2163.5
 20
1463.500000000004
 11
2151.5
 21
1463.500000000004
  0
LINE
  5
117
100
AcDbEntity
  8
1
  6
CONTINUOUS
 62
           7
100
AcDbLine
 10
2163.5
 20
1536.500000000004
 11
2151.5
 21
1536.500000000004
  0
LINE
  5
116
100
AcDbEntity
  8
1
  6
CONTINUOUS
 62
           7
100
AcDbLine
 10
2062.0
 20
1450.328579645833
 11
2062.0
 21
1481.971103189573
  0
LINE
  5
115
100
AcDbEntity
  8
1
  6
CONTINUOUS
 62
           7
100
AcDbLine
 10
2062.0
 20
1518.028896810423
 11
2062.0
 21
1549.671420354163
  0
LINE
  5
114
100
AcDbEntity
  8
1
  6
CONTINUOUS
 62
           7
100
AcDbLine
 10
2118.0
 20
1442.838834764834
 11
2113.338834764832
 21
1447.500000000004
  0
LINE
  5
113
100
AcDbEntity
  8
1
  6
CONTINUOUS
 62
           7
100
AcDbLine
 10
2113.338834764832
 20
1447.500000000004
 11
2113.338834764832
 21
1552.500000000004
  0
LINE
  5
112
100
AcDbEntity
  8
1
  6
CONTINUOUS
 62
           7
100
AcDbLine
 10
2113.338834764832
 20
1552.500000000004
 11
2118.0
 21
1557.161165235164
  0
LINE
  5
111
100
AcDbEntity
  8
1
  6
CONTINUOUS
 62
           7
100
AcDbLine
 10
2113.338834764832
 20
1552.500000000004
 11
2096.0
 21
1552.500000000004
  0
LINE
  5
110
100
AcDbEntity
  8
1
  6
CONTINUOUS
 62
           7
100
AcDbLine
 10
2113.338834764832
 20
1447.500000000004
 11
2096.0
 21
1447.500000000004
  0
LINE
  5
10F
100
AcDbEntity
  8
1
  6
CONTINUOUS
 62
           7
100
AcDbLine
 10
2133.0
 20
1484.443650813893
 11
2133.0
 21
1442.838834764834
  0
LINE
  5
10E
100
AcDbEntity
  8
1
  6
CONTINUOUS
 62
           7
100
AcDbLine
 10
2113.338834764832
 20
1481.971103189573
 11
2118.0
 21
1484.443650813893
  0
LINE
  5
10D
100
AcDbEntity
  8
1
  6
CONTINUOUS
 62
           7
100
AcDbLine
 10
2113.338834764832
 20
1481.971103189573
 11
2062.0
 21
1481.971103189573
  0
LINE
  5
10C
100
AcDbEntity
  8
1
  6
CONTINUOUS
 62
           7
100
AcDbLine
 10
2118.0
 20
1515.556349186103
 11
2113.338834764832
 21
1518.028896810423
  0
LINE
  5
10B
100
AcDbEntity
  8
1
  6
CONTINUOUS
 62
           7
100
AcDbLine
 10
2113.338834764832
 20
1518.028896810423
 11
2062.0
 21
1518.028896810423
  0
LINE
  5
10A
100
AcDbEntity
  8
1
  6
CONTINUOUS
 62
           7
100
AcDbLine
 10
2133.0
 20
1484.443650813893
 11
2118.0
 21
1484.443650813893
  0
LINE
  5
109
100
AcDbEntity
  8
1
  6
CONTINUOUS
 62
           7
100
AcDbLine
 10
2133.0
 20
1515.556349186103
 11
2118.0
 21
1515.556349186103
  0
LINE
  5
108
100
AcDbEntity
  8
1
  6
CONTINUOUS
 62
           7
100
AcDbLine
 10
2096.0
 20
1447.500000000004
 11
2062.0
 21
1447.500000000004
  0
LINE
  5
107
100
AcDbEntity
  8
1
  6
CONTINUOUS
 62
           7
100
AcDbLine
 10
2062.0
 20
1447.500000000004
 11
2062.0
 21
1450.328579645833
  0
LINE
  5
106
100
AcDbEntity
  8
1
  6
CONTINUOUS
 62
           7
100
AcDbLine
 10
2096.0
 20
1552.500000000004
 11
2062.0
 21
1552.500000000004
  0
LINE
  5
105
100
AcDbEntity
  8
1
  6
CONTINUOUS
 62
           7
100
AcDbLine
 10
2062.0
 20
1552.500000000004
 11
2062.0
 21
1531.378889924883
  0
LINE
  5
104
100
AcDbEntity
  8
1
  6
CONTINUOUS
 62
           7
100
AcDbLine
 10
2062.0
 20
1450.328579645833
 11
2050.0
 21
1450.328579645833
  0
LINE
  5
103
100
AcDbEntity
  8
1
  6
CONTINUOUS
 62
           7
100
AcDbLine
 10
2062.0
 20
4615.328579645836
 11
2050.0
 21
4615.328579645836
  0
LINE
  5
102
100
AcDbEntity
  8
1
  6
CONTINUOUS
 62
           7
100
AcDbLine
 10
2062.0
 20
4717.499999999999
 11
2062.0
 21
4696.378889924882
  0
LINE
  5
101
100
AcDbEntity
  8
1
  6
CONTINUOUS
 62
           7
100
AcDbLine
 10
2096.0
 20
4717.499999999999
 11
2062.0
 21
4717.499999999999
  0
LINE
  5
100
100
AcDbEntity
  8
1
  6
CONTINUOUS
 62
           7
100
AcDbLine
 10
2062.0
 20
4612.499999999999
 11
2062.0
 21
4615.328579645836
  0
LINE
  5
FF
100
AcDbEntity
  8
1
  6
CONTINUOUS
 62
           7
100
AcDbLine
 10
2096.000000000001
 20
4612.5
 11
2062.0
 21
4612.499999999999
  0
LINE
  5
FE
100
AcDbEntity
  8
1
  6
CONTINUOUS
 62
           7
100
AcDbLine
 10
2133.0
 20
4683.028896810424
 11
2118.0
 21
4683.028896810424
  0
LINE
  5
FD
100
AcDbEntity
  8
1
  6
CONTINUOUS
 62
           7
100
AcDbLine
 10
2113.338834764832
 20
4692.216677989811
 11
2062.000000000001
 21
4692.216677989811
  0
LINE
  5
FC
100
AcDbEntity
  8
1
  6
CONTINUOUS
 62
           7
100
AcDbLine
 10
2118.0
 20
4683.028896810424
 11
2113.338834764832
 21
4692.216677989811
  0
LINE
  5
FB
100
AcDbEntity
  8
1
  6
CONTINUOUS
 62
           7
100
AcDbLine
 10
2113.338834764832
 20
4612.499999999999
 11
2096.000000000001
 21
4612.5
  0
LINE
  5
FA
100
AcDbEntity
  8
1
  6
CONTINUOUS
 62
           7
100
AcDbLine
 10
2113.338834764832
 20
4717.499999999999
 11
2096.0
 21
4717.499999999999
  0
LINE
  5
F9
100
AcDbEntity
  8
1
  6
CONTINUOUS
 62
           7
100
AcDbLine
 10
2113.338834764832
 20
4717.499999999999
 11
2118.0
 21
4722.161165235167
  0
LINE
  5
F8
100
AcDbEntity
  8
1
  6
CONTINUOUS
 62
           7
100
AcDbLine
 10
2113.338834764832
 20
4612.499999999999
 11
2113.338834764832
 21
4637.783322010192
  0
LINE
  5
F7
100
AcDbEntity
  8
1
  6
CONTINUOUS
 62
           7
100
AcDbLine
 10
2118.0
 20
4607.838834764832
 11
2113.338834764832
 21
4612.499999999999
  0
LINE
  5
F6
100
AcDbEntity
  8
1
  6
CONTINUOUS
 62
           7
100
AcDbLine
 10
2062.0
 20
4714.671420354162
 11
2062.0
 21
4681.999999999999
  0
LINE
  5
F5
100
AcDbEntity
  8
1
  6
CONTINUOUS
 62
           7
100
AcDbLine
 10
2163.5
 20
4701.499999999999
 11
2151.5
 21
4701.499999999999
  0
LINE
  5
F4
100
AcDbEntity
  8
1
  6
CONTINUOUS
 62
           7
100
AcDbLine
 10
2163.5
 20
4628.499999999999
 11
2151.5
 21
4628.499999999999
  0
LINE
  5
F3
100
AcDbEntity
  8
1
  6
CONTINUOUS
 62
           7
100
AcDbLine
 10
2151.5
 20
4624.999999999999
 11
2151.5
 21
4704.999999999999
  0
LINE
  5
F2
100
AcDbEntity
  8
1
  6
CONTINUOUS
 62
           7
100
AcDbLine
 10
2096.0
 20
4717.499999999999
 11
2096.0
 21
4734.999999999999
  0
LINE
  5
F1
100
AcDbEntity
  8
1
  6
CONTINUOUS
 62
           7
100
AcDbLine
 10
2096.0
 20
4594.999999999999
 11
2096.000000000001
 21
4612.5
  0
LINE
  5
F0
100
AcDbEntity
  8
1
  6
CONTINUOUS
 62
           7
100
AcDbLine
 10
2050.0
 20
4714.671420354162
 11
2062.0
 21
4714.671420354162
  0
LINE
  5
EF
100
AcDbEntity
  8
1
  6
CONTINUOUS
 62
           7
100
AcDbLine
 10
2151.5
 20
4704.999999999999
 11
2133.0
 21
4704.999999999999
  0
LINE
  5
EE
100
AcDbEntity
  8
1
  6
CONTINUOUS
 62
           7
100
AcDbLine
 10
2151.5
 20
4624.999999999999
 11
2133.0
 21
4624.999999999999
  0
LINE
  5
ED
100
AcDbEntity
  8
1
  6
CONTINUOUS
 62
           7
100
AcDbLine
 10
2133.0
 20
4607.838834764832
 11
2118.0
 21
4607.838834764832
  0
LINE
  5
EC
100
AcDbEntity
  8
1
  6
CONTINUOUS
 62
           7
100
AcDbLine
 10
2133.0
 20
4722.161165235167
 11
2118.0
 21
4722.161165235167
  0
LINE
  5
EB
100
AcDbEntity
  8
1
  6
CONTINUOUS
 62
           7
100
AcDbLine
 10
2133.0
 20
4722.161165235167
 11
2133.0
 21
4683.028896810424
  0
LINE
  5
EA
100
AcDbEntity
  8
1
  6
CONTINUOUS
 62
           7
100
AcDbLine
 10
2163.5
 20
4628.499999999999
 11
2163.5
 21
4701.499999999999
  0
LINE
  5
E9
100
AcDbEntity
  8
1
  6
CONTINUOUS
 62
           7
100
AcDbLine
 10
2180.0
 20
4649.443650813896
 11
2180.0
 21
4693.482374189475
  0
LINE
  5
E8
100
AcDbEntity
  8
1
  6
CONTINUOUS
 62
           7
100
AcDbLine
 10
2180.0
 20
4649.443650813896
 11
2163.5
 21
4649.443650813896
  0
LINE
  5
E7
100
AcDbEntity
  8
1
  6
CONTINUOUS
 62
           7
100
AcDbLine
 10
2180.0
 20
4693.482374189475
 11
2163.5
 21
4693.482374189475
  0
LINE
  5
E6
100
AcDbEntity
  8
1
  6
CONTINUOUS
 62
           7
100
AcDbLine
 10
2096.0
 20
4734.999999999999
 11
2050.0
 21
4734.999999999999
  0
LINE
  5
E5
100
AcDbEntity
  8
1
  6
CONTINUOUS
 62
           7
100
AcDbLine
 10
2096.0
 20
4594.999999999999
 11
2050.0
 21
4594.999999999999
  0
LINE
  5
E4
100
AcDbEntity
  8
1
  6
CONTINUOUS
 62
           7
100
AcDbLine
 10
2062.0
 20
4637.783322010192
 11
2113.338834764832
 21
4637.783322010192
  0
LINE
  5
E3
100
AcDbEntity
  8
1
  6
CONTINUOUS
 62
           7
100
AcDbLine
 10
2113.338834764832
 20
4637.783322010192
 11
2118.0
 21
4646.971103189578
  0
LINE
  5
E2
100
AcDbEntity
  8
1
  6
CONTINUOUS
 62
           7
100
AcDbLine
 10
2113.338834764832
 20
4637.783322010192
 11
2113.338834764832
 21
4717.499999999999
  0
LINE
  5
E1
100
AcDbEntity
  8
1
  6
CONTINUOUS
 62
           7
100
AcDbLine
 10
2118.0
 20
4646.971103189578
 11
2133.0
 21
4646.971103189578
  0
LINE
  5
E0
100
AcDbEntity
  8
1
  6
CONTINUOUS
 62
           7
100
AcDbLine
 10
2133.0
 20
4646.971103189578
 11
2133.0
 21
4607.838834764832
  0
LINE
  5
DF
100
AcDbEntity
  8
1
  6
CONTINUOUS
 62
           7
100
AcDbLine
 10
2062.0
 20
4647.999999999999
 11
2062.0
 21
4615.328579645836
  0
LINE
  5
DE
100
AcDbEntity
  8
1
  6
CONTINUOUS
 62
           7
100
AcDbLine
 10
2062.0
 20
4681.999999999999
 11
2079.0
 21
4681.999999999999
  0
LINE
  5
DD
100
AcDbEntity
  8
1
  6
CONTINUOUS
 62
           7
100
AcDbLine
 10
2062.0
 20
4647.999999999999
 11
2079.0
 21
4647.999999999999
  0
LINE
  5
DC
100
AcDbEntity
  8
1
  6
DOT_CENTER
 62
           2
100
AcDbLine
 10
268.071522791034
 20
4815.0
 11
1760.280332350791
 21
4814.999999999999
  0
LINE
  5
DB
100
AcDbEntity
  8
1
  6
CONTINUOUS
 62
           7
100
AcDbLine
 10
535.0
 20
4857.426406871192
 11
535.0
 21
4877.499999999999
  0
LINE
  5
DA
100
AcDbEntity
  8
1
  6
CONTINUOUS
 62
           7
100
AcDbLine
 10
535.0
 20
4877.499999999999
 11
565.0
 21
4877.499999999999
  0
LINE
  5
D9
100
AcDbEntity
  8
1
  6
CONTINUOUS
 62
           7
100
AcDbLine
 10
565.0
 20
4877.499999999999
 11
565.0
 21
4857.426406871193
  0
LINE
  5
D8
100
AcDbEntity
  8
1
  6
CONTINUOUS
 62
           7
100
AcDbLine
 10
507.573593128807
 20
4799.999999999999
 11
487.5
 21
4799.999999999999
  0
LINE
  5
D7
100
AcDbEntity
  8
1
  6
CONTINUOUS
 62
           7
100
AcDbLine
 10
565.0
 20
4772.573593128806
 11
565.0
 21
4752.499999999999
  0
LINE
  5
D6
100
AcDbEntity
  8
1
  6
CONTINUOUS
 62
           7
100
AcDbLine
 10
592.426406871193
 20
4830.0
 11
612.499999999999
 21
4830.0
  0
LINE
  5
D5
100
AcDbEntity
  8
1
  6
CONTINUOUS
 62
           7
100
AcDbLine
 10
487.5
 20
4799.999999999999
 11
487.5
 21
4829.999999999999
  0
LINE
  5
D4
100
AcDbEntity
  8
1
  6
CONTINUOUS
 62
           7
100
AcDbLine
 10
565.0
 20
4752.499999999999
 11
535.0
 21
4752.499999999999
  0
LINE
  5
D3
100
AcDbEntity
  8
1
  6
CONTINUOUS
 62
           7
100
AcDbLine
 10
612.499999999999
 20
4830.0
 11
612.499999999999
 21
4799.999999999999
  0
LINE
  5
D2
100
AcDbEntity
  8
1
  6
CONTINUOUS
 62
           7
100
AcDbLine
 10
487.5
 20
4829.999999999999
 11
507.573593128807
 21
4830.0
  0
LINE
  5
D1
100
AcDbEntity
  8
1
  6
CONTINUOUS
 62
           7
100
AcDbLine
 10
535.0
 20
4752.499999999999
 11
535.0
 21
4772.573593128806
  0
LINE
  5
D0
100
AcDbEntity
  8
1
  6
CONTINUOUS
 62
           7
100
AcDbLine
 10
612.499999999999
 20
4799.999999999999
 11
592.426406871193
 21
4799.999999999999
  0
LINE
  5
CF
100
AcDbEntity
  8
1
  6
DOT_CENTER
 62
           2
100
AcDbLine
 10
4851.878432268971
 20
2213.047564257504
 11
4851.878432268971
 21
1935.440799157823
  0
LINE
  5
CE
100
AcDbEntity
  8
1
  6
CONTINUOUS
 62
           2
100
AcDbLine
 10
6581.878432268973
 20
1980.000000000004
 11
5621.878432268973
 21
1980.000000000004
  0
LINE
  5
CD
100
AcDbEntity
  8
1
  6
CONTINUOUS
 62
           2
100
AcDbLine
 10
6581.878432268973
 20
520.000000000004
 11
6581.878432268973
 21
1980.000000000004
  0
LINE
  5
CC
100
AcDbEntity
  8
1
  6
CONTINUOUS
 62
           2
100
AcDbLine
 10
5621.878432268973
 20
520.000000000004
 11
6581.878432268973
 21
520.000000000004
  0
LINE
  5
CB
100
AcDbEntity
  8
1
  6
CONTINUOUS
 62
           2
100
AcDbLine
 10
5121.878432268973
 20
520.000000000004
 11
5581.878432268973
 21
520.000000000004
  0
LINE
  5
CA
100
AcDbEntity
  8
1
  6
CONTINUOUS
 62
           2
100
AcDbLine
 10
5121.878432268973
 20
1980.000000000004
 11
5121.878432268973
 21
520.000000000004
  0
LINE
  5
C9
100
AcDbEntity
  8
1
  6
CONTINUOUS
 62
           2
100
AcDbLine
 10
5581.878432268973
 20
1980.000000000004
 11
5121.878432268973
 21
1980.000000000004
  0
LINE
  5
C8
100
AcDbEntity
  8
1
  6
CONTINUOUS
 62
           7
100
AcDbLine
 10
5601.878432268973
 20
2000.000000000004
 11
5601.878432268973
 21
2075.000000000004
  0
LINE
  5
C7
100
AcDbEntity
  8
1
  6
CONTINUOUS
 62
           2
100
AcDbLine
 10
6581.311757573531
 20
20.000000000004
 11
6581.311757573531
 21
479.385061529883
  0
LINE
  5
C6
100
AcDbEntity
  8
1
  6
CONTINUOUS
 62
           2
100
AcDbLine
 10
5121.878432268973
 20
20.000000000004
 11
6581.311757573531
 21
20.000000000004
  0
LINE
  5
C5
100
AcDbEntity
  8
1
  6
CONTINUOUS
 62
           2
100
AcDbLine
 10
5121.878432268973
 20
479.385061529883
 11
5121.878432268973
 21
20.000000000004
  0
LINE
  5
C4
100
AcDbEntity
  8
1
  6
CONTINUOUS
 62
           2
100
AcDbLine
 10
6581.311757573531
 20
479.385061529883
 11
5121.878432268973
 21
479.385061529883
  0
LINE
  5
C3
100
AcDbEntity
  8
1
  6
CONTINUOUS
 62
           7
100
AcDbLine
 10
5101.878432268973
 20
500.000000000004
 11
6601.878432268973
 21
500.000000000004
  0
LINE
  5
C2
100
AcDbEntity
  8
1
  6
CONTINUOUS
 62
           7
100
AcDbLine
 10
5101.878432268973
 20
0.0
 11
5101.878432268973
 21
2000.000000000004
  0
LINE
  5
C1
100
AcDbEntity
  8
1
  6
CONTINUOUS
 62
           2
100
AcDbLine
 10
4621.878432268971
 20
1980.000000000004
 11
4621.878432268971
 21
1670.000000000004
  0
LINE
  5
C0
100
AcDbEntity
  8
1
  6
CONTINUOUS
 62
           2
100
AcDbLine
 10
5081.878432268971
 20
1980.000000000004
 11
4621.878432268971
 21
1980.000000000004
  0
LINE
  5
BF
100
AcDbEntity
  8
1
  6
CONTINUOUS
 62
           2
100
AcDbLine
 10
5081.878432268971
 20
20.000000000004
 11
5081.878432268971
 21
1330.000000000004
  0
LINE
  5
BE
100
AcDbEntity
  8
1
  6
CONTINUOUS
 62
           2
100
AcDbLine
 10
4621.878432268971
 20
20.000000000004
 11
5081.878432268971
 21
20.000000000004
  0
LINE
  5
BD
100
AcDbEntity
  8
1
  6
CONTINUOUS
 62
           7
100
AcDbLine
 10
-2050.0
 20
4564.999999999999
 11
2050.000000000002
 21
4564.999999999999
  0
LINE
  5
BC
100
AcDbEntity
  8
1
  6
CONTINUOUS
 62
           7
100
AcDbLine
 10
-2049.999999999999
 20
6565.0
 11
-2050.0
 21
4564.999999999999
  0
LINE
  5
BB
100
AcDbEntity
  8
1
  6
CONTINUOUS
 62
           7
100
AcDbLine
 10
-2049.999999999999
 20
5565.0
 11
-464.61064030104
 21
5564.999999999999
  0
LINE
  5
BA
100
AcDbEntity
  8
1
  6
CONTINUOUS
 62
           2
100
AcDbLine
 10
-20.0
 20
4614.999999999999
 11
-20.0
 21
5433.909679372601
  0
LINE
  5
B9
100
AcDbEntity
  8
1
  6
CONTINUOUS
 62
           7
100
AcDbLine
 10
-2050.0
 20
4614.999999999999
 11
2050.0
 21
4614.999999999999
  0
LINE
  5
B8
100
AcDbEntity
  8
1
  6
CONTINUOUS
 62
           2
100
AcDbLine
 10
-1979.999999999999
 20
5545.0
 11
-1980.0
 21
4614.999999999999
  0
LINE
  5
B7
100
AcDbEntity
  8
1
  6
CONTINUOUS
 62
           7
100
AcDbLine
 10
-1999.999999999999
 20
4615.0
 11
-2000.0
 21
6564.999999999999
  0
LINE
  5
B6
100
AcDbEntity
  8
1
  6
CONTINUOUS
 62
           7
100
AcDbLine
 10
2000.000000000001
 20
4615.0
 11
2000.0
 21
6564.999999999999
  0
LINE
  5
B5
100
AcDbEntity
  8
1
  6
CONTINUOUS
 62
           7
100
AcDbLine
 10
500.0
 20
5564.999999999999
 11
500.0
 21
5815.835271328306
  0
LINE
  5
B4
100
AcDbEntity
  8
1
  6
CONTINUOUS
 62
           2
100
AcDbLine
 10
520.0
 20
6545.0
 11
520.0
 21
6108.251027063156
  0
LINE
  5
B3
100
AcDbEntity
  8
1
  6
CONTINUOUS
 62
           2
100
AcDbLine
 10
-1980.0
 20
5584.999999999999
 11
-520.0
 21
5584.999999999999
  0
LINE
  5
B2
100
AcDbEntity
  8
1
  6
CONTINUOUS
 62
           2
100
AcDbLine
 10
-1980.0
 20
5584.999999999999
 11
-1980.0
 21
6544.999999999999
  0
LINE
  5
B1
100
AcDbEntity
  8
1
  6
CONTINUOUS
 62
           7
100
AcDbLine
 10
2550.000000000001
 20
0.0
 11
-2550.0
 21
0.0
  0
LINE
  5
B0
100
AcDbEntity
  8
1
  6
CONTINUOUS
 62
           7
100
AcDbLine
 10
2050.000000000001
 20
0.0
 11
2050.0
 21
2150.000000000004
  0
LINE
  5
AF
100
AcDbEntity
  8
1
  6
CONTINUOUS
 62
           7
100
AcDbLine
 10
2050.0
 20
2150.000000000004
 11
-2050.0
 21
2150.000000000004
  0
LINE
  5
AE
100
AcDbEntity
  8
1
  6
CONTINUOUS
 62
           7
100
AcDbLine
 10
-2050.0
 20
2150.000000000004
 11
-2050.0
 21
0.0
  0
LINE
  5
AD
100
AcDbEntity
  8
1
  6
CONTINUOUS
 62
           7
100
AcDbLine
 10
2050.0
 20
2000.000000000004
 11
-2050.0
 21
2000.000000000004
  0
LINE
  5
AC
100
AcDbEntity
  8
1
  6
CONTINUOUS
 62
           7
100
AcDbLine
 10
4601.878432268971
 20
0.0
 11
4601.878432268971
 21
2150.000000000004
  0
LINE
  5
AB
100
AcDbEntity
  8
1
  6
CONTINUOUS
 62
           7
100
AcDbLine
 10
6601.878432268973
 20
0.0
 11
6601.878432268973
 21
2075.000000000004
  0
LINE
  5
AA
100
AcDbEntity
  8
1
  6
CONTINUOUS
 62
           7
100
AcDbLine
 10
6601.878432268973
 20
2000.000000000004
 11
4601.878432268971
 21
2000.000000000004
  0
LINE
  5
A9
100
AcDbEntity
  8
1
  6
CONTINUOUS
 62
           7
100
AcDbLine
 10
4601.878432268971
 20
2150.000000000004
 11
4651.878432268971
 21
2150.000000000004
  0
LINE
  5
A8
100
AcDbEntity
  8
1
  6
CONTINUOUS
 62
           7
100
AcDbLine
 10
4651.878432268971
 20
2120.000000000004
 11
4651.878432268971
 21
2150.000000000004
  0
LINE
  5
A7
100
AcDbEntity
  8
1
  6
CONTINUOUS
 62
           2
100
AcDbLine
 10
4601.878432268971
 20
2004.000000000004
 11
6601.878432268973
 21
2004.000000000004
  0
LINE
  5
A6
100
AcDbEntity
  8
1
  6
CONTINUOUS
 62
           7
100
AcDbLine
 10
5601.878432268973
 20
2075.000000000004
 11
6601.878432268973
 21
2075.000000000004
  0
LINE
  5
A5
100
AcDbEntity
  8
1
  6
CONTINUOUS
 62
           2
100
AcDbLine
 10
-737.999999999999
 20
6544.999999999999
 11
-1980.0
 21
6544.999999999999
  0
LINE
  5
A4
100
AcDbEntity
  8
1
  6
CONTINUOUS
 62
           7
100
AcDbLine
 10
-2000.0
 20
0.0
 11
-2000.0
 21
2000.000000000004
  0
LINE
  5
A3
100
AcDbEntity
  8
1
  6
CONTINUOUS
 62
           7
100
AcDbLine
 10
2000.0
 20
0.0
 11
2000.0
 21
2000.000000000004
  0
LINE
  5
A2
100
AcDbEntity
  8
1
  6
CONTINUOUS
 62
           2
100
AcDbLine
 10
2000.0
 20
1900.000000000004
 11
-2000.0
 21
1900.000000000004
  0
LINE
  5
A1
100
AcDbEntity
  8
1
  6
CONTINUOUS
 62
           7
100
AcDbLine
 10
2000.0
 20
50.000000000004
 11
-2000.0
 21
50.000000000004
  0
LINE
  5
A0
100
AcDbEntity
  8
1
  6
CONTINUOUS
 62
           7
100
AcDbLine
 10
-2000.0
 20
400.000000000004
 11
2000.0
 21
400.000000000004
  0
LINE
  5
9F
100
AcDbEntity
  8
1
  6
CONTINUOUS
 62
           7
100
AcDbLine
 10
1985.0
 20
540.000000000004
 11
1985.0
 21
475.000000000004
  0
LINE
  5
9E
100
AcDbEntity
  8
1
  6
CONTINUOUS
 62
           7
100
AcDbLine
 10
15.0
 20
540.000000000004
 11
15.0
 21
475.000000000004
  0
LINE
  5
9D
100
AcDbEntity
  8
1
  6
CONTINUOUS
 62
           7
100
AcDbLine
 10
-2000.0
 20
800.000000000004
 11
2000.0
 21
800.000000000004
  0
LINE
  5
9C
100
AcDbEntity
  8
1
  6
CONTINUOUS
 62
           7
100
AcDbLine
 10
1985.0
 20
500.000000000004
 11
2000.0
 21
500.000000000004
  0
LINE
  5
9B
100
AcDbEntity
  8
1
  6
CONTINUOUS
 62
           7
100
AcDbLine
 10
-2000.0
 20
500.000000000004
 11
-1985.0
 21
500.000000000004
  0
LINE
  5
9A
100
AcDbEntity
  8
1
  6
DOT_CENTER
 62
           2
100
AcDbLine
 10
5385.561732910144
 20
2413.000000000004
 11
6771.878432268971
 21
2413.000000000004
  0
LINE
  5
99
100
AcDbEntity
  8
1
  6
DOT_CENTER
 62
           2
100
AcDbLine
 10
6101.878432268973
 20
1887.309178624824
 11
6101.878432268973
 21
3319.695202158872
  0
LINE
  5
98
100
AcDbEntity
  8
1
  6
DOT_CENTER
 62
           2
100
AcDbLine
 10
-868.371203673229
 20
2413.000000000004
 11
729.816565135527
 21
2413.000000000004
  0
LINE
  5
97
100
AcDbEntity
  8
1
  6
CONTINUOUS
 62
           7
100
AcDbLine
 10
1985.0
 20
540.000000000004
 11
15.0
 21
540.000000000004
  0
LINE
  5
96
100
AcDbEntity
  8
1
  6
DOT_CENTER
 62
           2
100
AcDbLine
 10
0.0
 20
3270.543537887943
 11
0.0
 21
-73.010110410687
  0
LINE
  5
95
100
AcDbEntity
  8
1
  6
DOT_CENTER
 62
           2
100
AcDbLine
 10
-882.872015093078
 20
6064.999999999999
 11
646.39920090076
 21
6064.999999999999
  0
LINE
  5
94
100
AcDbEntity
  8
1
  6
DOT_CENTER
 62
           2
100
AcDbLine
 10
0.0
 20
6729.216232355003
 11
0.0
 21
4452.062267040244
  0
LINE
  5
93
100
AcDbEntity
  8
1
  6
DOT_CENTER
 62
           2
100
AcDbLine
 10
5826.878432268973
 20
600.000000000004
 11
5976.878432268973
 21
600.000000000004
  0
LINE
  5
92
100
AcDbEntity
  8
1
  6
DOT_CENTER
 62
           2
100
AcDbLine
 10
5901.878432268973
 20
675.000000000004
 11
5901.878432268973
 21
525.000000000004
  0
LINE
  5
91
100
AcDbEntity
  8
1
  6
CONTINUOUS
 62
           7
100
AcDbLine
 10
50.0
 20
6564.999999999999
 11
2050.0
 21
6564.999999999999
  0
LINE
  5
90
100
AcDbEntity
  8
1
  6
CONTINUOUS
 62
           2
100
AcDbLine
 10
1980.0
 20
6544.999999999999
 11
1980.0
 21
5584.999999999999
  0
LINE
  5
8F
100
AcDbEntity
  8
1
  6
CONTINUOUS
 62
           2
100
AcDbLine
 10
1980.000000000001
 20
5545.0
 11
1980.0
 21
4614.999999999999
  0
LINE
  5
8E
100
AcDbEntity
  8
1
  6
CONTINUOUS
 62
           7
100
AcDbLine
 10
-730.0
 20
6564.999999999999
 11
-2049.999999999999
 21
6565.0
  0
LINE
  5
8D
100
AcDbEntity
  8
1
  6
CONTINUOUS
 62
           2
100
AcDbLine
 10
2004.0
 20
6564.999999999999
 11
2004.0
 21
4614.999999999999
  0
LINE
  5
8C
100
AcDbEntity
  8
1
  6
CONTINUOUS
 62
           2
100
AcDbLine
 10
1980.0
 20
6544.999999999999
 11
520.0
 21
6545.0
  0
LINE
  5
8B
100
AcDbEntity
  8
1
  6
CONTINUOUS
 62
           2
100
AcDbLine
 10
1980.0
 20
5584.999999999999
 11
520.0
 21
5584.999999999999
  0
LINE
  5
8A
100
AcDbEntity
  8
1
  6
CONTINUOUS
 62
           2
100
AcDbLine
 10
-2004.0
 20
6564.999999999999
 11
-2004.0
 21
4614.999999999999
  0
LINE
  5
89
100
AcDbEntity
  8
1
  6
CONTINUOUS
 62
           2
100
AcDbLine
 10
-1979.999999999999
 20
5545.0
 11
-435.831483154992
 21
5545.0
  0
LINE
  5
88
100
AcDbEntity
  8
1
  6
CONTINUOUS
 62
           7
100
AcDbLine
 10
7101.878432268971
 20
0.0
 11
4101.878432268971
 21
0.0
  0
LINE
  5
87
100
AcDbEntity
  8
1
  6
CONTINUOUS
 62
           7
100
AcDbLine
 10
319.323706252388
 20
5564.999999999999
 11
2050.000000000001
 21
5565.0
  0
LINE
  5
86
100
AcDbEntity
  8
1
  6
CONTINUOUS
 62
           2
100
AcDbLine
 10
20.0
 20
5437.072668928005
 11
20.0
 21
4614.999999999999
  0
LINE
  5
85
100
AcDbEntity
  8
1
  6
CONTINUOUS
 62
           2
100
AcDbLine
 10
1980.000000000001
 20
5545.0
 11
293.511280746353
 21
5544.999999999999
  0
LINE
  5
84
100
AcDbEntity
  8
1
  6
CONTINUOUS
 62
           2
100
AcDbLine
 10
520.0
 20
5896.678404338006
 11
520.0
 21
5584.999999999999
  0
LINE
  5
83
100
AcDbEntity
  8
1
  6
CONTINUOUS
 62
           7
100
AcDbLine
 10
500.0
 20
6180.314069395833
 11
500.0
 21
6564.999999999999
  0
LINE
  5
82
100
AcDbEntity
  8
1
  6
CONTINUOUS
 62
           7
100
AcDbLine
 10
4945.628432268971
 20
1537.562448003293
 11
4945.628432268971
 21
1462.437551996714
  0
LINE
  5
81
100
AcDbEntity
  8
1
  6
CONTINUOUS
 62
           7
100
AcDbLine
 10
4918.128432268971
 20
1537.562448003293
 11
4918.128432268971
 21
1462.437551996714
  0
LINE
  5
80
100
AcDbEntity
  8
1
  6
CONTINUOUS
 62
           7
100
AcDbLine
 10
2050.000000000002
 20
4564.999999999999
 11
2050.0
 21
6564.999999999999
  0
LINE
  5
7F
100
AcDbEntity
  8
1
  6
CONTINUOUS
 62
           7
100
AcDbLine
 10
4841.878432268971
 20
1862.000000000005
 11
4841.878432268971
 21
1950.000000000005
  0
LINE
  5
7E
100
AcDbEntity
  8
1
  6
CONTINUOUS
 62
           7
100
AcDbLine
 10
4651.878432268971
 20
1862.000000000005
 11
4841.878432268971
 21
1862.000000000005
  0
LINE
  5
7D
100
AcDbEntity
  8
1
  6
CONTINUOUS
 62
           7
100
AcDbLine
 10
4651.878432268971
 20
1950.000000000005
 11
4651.878432268971
 21
1862.000000000005
  0
LINE
  5
7C
100
AcDbEntity
  8
1
  6
CONTINUOUS
 62
           7
100
AcDbLine
 10
4841.878432268971
 20
1950.000000000005
 11
4651.878432268971
 21
1950.000000000005
  0
LINE
  5
7B
100
AcDbEntity
  8
1
  6
CONTINUOUS
 62
           7
100
AcDbLine
 10
5331.878432268971
 20
1330.000000000005
 11
5151.878432268971
 21
1330.000000000005
  0
LINE
  5
7A
100
AcDbEntity
  8
1
  6
CONTINUOUS
 62
           7
100
AcDbLine
 10
5151.878432268971
 20
1570.000000000005
 11
5331.878432268971
 21
1570.000000000005
  0
LINE
  5
79
100
AcDbEntity
  8
1
  6
CONTINUOUS
 62
           7
100
AcDbLine
 10
5151.878432268971
 20
1330.000000000005
 11
5151.878432268971
 21
1570.000000000005
  0
LINE
  5
78
100
AcDbEntity
  8
1
  6
CONTINUOUS
 62
           7
100
AcDbLine
 10
5331.878432268971
 20
1570.000000000005
 11
5331.878432268971
 21
1330.000000000005
  0
LINE
  5
77
100
AcDbEntity
  8
1
  6
CONTINUOUS
 62
           7
100
AcDbLine
 10
4601.878432268971
 20
2050.000000000004
 11
6601.878432268973
 21
2050.000000000004
  0
LINE
  5
76
100
AcDbEntity
  8
1
  6
CONTINUOUS
 62
           7
100
AcDbLine
 10
5151.878432268979
 20
1753.0
 11
5151.878432268979
 21
1640.0
  0
LINE
  5
75
100
AcDbEntity
  8
1
  6
CONTINUOUS
 62
           7
100
AcDbLine
 10
5331.878432268978
 20
1753.0
 11
5151.878432268979
 21
1753.0
  0
LINE
  5
74
100
AcDbEntity
  8
1
  6
CONTINUOUS
 62
           7
100
AcDbLine
 10
5331.878432268978
 20
1640.0
 11
5331.878432268978
 21
1753.0
  0
LINE
  5
73
100
AcDbEntity
  8
1
  6
CONTINUOUS
 62
           7
100
AcDbLine
 10
5151.878432268979
 20
1640.0
 11
5331.878432268978
 21
1640.0
  0
LINE
  5
72
100
AcDbEntity
  8
1
  6
CONTINUOUS
 62
           7
100
AcDbLine
 10
1000.0
 20
1763.744569986044
 11
1000.0
 21
2000.0
  0
LINE
  5
71
100
AcDbEntity
  8
1
  6
CONTINUOUS
 62
           7
100
AcDbLine
 10
-999.999999999999
 20
2000.0
 11
-999.999999999999
 21
1763.744569986044
  0
LINE
  5
70
100
AcDbEntity
  8
1
  6
CONTINUOUS
 62
           7
100
AcDbLine
 10
2000.000000000001
 20
1763.744569986044
 11
-1999.999999999999
 21
1763.744569986044
  0
LINE
  5
6F
100
AcDbEntity
  8
1
  6
CONTINUOUS
 62
           2
100
AcDbLine
 10
5581.878432268978
 20
1741.488764155296
 11
5581.878432268978
 21
1980.0
  0
LINE
  5
6E
100
AcDbEntity
  8
1
  6
CONTINUOUS
 62
           7
100
AcDbLine
 10
5601.878432268978
 20
1784.157226830837
 11
5601.878432268978
 21
2000.0
  0
LINE
  5
6D
100
AcDbEntity
  8
1
  6
CONTINUOUS
 62
           2
100
AcDbLine
 10
5621.878432268978
 20
1800.831132334581
 11
5621.878432268978
 21
520.0
  0
LINE
  5
6C
100
AcDbEntity
  8
1
  6
CONTINUOUS
 62
           7
100
AcDbLine
 10
-1569.497691536607
 20
986.513526798368
 11
-424.999999999998
 21
986.513526798368
  0
LINE
  5
6B
100
AcDbEntity
  8
___S__
  6
DOT_CENTER
 62
           3
100
AcDbLine
 10
-1574.999999999998
 20
1067.06326659646
 11
-1574.999999999999
 21
982.067556365335
  0
LINE
  5
6A
100
AcDbEntity
  8
____
  6
CONTINUOUS
 62
           3
100
AcDbLine
 10
-1569.595947044878
 20
1060.459504816177
 11
-1569.595947044878
 21
1058.581574068056
  0
LINE
  5
69
100
AcDbEntity
  8
____
  6
CONTINUOUS
 62
           3
100
AcDbLine
 10
-1579.912775413742
 20
1060.928987503208
 11
-1570.087224586253
 21
1060.928987503208
  0
LINE
  5
68
100
AcDbEntity
  8
____
  6
CONTINUOUS
 62
           3
100
AcDbLine
 10
-1580.404052955116
 20
1058.581574068056
 11
-1580.404052955116
 21
1060.459504816177
  0
LINE
  5
67
100
AcDbEntity
  8
____
  6
CONTINUOUS
 62
           3
100
AcDbLine
 10
-1569.497691536606
 20
1022.900889853721
 11
-1580.502308463383
 21
1022.900889853723
  0
LINE
  5
66
100
AcDbEntity
  8
____
  6
CONTINUOUS
 62
           3
100
AcDbLine
 10
-1569.497691536605
 20
1058.581574068056
 11
-1569.497691536606
 21
1022.900889853721
  0
LINE
  5
65
100
AcDbEntity
  8
____
  6
CONTINUOUS
 62
           3
100
AcDbLine
 10
-1580.502308463382
 20
1058.581574068056
 11
-1569.497691536605
 21
1058.581574068056
  0
LINE
  5
64
100
AcDbEntity
  8
____
  6
CONTINUOUS
 62
           3
100
AcDbLine
 10
-1580.502308463383
 20
1022.900889853723
 11
-1580.502308463382
 21
1058.581574068056
  0
LINE
  5
63
100
AcDbEntity
  8
____
  6
CONTINUOUS
 62
           3
100
AcDbLine
 10
-1580.404052955118
 20
984.403309517205
 11
-1580.404052955118
 21
986.281240265329
  0
LINE
  5
62
100
AcDbEntity
  8
____
  6
CONTINUOUS
 62
           3
100
AcDbLine
 10
-1570.087224586255
 20
983.933826830174
 11
-1579.912775413744
 21
983.933826830174
  0
LINE
  5
61
100
AcDbEntity
  8
____
  6
CONTINUOUS
 62
           3
100
AcDbLine
 10
-1569.59594704488
 20
986.281240265329
 11
-1569.59594704488
 21
984.403309517205
  0
LINE
  5
60
100
AcDbEntity
  8
____
  6
CONTINUOUS
 62
           3
100
AcDbLine
 10
-1580.15841418443
 20
1022.900889853723
 11
-1580.15841418443
 21
1021.961924479661
  0
LINE
  5
5F
100
AcDbEntity
  8
____
  6
CONTINUOUS
 62
           3
100
AcDbLine
 10
-1569.841585815567
 20
1022.900889853721
 11
-1580.15841418443
 21
1022.900889853723
  0
LINE
  5
5E
100
AcDbEntity
  8
____
  6
CONTINUOUS
 62
           3
100
AcDbLine
 10
-1569.841585815567
 20
1021.961924479661
 11
-1569.841585815567
 21
1022.900889853721
  0
LINE
  5
5D
100
AcDbEntity
  8
____
  6
CONTINUOUS
 62
           3
100
AcDbLine
 10
-1580.404052955116
 20
1060.459504816177
 11
-1569.595947044878
 21
1060.459504816177
  0
LINE
  5
5C
100
AcDbEntity
  8
____
  6
CONTINUOUS
 62
           3
100
AcDbLine
 10
-1580.502308463383
 20
1021.961924479661
 11
-1569.497691536606
 21
1021.961924479661
  0
LINE
  5
5B
100
AcDbEntity
  8
____
  6
CONTINUOUS
 62
           3
100
AcDbLine
 10
-1580.502308463383
 20
986.281240265329
 11
-1580.502308463383
 21
1021.961924479661
  0
LINE
  5
5A
100
AcDbEntity
  8
____
  6
CONTINUOUS
 62
           3
100
AcDbLine
 10
-1569.497691536607
 20
986.281240265329
 11
-1580.502308463383
 21
986.281240265329
  0
LINE
  5
59
100
AcDbEntity
  8
____
  6
CONTINUOUS
 62
           3
100
AcDbLine
 10
-1569.497691536606
 20
1021.961924479661
 11
-1569.497691536607
 21
986.281240265329
  0
LINE
  5
58
100
AcDbEntity
  8
____
  6
CONTINUOUS
 62
           3
100
AcDbLine
 10
-1580.404052955116
 20
1060.459504816177
 11
-1579.912775413742
 21
1060.928987503208
  0
LINE
  5
57
100
AcDbEntity
  8
____
  6
CONTINUOUS
 62
           3
100
AcDbLine
 10
-1570.087224586253
 20
1060.928987503208
 11
-1569.595947044878
 21
1060.459504816177
  0
LINE
  5
56
100
AcDbEntity
  8
____
  6
CONTINUOUS
 62
           3
100
AcDbLine
 10
-1579.912775413744
 20
983.933826830174
 11
-1580.404052955118
 21
984.403309517205
  0
LINE
  5
55
100
AcDbEntity
  8
____
  6
CONTINUOUS
 62
           3
100
AcDbLine
 10
-1569.59594704488
 20
984.403309517205
 11
-1570.087224586255
 21
983.933826830174
  0
LINE
  5
54
100
AcDbEntity
  8
____
  6
CONTINUOUS
 62
           3
100
AcDbLine
 10
-1580.404052955118
 20
984.403309517205
 11
-1569.59594704488
 21
984.403309517205
  0
LINE
  5
53
100
AcDbEntity
  8
____
  6
CONTINUOUS
 62
           3
100
AcDbLine
 10
-1580.404052955094
 20
1538.392880207259
 11
-1569.595947044856
 21
1538.392880207259
  0
LINE
  5
52
100
AcDbEntity
  8
____
  6
CONTINUOUS
 62
           3
100
AcDbLine
 10
-1569.595947044856
 20
1538.392880207259
 11
-1570.08722458623
 21
1537.92339752023
  0
LINE
  5
51
100
AcDbEntity
  8
____
  6
CONTINUOUS
 62
           3
100
AcDbLine
 10
-1579.912775413719
 20
1537.92339752023
 11
-1580.404052955094
 21
1538.392880207259
  0
LINE
  5
50
100
AcDbEntity
  8
____
  6
CONTINUOUS
 62
           3
100
AcDbLine
 10
-1570.08722458623
 20
1614.918558193263
 11
-1569.595947044855
 21
1614.449075506231
  0
LINE
  5
4F
100
AcDbEntity
  8
____
  6
CONTINUOUS
 62
           3
100
AcDbLine
 10
-1580.404052955093
 20
1614.449075506231
 11
-1579.912775413718
 21
1614.918558193263
  0
LINE
  5
4E
100
AcDbEntity
  8
____
  6
CONTINUOUS
 62
           3
100
AcDbLine
 10
-1569.49769153659
 20
1575.951495169715
 11
-1569.49769153659
 21
1540.270810955382
  0
LINE
  5
4D
100
AcDbEntity
  8
____
  6
CONTINUOUS
 62
           3
100
AcDbLine
 10
-1569.49769153659
 20
1540.270810955382
 11
-1580.502308463367
 21
1540.270810955382
  0
LINE
  5
4C
100
AcDbEntity
  8
____
  6
CONTINUOUS
 62
           3
100
AcDbLine
 10
-1580.502308463367
 20
1540.270810955382
 11
-1580.502308463367
 21
1575.951495169715
  0
LINE
  5
4B
100
AcDbEntity
  8
____
  6
CONTINUOUS
 62
           3
100
AcDbLine
 10
-1580.502308463367
 20
1575.951495169715
 11
-1569.49769153659
 21
1575.951495169715
  0
LINE
  5
4A
100
AcDbEntity
  8
____
  6
CONTINUOUS
 62
           3
100
AcDbLine
 10
-1580.404052955093
 20
1614.449075506231
 11
-1569.595947044855
 21
1614.449075506231
  0
LINE
  5
49
100
AcDbEntity
  8
____
  6
CONTINUOUS
 62
           3
100
AcDbLine
 10
-1569.841585815543
 20
1575.951495169715
 11
-1569.841585815543
 21
1576.890460543777
  0
LINE
  5
48
100
AcDbEntity
  8
____
  6
CONTINUOUS
 62
           3
100
AcDbLine
 10
-1569.841585815543
 20
1576.890460543777
 11
-1580.158414184406
 21
1576.890460543777
  0
LINE
  5
47
100
AcDbEntity
  8
____
  6
CONTINUOUS
 62
           3
100
AcDbLine
 10
-1580.158414184406
 20
1576.890460543777
 11
-1580.158414184406
 21
1575.951495169715
  0
LINE
  5
46
100
AcDbEntity
  8
____
  6
CONTINUOUS
 62
           3
100
AcDbLine
 10
-1569.595947044856
 20
1540.270810955382
 11
-1569.595947044856
 21
1538.392880207259
  0
LINE
  5
45
100
AcDbEntity
  8
____
  6
CONTINUOUS
 62
           3
100
AcDbLine
 10
-1570.08722458623
 20
1537.92339752023
 11
-1579.912775413719
 21
1537.92339752023
  0
LINE
  5
44
100
AcDbEntity
  8
____
  6
CONTINUOUS
 62
           3
100
AcDbLine
 10
-1580.404052955094
 20
1538.392880207259
 11
-1580.404052955094
 21
1540.270810955382
  0
LINE
  5
43
100
AcDbEntity
  8
____
  6
CONTINUOUS
 62
           3
100
AcDbLine
 10
-1580.502308463367
 20
1576.890460543777
 11
-1580.502308463366
 21
1612.571144758109
  0
LINE
  5
42
100
AcDbEntity
  8
____
  6
CONTINUOUS
 62
           3
100
AcDbLine
 10
-1580.502308463366
 20
1612.571144758109
 11
-1569.497691536589
 21
1612.571144758109
  0
LINE
  5
41
100
AcDbEntity
  8
____
  6
CONTINUOUS
 62
           3
100
AcDbLine
 10
-1569.497691536589
 20
1612.571144758109
 11
-1569.49769153659
 21
1576.890460543777
  0
LINE
  5
40
100
AcDbEntity
  8
____
  6
CONTINUOUS
 62
           3
100
AcDbLine
 10
-1569.49769153659
 20
1576.890460543777
 11
-1580.502308463367
 21
1576.890460543777
  0
LINE
  5
3F
100
AcDbEntity
  8
____
  6
CONTINUOUS
 62
           3
100
AcDbLine
 10
-1580.404052955093
 20
1612.571144758109
 11
-1580.404052955093
 21
1614.449075506231
  0
LINE
  5
3E
100
AcDbEntity
  8
____
  6
CONTINUOUS
 62
           3
100
AcDbLine
 10
-1579.912775413718
 20
1614.918558193263
 11
-1570.08722458623
 21
1614.918558193263
  0
LINE
  5
3D
100
AcDbEntity
  8
____
  6
CONTINUOUS
 62
           3
100
AcDbLine
 10
-1569.595947044855
 20
1614.449075506231
 11
-1569.595947044855
 21
1612.571144758109
  0
LINE
  5
3C
100
AcDbEntity
  8
___S__
  6
DOT_CENTER
 62
           3
100
AcDbLine
 10
-1574.999999999974
 20
1621.052837286497
 11
-1574.999999999975
 21
1536.057127055388
  0
LINE
  5
3B
100
AcDbEntity
  8
1
  6
CONTINUOUS
 62
           7
100
AcDbLine
 10
-1574.999999999998
 20
941.513526798366
 11
-424.999999999998
 21
941.513526798366
  0
LINE
  5
3A
100
AcDbEntity
  8
1
  6
CONTINUOUS
 62
           7
100
AcDbLine
 10
-424.999999999998
 20
941.513526798366
 11
-424.999999999998
 21
1646.282992387802
  0
LINE
  5
39
100
AcDbEntity
  8
1
  6
CONTINUOUS
 62
           7
100
AcDbLine
 10
-1574.999999999998
 20
941.513526798366
 11
-1574.999999999998
 21
1646.282992387802
  0
LINE
  5
38
100
AcDbEntity
  8
1
  6
CONTINUOUS
 62
           7
100
AcDbLine
 10
-424.999999999998
 20
1646.282992387802
 11
-1574.999999999998
 21
1646.282992387802
  0
LINE
  5
37
100
AcDbEntity
  8
1
  6
CONTINUOUS
 62
           3
100
AcDbLine
 10
-485.604203678124
 20
1294.32810932706
 11
-487.992149678105
 21
1267.070985327058
  0
LINE
  5
36
100
AcDbEntity
  8
1
  6
CONTINUOUS
 62
           3
100
AcDbLine
 10
-487.992149678105
 20
1323.33071132706
 11
-485.604203678124
 21
1296.073587327061
  0
LINE
  5
35
100
AcDbEntity
  8
1
  6
CONTINUOUS
 62
           3
100
AcDbLine
 10
-497.451285678124
 20
1294.32810932706
 11
-495.063339678115
 21
1267.070985327058
  0
LINE
  5
34
100
AcDbEntity
  8
1
  6
CONTINUOUS
 62
           3
100
AcDbLine
 10
-495.063339678115
 20
1323.33071132706
 11
-497.451285678124
 21
1296.073587327061
  0
LINE
  5
33
100
AcDbEntity
  8
1
  6
DOT_CENTER
 62
           3
100
AcDbLine
 10
-446.52774467812
 20
1295.200848327049
 11
-536.525199678125
 21
1295.200848327049
  0
LINE
  5
32
100
AcDbEntity
  8
1
  6
DOT_CENTER
 62
           3
100
AcDbLine
 10
-491.52774467812
 20
1340.200848327049
 11
-491.52774467812
 21
1250.202277327051
  0
LINE
  5
31
100
AcDbEntity
  8
1
  6
CONTINUOUS
 62
           2
100
AcDbLine
 10
5621.878432268978
 20
1980.0
 11
5621.878432268978
 21
1814.464669216337
  0
LINE
  5
30
100
AcDbEntity
  8
1
  6
CONTINUOUS
 62
           2
100
AcDbLine
 10
5581.878432268978
 20
520.0
 11
5581.878432268978
 21
1714.44658929451
  0
LINE
  5
2F
100
AcDbEntity
  8
1
  6
CONTINUOUS
 62
           7
100
AcDbLine
 10
5601.878432268978
 20
500.0
 11
5601.878432268978
 21
1767.29327352817
  0
POINT
  5
2E
100
AcDbEntity
  8
0
 62
           3
100
AcDbPoint
 10
5435.278428990712
 20
1365.000000000116
  0
ENDSEC
  0
SECTION
  2
OBJECTS
  0
DICTIONARY
  5
19
100
AcDbDictionary
  3
ACAD_GROUP
350
1A
  3
ACAD_MLINESTYLE
350
1B
  0
DICTIONARY
  5
1A
102
{ACAD_REACTORS
330
19
102
}
100
AcDbDictionary
  0
DICTIONARY
  5
1B
102
{ACAD_REACTORS
330
19
102
}
100
AcDbDictionary
  3
STANDARD
350
1C
  0
MLINESTYLE
  5
1C
102
{ACAD_REACTORS
330
1B
102
}
100
AcDbMlineStyle
  2
STANDARD
 70
           0
  3

 62
           0
 51
90.0
 52
90.0
 71
           2
 49
0.5
 62
         256
  6
BYLAYER
 49
-0.5
 62
         256
  6
BYLAYER
  0
ENDSEC
  0
EOF
