  0
SECTION
  2
HEADER
  9
$ACADVER
  1
AC1014
  9
$ACADMAINTVER
 70
           0
  9
$DWGCODEPAGE
  3
DOS932
  9
$INSBASE
 10
0.0
 20
0.0
 30
0.0
  9
$EXTMIN
 10
1.000000000000E+20
 20
1.000000000000E+20
 30
1.000000000000E+20
  9
$EXTMAX
 10
-1.000000000000E+20
 20
-1.000000000000E+20
 30
-1.000000000000E+20
  9
$LIMMIN
 10
0.0
 20
0.0
  9
$LIMMAX
 10
0.0
 20
0.0
  9
$ORTHOMODE
 70
           0
  9
$REGENMODE
 70
           1
  9
$FILLMODE
 70
           1
  9
$QTEXTMODE
 70
           0
  9
$MIRRTEXT
 70
           1
  9
$DRAGMODE
 70
           2
  9
$LTSCALE
 40
1.0
  9
$OSMODE
 70
           0
  9
$ATTMODE
 70
           1
  9
$TEXTSIZE
 40
0.2
  9
$TRACEWID
 40
0.05
  9
$TEXTSTYLE
  7
STANDARD
  9
$CLAYER
  8
0
  9
$CELTYPE
  6
CONTINUOUS
  9
$CECOLOR
 62
         256
  9
$CELTSCALE
 40
1.0
  9
$DELOBJ
 70
           1
  9
$DISPSILH
 70
           0
  9
$DIMSCALE
 40
1.0
  9
$DIMASZ
 40
0.18
  9
$DIMEXO
 40
0.0625
  9
$DIMDLI
 40
0.38
  9
$DIMRND
 40
0.0
  9
$DIMDLE
 40
0.0
  9
$DIMEXE
 40
0.18
  9
$DIMTP
 40
0.0
  9
$DIMTM
 40
0.0
  9
$DIMTXT
 40
0.18
  9
$DIMCEN
 40
0.09
  9
$DIMTSZ
 40
0.0
  9
$DIMTOL
 70
           0
  9
$DIMLIM
 70
           0
  9
$DIMTIH
 70
           1
  9
$DIMTOH
 70
           1
  9
$DIMSE1
 70
           0
  9
$DIMSE2
 70
           0
  9
$DIMTAD
 70
           0
  9
$DIMZIN
 70
           0
  9
$DIMBLK
  1

  9
$DIMASO
 70
           1
  9
$DIMSHO
 70
           1
  9
$DIMPOST
  1

  9
$DIMAPOST
  1

  9
$DIMALT
 70
           0
  9
$DIMALTD
 70
           2
  9
$DIMALTF
 40
25.4
  9
$DIMLFAC
 40
1.0
  9
$DIMTOFL
 70
           0
  9
$DIMTVP
 40
0.0
  9
$DIMTIX
 70
           0
  9
$DIMSOXD
 70
           0
  9
$DIMSAH
 70
           0
  9
$DIMBLK1
  1

  9
$DIMBLK2
  1

  9
$DIMSTYLE
  2
STANDARD
  9
$DIMCLRD
 70
           0
  9
$DIMCLRE
 70
           0
  9
$DIMCLRT
 70
           0
  9
$DIMTFAC
 40
1.0
  9
$DIMGAP
 40
0.09
  9
$DIMJUST
 70
           0
  9
$DIMSD1
 70
           0
  9
$DIMSD2
 70
           0
  9
$DIMTOLJ
 70
           1
  9
$DIMTZIN
 70
           0
  9
$DIMALTZ
 70
           0
  9
$DIMALTTZ
 70
           0
  9
$DIMFIT
 70
           3
  9
$DIMUPT
 70
           0
  9
$DIMUNIT
 70
           2
  9
$DIMDEC
 70
           4
  9
$DIMTDEC
 70
           4
  9
$DIMALTU
 70
           2
  9
$DIMALTTD
 70
           2
  9
$DIMTXSTY
  7
STANDARD
  9
$DIMAUNIT
 70
           0
  9
$LUNITS
 70
           2
  9
$LUPREC
 70
           4
  9
$SKETCHINC
 40
0.1
  9
$FILLETRAD
 40
0.0
  9
$AUNITS
 70
           0
  9
$AUPREC
 70
           0
  9
$MENU
  1
acad
  9
$ELEVATION
 40
0.0
  9
$PELEVATION
 40
0.0
  9
$THICKNESS
 40
0.0
  9
$LIMCHECK
 70
           0
  9
$BLIPMODE
 70
           1
  9
$CHAMFERA
 40
0.0
  9
$CHAMFERB
 40
0.0
  9
$CHAMFERC
 40
0.0
  9
$CHAMFERD
 40
0.0
  9
$SKPOLY
 70
           0
  9
$TDCREATE
 40
0.000000000
  9
$TDUPDATE
 40
0.000000000
  9
$TDINDWG
 40
0.0000000000
  9
$TDUSRTIMER
 40
0.0000000000
  9
$USRTIMER
 70
           1
  9
$ANGBASE
 50
0.0
  9
$ANGDIR
 70
           0
  9
$PDMODE
 70
           0
  9
$PDSIZE
 40
0.0
  9
$PLINEWID
 40
0.0
  9
$COORDS
 70
           0
  9
$SPLFRAME
 70
           0
  9
$SPLINETYPE
 70
           6
  9
$SPLINESEGS
 70
           8
  9
$ATTDIA
 70
           0
  9
$ATTREQ
 70
           1
  9
$HANDLING
 70
           1
  9
$HANDSEED
  5
4BB
  9
$SURFTAB1
 70
           6
  9
$SURFTAB2
 70
           6
  9
$SURFTYPE
 70
           6
  9
$SURFU
 70
           6
  9
$SURFV
 70
           6
  9
$UCSNAME
  2

  9
$UCSORG
 10
0.0
 20
0.0
 30
0.0
  9
$UCSXDIR
 10
1.0
 20
0.0
 30
0.0
  9
$UCSYDIR
 10
0.0
 20
1.0
 30
0.0
  9
$PUCSNAME
  2

  9
$PUCSORG
 10
0.0
 20
0.0
 30
0.0
  9
$PUCSXDIR
 10
1.0
 20
0.0
 30
0.0
  9
$PUCSYDIR
 10
0.0
 20
1.0
 30
0.0
  9
$USERI1
 70
           0
  9
$USERI2
 70
           0
  9
$USERI3
 70
           0
  9
$USERI4
 70
           0
  9
$USERI5
 70
           0
  9
$USERR1
 40
0.0
  9
$USERR2
 40
0.0
  9
$USERR3
 40
0.0
  9
$USERR4
 40
0.0
  9
$USERR5
 40
0.0
  9
$WORLDVIEW
 70
           1
  9
$SHADEDGE
 70
           3
  9
$SHADEDIF
 70
          70
  9
$TILEMODE
 70
           1
  9
$MAXACTVP
 70
          16
  9
$PINSBASE
 10
0.0
 20
0.0
 30
0.0
  9
$PLIMCHECK
 70
           0
  9
$PEXTMIN
 10
1.000000000000E+20
 20
1.000000000000E+20
 30
1.000000000000E+20
  9
$PEXTMAX
 10
-1.000000000000E+20
 20
-1.000000000000E+20
 30
-1.000000000000E+20
  9
$PLIMMIN
 10
0.0
 20
0.0
  9
$PLIMMAX
 10
12.0
 20
9.0
  9
$UNITMODE
 70
           0
  9
$VISRETAIN
 70
           0
  9
$PLINEGEN
 70
           1
  9
$PSLTSCALE
 70
           0
  9
$TREEDEPTH
 70
        3020
  9
$PICKSTYLE
 70
           1
  9
$CMLSTYLE
  2
STANDARD
  9
$CMLJUST
 70
           0
  9
$CMLSCALE
 40
1.0
  9
$PROXYGRAPHICS
 70
           0
  9
$MEASUREMENT
 70
           0
  0
ENDSEC
  0
SECTION
  2
CLASSES
  0
CLASS
  1
LWPOLYLINE
  2
AcDbPolyline
  3
"AutoCAD"
 90
        0
280
           0
281
           1
  0
CLASS
  1
IMAGE
  2
AcDbRasterImage
  3
ISM
 90
      127
280
           0
281
           1
  0
CLASS
  1
OLE2FRAME
  2
AcDbOle2Frame
  3
""
 90
        0
280
           0
281
           1
  0
CLASS
  1
HATCH
  2
AcDbHatch
  3
"ACAD_SEDONA"
 90
        0
280
           0
281
           1
  0
CLASS
  1
DICTIONARYVAR
  2
AcDbDictionaryVar
  3
"AutoCAD"
 90
        0
280
           0
281
           0
  0
CLASS
  1
RASTERVARIABLES
  2
AcDbRasterVariables
  3
ISM
 90
        0
280
           0
281
           0
  0
CLASS
  1
IMAGEDEF
  2
AcDbRasterImageDef
  3
ISM
 90
        0
280
           0
281
           0
  0
CLASS
  1
IMAGEDEF_REACTOR
  2
AcDbRasterImageDefReactor
  3
ISM
 90
        1
280
           0
281
           0
  0
CLASS
  1
IDBUFFER
  2
AcDbIdBuffer
  3
"Acad"
 90
        0
280
           0
281
           0
  0
CLASS
  1
SPATIAL_FILTER
  2
AcDbSpatialFilter
  3
"Acad"
 90
        0
280
           0
281
           0
  0
CLASS
  1
XRECORD
  2
AcDbXrecord
  3
"<Built In>"
 90
        0
280
           0
281
           0
  0
CLASS
  1
SORTENTSTABLE
  2
AcDbSortentsTable
  3
"AutoCAD"
 90
        0
280
           0
281
           0
  0
CLASS
  1
LAYER_INDEX
  2
AcDbLayerIndex
  3
"Acad"
 90
        0
280
           0
281
           0
  0
CLASS
  1
SPATIAL_INDEX
  2
AcDbSpatialIndex
  3
"Acad"
 90
        0
280
           0
281
           0
  0
CLASS
  1
OBJECT_PTR
  2
CAseDLPNTableRecord
  3
"ASE-LPNTableRecord"
 90
        1
280
           0
281
           0
  0
CLASS
  1
LAYOUT
  2
AcDbLayout
  3
"AutoCAD 2000"
 90
        1
280
           0
281
           0
  0
CLASS
  1
PLOTSETTINGS
  2
AcDbPlotSettings
  3
"AutoCAD 2000"
 90
        1
280
           0
281
           0
  0
CLASS
  1
ACDBDICTIONARYWDFLT
  2
AcDbDictionaryWithDefault
  3
"AutoCAD 2000"
 90
        1
280
           0
281
           0
  0
CLASS
  1
ACDBPLACEHOLDER
  2
AcDbPlaceHolder
  3
"AutoCAD 2000"
 90
        1
280
           0
281
           0
  0
CLASS
  1
VBA_PROJECT
  2
AcDbVbaProject
  3
"acadvba"
 90
        1
280
           0
281
           0
  0
CLASS
  1
WIPEOUT
  2
AcDbWipeout
  3
WipeOut|AutoCAD Express Tool|expresstools@autodesk.com
 90
      127
280
           0
281
           1
  0
CLASS
  1
WIPEOUTVARIABLES
  2
AcDbWipeoutVariables
  3
WipeOut|AutoCAD Express Tool|expresstools@autodesk.com
 90
        0
280
           0
281
           0
  0
CLASS
  1
RTEXT
  2
RText
  3
RText|AutoCAD Express Tool|expresstools@autodesk.com
 90
        0
280
           0
281
           1
  0
CLASS
  1
ARCALIGNEDTEXT
  2
AcDbArcAlignedText
  3
ATEXT|AutoCAD Express Tool|expresstools@autodesk.com
 90
        0
280
           0
281
           1
  0
ENDSEC
  0
SECTION
  2
TABLES
  0
TABLE
  2
VPORT
  5
7
100
AcDbSymbolTable
 70
           1
  0
VPORT
  5
15
100
AcDbSymbolTableRecord
100
AcDbViewportTableRecord
  2
*ACTIVE
 70
           0
 10
0.0
 20
0.0
 11
1.0
 21
1.0
 12
6.591288
 22
4.579184
 13
0.0
 23
0.0
 14
1.0
 24
1.0
 15
0.0
 25
0.0
 16
0.0
 26
0.0
 36
1.0
 17
0.0
 27
0.0
 37
0.0
 40
9.158369
 41
0.688564
 42
50.0
 43
0.0
 44
0.0
 50
0.0
 51
0.0
 71
           0
 72
         100
 73
           1
 74
           1
 75
           0
 76
           0
 77
           0
 78
           0
  0
ENDTAB
  0
TABLE
  2
LTYPE
  5
4
100
AcDbSymbolTable
 70
          10
  0
LTYPE
  5
11
100
AcDbSymbolTableRecord
100
AcDbLinetypeTableRecord
  2
BYBLOCK
 70
          64
  3

 72
          65
 73
           0
 40
0.0
  0
LTYPE
  5
12
100
AcDbSymbolTableRecord
100
AcDbLinetypeTableRecord
  2
BYLAYER
 70
          64
  3

 72
          65
 73
           0
 40
0.0
  0
LTYPE
  5
13
100
AcDbSymbolTableRecord
100
AcDbLinetypeTableRecord
  2
CONTINUOUS
 70
          64
  3
Solid line
 72
          65
 73
           0
 40
0.0
  0
LTYPE
  5
1D
100
AcDbSymbolTableRecord
100
AcDbLinetypeTableRecord
  2
DASHED
 70
          64
  3
Dashed
 72
          65
 73
           2
 40
15.0
 49
12.0
 74
           0
 49
-3.0
 74
           0
  0
LTYPE
  5
1E
100
AcDbSymbolTableRecord
100
AcDbLinetypeTableRecord
  2
DOTTED
 70
          64
  3
Dotted
 72
          65
 73
           2
 40
3.5
 49
0.5
 74
           0
 49
-3.0
 74
           0
  0
LTYPE
  5
1F
100
AcDbSymbolTableRecord
100
AcDbLinetypeTableRecord
  2
DOT_CENTER
 70
          64
  3
Dot_Center
 72
          65
 73
           4
 40
2.0
 49
1.25
 74
           0
 49
-0.25
 74
           0
 49
0.25
 74
           0
 49
-0.25
 74
           0
  0
LTYPE
  5
20
100
AcDbSymbolTableRecord
100
AcDbLinetypeTableRecord
  2
LONG_DASHED
 70
          64
  3
Long_Dashed
 72
          65
 73
           2
 40
2.0
 49
1.5
 74
           0
 49
-0.5
 74
           0
  0
LTYPE
  5
21
100
AcDbSymbolTableRecord
100
AcDbLinetypeTableRecord
  2
DASH_CENTER
 70
          64
  3
Dash_Center
 72
          65
 73
           4
 40
36.0
 49
24.0
 74
           0
 49
-3.0
 74
           0
 49
6.0
 74
           0
 49
-3.0
 74
           0
  0
LTYPE
  5
22
100
AcDbSymbolTableRecord
100
AcDbLinetypeTableRecord
  2
PHANTOM
 70
          64
  3
Phantom
 72
          65
 73
           6
 40
2.5
 49
1.25
 74
           0
 49
-0.25
 74
           0
 49
0.25
 74
           0
 49
-0.25
 74
           0
 49
0.25
 74
           0
 49
-0.25
 74
           0
  0
LTYPE
  5
23
100
AcDbSymbolTableRecord
100
AcDbLinetypeTableRecord
  2
CENTER_DASH_DASH
 70
          64
  3
Center_Dash_Dash
 72
          65
 73
           6
 40
22.0
 49
12.0
 74
           0
 49
-3.0
 74
           0
 49
0.5
 74
           0
 49
-3.0
 74
           0
 49
0.5
 74
           0
 49
-3.0
 74
           0
  0
ENDTAB
  0
TABLE
  2
LAYER
  5
2
100
AcDbSymbolTable
 70
           8
  0
LAYER
  5
14
100
AcDbSymbolTableRecord
100
AcDbLayerTableRecord
  2
0
 70
           0
 62
           7
  6
CONTINUOUS
  0
LAYER
  5
24
100
AcDbSymbolTableRecord
100
AcDbLayerTableRecord
  2
___S__
 70
           0
 62
           7
  6
CONTINUOUS
  0
LAYER
  5
25
100
AcDbSymbolTableRecord
100
AcDbLayerTableRecord
  2
976
 70
           0
 62
           7
  6
CONTINUOUS
  0
LAYER
  5
26
100
AcDbSymbolTableRecord
100
AcDbLayerTableRecord
  2
FORMAT
 70
           0
 62
           7
  6
CONTINUOUS
  0
LAYER
  5
27
100
AcDbSymbolTableRecord
100
AcDbLayerTableRecord
  2
1
 70
           0
 62
           7
  6
CONTINUOUS
  0
LAYER
  5
28
100
AcDbSymbolTableRecord
100
AcDbLayerTableRecord
  2
2
 70
           0
 62
           7
  6
CONTINUOUS
  0
LAYER
  5
29
100
AcDbSymbolTableRecord
100
AcDbLayerTableRecord
  2
7
 70
           0
 62
           7
  6
CONTINUOUS
  0
LAYER
  5
2A
100
AcDbSymbolTableRecord
100
AcDbLayerTableRecord
  2
____
 70
           0
 62
           7
  6
CONTINUOUS
  0
ENDTAB
  0
TABLE
  2
STYLE
  5
3
100
AcDbSymbolTable
 70
           1
  0
STYLE
  5
17
100
AcDbSymbolTableRecord
100
AcDbTextStyleTableRecord
  2
STANDARD
 70
           0
 40
0.0
 41
1.0
 50
0.0
 71
           0
 42
0.0
  3
txt
  4

  0
ENDTAB
  0
TABLE
  2
VIEW
  5
5
100
AcDbSymbolTable
 70
           0
  0
ENDTAB
  0
TABLE
  2
UCS
  5
6
100
AcDbSymbolTable
 70
           0
  0
ENDTAB
  0
TABLE
  2
APPID
  5
8
100
AcDbSymbolTable
 70
           1
  0
APPID
  5
16
100
AcDbSymbolTableRecord
100
AcDbRegAppTableRecord
  2
ACAD
 70
           0
  0
ENDTAB
  0
TABLE
  2
DIMSTYLE
  5
9
100
AcDbSymbolTable
 70
           1
  0
DIMSTYLE
105
18
100
AcDbSymbolTableRecord
100
AcDbDimStyleTableRecord
  2
STANDARD
 70
           0
  3

  4

  5

  6

  7

 40
1.0
 41
0.18
 42
0.0625
 43
0.38
 44
0.18
 45
0.0
 46
0.0
 47
0.0
 48
0.0
 71
           0
 72
           0
 73
           1
 74
           1
 75
           0
 76
           0
 77
           0
 78
           0
140
0.18
141
0.09
142
0.0
143
25.4
144
1.0
145
0.0
146
1.0
147
0.09
170
           0
171
           2
172
           0
173
           0
174
           0
175
           0
176
           0
177
           0
178
           0
270
           2
271
           4
272
           4
273
           2
274
           2
275
           0
280
           0
281
           0
282
           0
283
           1
284
           0
285
           0
286
           0
287
           0
288
           0
340
17
  0
ENDTAB
  0
TABLE
  2
BLOCK_RECORD
  5
1
100
AcDbSymbolTable
 70
           0
  0
BLOCK_RECORD
  5
A
100
AcDbSymbolTableRecord
100
AcDbBlockTableRecord
  2
*MODEL_SPACE
  0
BLOCK_RECORD
  5
B
100
AcDbSymbolTableRecord
100
AcDbBlockTableRecord
  2
*PAPER_SPACE
  0
ENDTAB
  0
ENDSEC
  0
SECTION
  2
BLOCKS
  0
BLOCK
  5
D
100
AcDbEntity
  8
0
100
AcDbBlockBegin
  2
*MODEL_SPACE
 70
           0
 10
0.0
 20
0.0
 30
0.0
  3
*MODEL_SPACE
  1

  0
ENDBLK
  5
E
100
AcDbEntity
  8
0
100
AcDbBlockEnd
  0
BLOCK
  5
F
100
AcDbEntity
 67
           1
  8
0
100
AcDbBlockBegin
  2
*PAPER_SPACE
 70
           0
 10
0.0
 20
0.0
 30
0.0
  3
*PAPER_SPACE
  1

  0
ENDBLK
  5
10
100
AcDbEntity
 67
           1
  8
0
100
AcDbBlockEnd
  0
ENDSEC
  0
SECTION
  2
ENTITIES
  0
HATCH
  5
4B9
100
AcDbEntity
  8
0
  6
CONTINUOUS
 62
           3
100
AcDbHatch
 10
0.0
 20
0.0
 30
0.0
210
0.0
220
0.0
230
1.0
  2
USER
 70
           0
 71
           1
 91
        1
 92
        1
 93
        8
 72
           1
 10
3882.3141856546449
 20
1069.4351822285339
 11
3882.3141856546449
 21
1089.4351822285339
 72
           1
 10
3765.0000000000018
 20
1069.4351822285339
 11
3882.3141856546449
 21
1069.4351822285339
 72
           2
 10
3765.0000000000018
 20
1119.4351822285339
 40
50.0
 50
180.0
 51
-90.0
 73
           1
 72
           1
 10
3715.0000000000018
 20
1430.000000000003
 11
3715.0000000000018
 21
1119.4351822285339
 72
           1
 10
3735.0000000000018
 20
1430.000000000003
 11
3715.0000000000018
 21
1430.000000000003
 72
           1
 10
3735.0000000000018
 20
1119.4351822285339
 11
3735.0000000000018
 21
1430.000000000003
 72
           2
 10
3765.0000000000018
 20
1119.4351822285339
 40
30.0
 50
180.0
 51
-90.0
 73
           1
 72
           1
 10
3882.3141856546449
 20
1089.4351822285339
 11
3765.0000000000018
 21
1089.4351822285339
 97
        8
330
32
330
33
330
491
330
34
330
35
330
30
330
492
330
31
 75
           1
 76
           0
 52
45.0
 41
10.0
 77
           0
 78
           1
 53
45.0
 43
0.0
 44
0.0
 45
-7.0710678118654746
 46
7.0710678118654755
 79
           0
 98
        1
 10
0.0
 20
0.0
  0
ARC
  5
4B8
100
AcDbEntity
  8
1
  6
CONTINUOUS
 62
           3
100
AcDbCircle
 10
5038.163567691041
 20
1917.806253419961
 40
0.5
100
AcDbArc
 50
180.0
 51
-90.0
  0
ARC
  5
4B7
100
AcDbEntity
  8
1
  6
CONTINUOUS
 62
           3
100
AcDbCircle
 10
5038.163567691041
 20
1932.19374658004
 40
0.5
100
AcDbArc
 50
90.0
 51
180.0
  0
ARC
  5
4B6
100
AcDbEntity
  8
1
  6
CONTINUOUS
 62
           3
100
AcDbCircle
 10
4889.899998122324
 20
1641.000000000001
 40
280.0
100
AcDbArc
 50
90.0
 51
180.0
  0
ARC
  5
4B5
100
AcDbEntity
  8
1
  6
CONTINUOUS
 62
           3
100
AcDbCircle
 10
4889.899996810931
 20
1641.0
 40
288.0
100
AcDbArc
 50
90.0
 51
180.0
  0
ARC
  5
4B4
100
AcDbEntity
  8
1
  6
CONTINUOUS
 62
           4
100
AcDbCircle
 10
355.295656653005
 20
5297.500000000003
 40
12.0
100
AcDbArc
 50
90.0
 51
120.430594205709
  0
ARC
  5
4B3
100
AcDbEntity
  8
1
  6
CONTINUOUS
 62
           4
100
AcDbCircle
 10
355.295656653005
 20
5206.500000000003
 40
11.999999999999
100
AcDbArc
 50
-120.430594205709
 51
-90.0
  0
ARC
  5
4B2
100
AcDbEntity
  8
1
  6
CONTINUOUS
 62
           7
100
AcDbCircle
 10
382.211920489155
 20
5200.500000000003
 40
12.0
100
AcDbArc
 50
180.0
 51
-90.0
  0
ARC
  5
4B1
100
AcDbEntity
  8
1
  6
CONTINUOUS
 62
           7
100
AcDbCircle
 10
382.211920489155
 20
5303.500000000003
 40
12.0
100
AcDbArc
 50
90.0
 51
180.0
  0
ARC
  5
4B0
100
AcDbEntity
  8
1
  6
CONTINUOUS
 62
           7
100
AcDbCircle
 10
422.386953890961
 20
5200.500000000003
 40
12.0
100
AcDbArc
 50
-90.0
 51
0.0
  0
ARC
  5
4AF
100
AcDbEntity
  8
1
  6
CONTINUOUS
 62
           7
100
AcDbCircle
 10
422.386953890961
 20
5303.500000000003
 40
12.0
100
AcDbArc
 50
0.0
 51
90.0
  0
ARC
  5
4AE
100
AcDbEntity
  8
1
  6
CONTINUOUS
 62
           7
100
AcDbCircle
 10
422.386953890961
 20
2903.499999999997
 40
12.0
100
AcDbArc
 50
0.0
 51
90.0
  0
ARC
  5
4AD
100
AcDbEntity
  8
1
  6
CONTINUOUS
 62
           7
100
AcDbCircle
 10
422.386953890961
 20
2827.499999999996
 40
12.0
100
AcDbArc
 50
-90.0
 51
0.0
  0
ARC
  5
4AC
100
AcDbEntity
  8
1
  6
CONTINUOUS
 62
           7
100
AcDbCircle
 10
371.88335069096
 20
2903.499999999997
 40
11.999999999999
100
AcDbArc
 50
90.0
 51
180.0
  0
ARC
  5
4AB
100
AcDbEntity
  8
1
  6
CONTINUOUS
 62
           7
100
AcDbCircle
 10
371.88335069096
 20
2827.499999999996
 40
12.0
100
AcDbArc
 50
180.0
 51
-90.0
  0
ARC
  5
4AA
100
AcDbEntity
  8
1
  6
CONTINUOUS
 62
           7
100
AcDbCircle
 10
5088.500000000004
 20
2827.5
 40
12.0
100
AcDbArc
 50
180.0
 51
-90.0
  0
ARC
  5
4A9
100
AcDbEntity
  8
1
  6
CONTINUOUS
 62
           7
100
AcDbCircle
 10
5088.500000000004
 20
2903.5
 40
12.0
100
AcDbArc
 50
90.0
 51
180.0
  0
ARC
  5
4A8
100
AcDbEntity
  8
1
  6
CONTINUOUS
 62
           7
100
AcDbCircle
 10
5191.500000000004
 20
2827.5
 40
12.0
100
AcDbArc
 50
-90.0
 51
0.0
  0
ARC
  5
4A7
100
AcDbEntity
  8
1
  6
CONTINUOUS
 62
           7
100
AcDbCircle
 10
5191.500000000004
 20
2903.5
 40
12.0
100
AcDbArc
 50
0.0
 51
90.0
  0
ARC
  5
4A6
100
AcDbEntity
  8
1
  6
CONTINUOUS
 62
           4
100
AcDbCircle
 10
5695.5
 20
2160.0
 40
1.0
100
AcDbArc
 50
90.0
 51
180.0
  0
ARC
  5
4A5
100
AcDbEntity
  8
1
  6
CONTINUOUS
 62
           4
100
AcDbCircle
 10
5684.5
 20
2160.0
 40
1.0
100
AcDbArc
 50
0.0
 51
90.0
  0
ARC
  5
4A4
100
AcDbEntity
  8
1
  6
CONTINUOUS
 62
           4
100
AcDbCircle
 10
5684.5
 20
2665.999999999998
 40
0.999999999998
100
AcDbArc
 50
-90.0
 51
0.000000000104
  0
ARC
  5
4A3
100
AcDbEntity
  8
1
  6
CONTINUOUS
 62
           4
100
AcDbCircle
 10
5695.5
 20
2665.999999999998
 40
1.0
100
AcDbArc
 50
179.999999999895
 51
-90.0
  0
ARC
  5
4A2
100
AcDbEntity
  8
1
  6
CONTINUOUS
 62
           7
100
AcDbCircle
 10
824.386953890961
 20
2188.000000000001
 40
8.0
100
AcDbArc
 50
0.0
 51
90.0
  0
ARC
  5
4A1
100
AcDbEntity
  8
1
  6
CONTINUOUS
 62
           7
100
AcDbCircle
 10
750.386953890961
 20
2188.000000000001
 40
8.0
100
AcDbArc
 50
90.0
 51
180.0
  0
ARC
  5
4A0
100
AcDbEntity
  8
1
  6
CONTINUOUS
 62
           7
100
AcDbCircle
 10
787.386953890961
 20
2156.000000000001
 40
14.999999999999
100
AcDbArc
 50
147.769047364495
 51
180.0
  0
ARC
  5
49F
100
AcDbEntity
  8
1
  6
CONTINUOUS
 62
           7
100
AcDbCircle
 10
787.386953890961
 20
2156.000000000001
 40
15.000000000002
100
AcDbArc
 50
32.230952635498
 51
147.769047364495
  0
ARC
  5
49E
100
AcDbEntity
  8
1
  6
CONTINUOUS
 62
           7
100
AcDbCircle
 10
787.386953890961
 20
2156.000000000001
 40
15.0
100
AcDbArc
 50
0.0
 51
32.230952635498
  0
ARC
  5
49D
100
AcDbEntity
  8
1
  6
CONTINUOUS
 62
           7
100
AcDbCircle
 10
-962.613046109039
 20
2156.000000000001
 40
15.0
100
AcDbArc
 50
0.0
 51
32.230952635497
  0
ARC
  5
49C
100
AcDbEntity
  8
1
  6
CONTINUOUS
 62
           7
100
AcDbCircle
 10
-962.613046109039
 20
2156.000000000001
 40
15.000000000002
100
AcDbArc
 50
32.230952635497
 51
147.769047364495
  0
ARC
  5
49B
100
AcDbEntity
  8
1
  6
CONTINUOUS
 62
           7
100
AcDbCircle
 10
3890.000000000002
 20
2156.000000000001
 40
15.0
100
AcDbArc
 50
0.0
 51
180.0
  0
ARC
  5
49A
100
AcDbEntity
  8
1
  6
CONTINUOUS
 62
           7
100
AcDbCircle
 10
3927.000000000002
 20
2188.000000000001
 40
8.0
100
AcDbArc
 50
0.0
 51
90.0
  0
ARC
  5
499
100
AcDbEntity
  8
1
  6
CONTINUOUS
 62
           7
100
AcDbCircle
 10
3853.000000000002
 20
2188.000000000001
 40
8.0
100
AcDbArc
 50
90.0
 51
180.0
  0
ARC
  5
498
100
AcDbEntity
  8
1
  6
CONTINUOUS
 62
           7
100
AcDbCircle
 10
-962.613046109039
 20
2156.000000000001
 40
14.999999999999
100
AcDbArc
 50
147.769047364495
 51
180.0
  0
ARC
  5
497
100
AcDbEntity
  8
1
  6
CONTINUOUS
 62
           7
100
AcDbCircle
 10
-999.613046109039
 20
2188.000000000001
 40
8.0
100
AcDbArc
 50
90.0
 51
180.0
  0
ARC
  5
496
100
AcDbEntity
  8
1
  6
CONTINUOUS
 62
           7
100
AcDbCircle
 10
-925.613046109039
 20
2188.000000000001
 40
8.0
100
AcDbArc
 50
0.0
 51
90.0
  0
ARC
  5
495
100
AcDbEntity
  8
1
  6
CONTINUOUS
 62
           2
100
AcDbCircle
 10
2155.38695389096
 20
1079.499999999984
 40
15.0
100
AcDbArc
 50
-90.0
 51
90.0
  0
ARC
  5
494
100
AcDbEntity
  8
1
  6
CONTINUOUS
 62
           2
100
AcDbCircle
 10
2187.38695389096
 20
1042.499999999984
 40
8.0
100
AcDbArc
 50
-90.0
 51
0.0
  0
ARC
  5
493
100
AcDbEntity
  8
1
  6
CONTINUOUS
 62
           2
100
AcDbCircle
 10
2187.38695389096
 20
1116.499999999984
 40
8.0
100
AcDbArc
 50
0.0
 51
90.0
  0
ARC
  5
492
100
AcDbEntity
  8
1
  6
CONTINUOUS
 62
           4
100
AcDbCircle
 10
3765.000000000002
 20
1119.435182228534
 40
30.0
100
AcDbArc
 50
180.0
 51
-90.0
  0
ARC
  5
491
100
AcDbEntity
  8
1
  6
CONTINUOUS
 62
           4
100
AcDbCircle
 10
3765.000000000002
 20
1119.435182228534
 40
50.0
100
AcDbArc
 50
180.0
 51
-90.0
  0
SPLINE
  5
490
100
AcDbEntity
  8
0
  6
CONTINUOUS
 62
           3
100
AcDbSpline
210
0.0
220
0.0
230
1.0
 70
           0
 71
           3
 72
           8
 73
           5
 74
           7
 42
0.00000000001
 43
0.00000000001
 44
0.00000000001
 40
0.0
 40
0.0
 40
0.0
 40
0.2989651950314283
 40
0.4296296276535259
 40
0.4465803503999268
 40
0.4465803503999268
 40
0.4465803503999268
 10
4560.8999966098654
 20
1384.6465796233019
 30
0.0
 10
4560.8999966099118
 20
1384.4669365634261
 30
0.0
 10
4560.8999966099118
 20
1384.2282922931149
 30
0.0
 10
4560.8999966099118
 20
1384.2056076981819
 30
0.0
 10
4560.8999966099118
 20
1384.199999272902
 30
0.0
 11
4560.8999966098654
 21
1384.6465796233019
 31
0.0
 11
4560.8999966099
 21
1384.4703311443236
 31
0.0
 11
4560.8999966099118
 21
1384.3008718271406
 31
0.0
 11
4560.8999966099118
 21
1384.2414172487574
 31
0.0
 11
4560.8999966099118
 21
1384.2082125816598
 31
0.0
 11
4560.8999966099118
 21
1384.2048568127316
 31
0.0
 11
4560.8999966099118
 21
1384.199999272902
 31
0.0
  0
SPLINE
  5
48F
100
AcDbEntity
  8
0
  6
CONTINUOUS
 62
           3
100
AcDbSpline
210
0.0
220
0.0
230
1.0
 70
           0
 71
           3
 72
           8
 73
           5
 74
           7
 42
0.00000000001
 43
0.00000000001
 44
0.00000000001
 40
0.0
 40
0.0
 40
0.0
 40
0.016950722746401
 40
0.1476151553684986
 40
0.4465803503999268
 40
0.4465803503999268
 40
0.4465803503999268
 10
4550.8999968334329
 20
1384.199999272902
 30
0.0
 10
4550.8999968334329
 20
1384.2056076981819
 30
0.0
 10
4550.8999968334329
 20
1384.2282922931149
 30
0.0
 10
4550.8999968334329
 20
1384.4669365634261
 30
0.0
 10
4550.899996833472
 20
1384.6465796233019
 30
0.0
 11
4550.8999968334329
 21
1384.199999272902
 31
0.0
 11
4550.8999968334329
 21
1384.2048568127316
 31
0.0
 11
4550.8999968334329
 21
1384.2082125816598
 31
0.0
 11
4550.8999968334338
 21
1384.2414172487574
 31
0.0
 11
4550.8999968334329
 21
1384.3008718271406
 31
0.0
 11
4550.8999968334429
 21
1384.4703311443236
 31
0.0
 11
4550.899996833472
 21
1384.6465796233019
 31
0.0
  0
SPLINE
  5
48E
100
AcDbEntity
  8
0
  6
CONTINUOUS
 62
           3
100
AcDbSpline
210
0.0
220
0.0
230
1.0
 70
           0
 71
           3
 72
           8
 73
           5
 74
           7
 42
0.00000000001
 43
0.00000000001
 44
0.00000000001
 40
0.0
 40
0.0
 40
0.0
 40
0.4813883392842125
 40
1.3325653926429677
 40
2.5594910488319771
 40
2.5594910488319771
 40
2.5594910488319771
 10
4558.3999966657611
 20
1384.199999272902
 30
0.0
 10
4558.459261471944
 20
1384.2004449713099
 30
0.0
 10
4559.3034813132917
 20
1384.2067938900659
 30
0.0
 10
4560.130777332779
 20
1384.4346858415549
 30
0.0
 10
4560.8999966098654
 20
1384.6465796233019
 30
0.0
 11
4558.3999966657611
 21
1384.199999272902
 31
0.0
 11
4558.5206887308805
 21
1384.2009069323508
 31
0.0
 11
4558.7642353138745
 21
1384.2027385138806
 31
0.0
 11
4559.2533835507429
 21
1384.2291158030616
 31
0.0
 11
4559.6423362625137
 21
1384.3001369182336
 31
0.0
 11
4560.2009718844847
 21
1384.4540220561612
 31
0.0
 11
4560.8999966098654
 21
1384.6465796233019
 31
0.0
  0
SPLINE
  5
48D
100
AcDbEntity
  8
0
  6
CONTINUOUS
 62
           3
100
AcDbSpline
210
0.0
220
0.0
230
1.0
 70
           0
 71
           3
 72
           8
 73
           5
 74
           7
 42
0.00000000001
 43
0.00000000001
 44
0.00000000001
 40
0.0
 40
0.0
 40
0.0
 40
0.4813884775037879
 40
1.3325655942383912
 40
2.5594910572531084
 40
2.5594910572531084
 40
2.5594910572531084
 10
4553.3999967775544
 20
1384.199999272902
 30
0.0
 10
4553.459261584394
 20
1384.200444971553
 30
0.0
 10
4554.3034817008302
 20
1384.206793895828
 30
0.0
 10
4555.1307775679606
 20
1384.4346858417259
 30
0.0
 10
4555.8999967216751
 20
1384.6465796232951
 30
0.0
 11
4553.3999967775544
 21
1384.199999272902
 31
0.0
 11
4553.5206888783669
 21
1384.2009069331091
 31
0.0
 11
4553.7642355671278
 21
1384.202738516429
 31
0.0
 11
4554.2533839007083
 21
1384.2291158106427
 31
0.0
 11
4554.6423366340423
 21
1384.3001369344856
 31
0.0
 11
4555.2009721229097
 21
1384.454022060308
 31
0.0
 11
4555.8999967216751
 21
1384.6465796232951
 31
0.0
  0
SPLINE
  5
48C
100
AcDbEntity
  8
0
  6
CONTINUOUS
 62
           3
100
AcDbSpline
210
0.0
220
0.0
230
1.0
 70
           0
 71
           3
 72
           8
 73
           5
 74
           7
 42
0.00000000001
 43
0.00000000001
 44
0.00000000001
 40
0.0
 40
0.0
 40
0.0
 40
0.2779454797452844
 40
0.7862825386893746
 40
1.542963890722207
 40
1.542963890722207
 40
1.542963890722207
 10
4551.569869687346
 20
1367.5999939442561
 30
0.0
 10
4551.6040862319223
 20
1367.6004396365131
 30
0.0
 10
4552.09149695003
 20
1367.606788471174
 30
0.0
 10
4552.5691364171962
 20
1367.8346843256779
 30
0.0
 10
4553.0132452878443
 20
1368.046581745235
 30
0.0
 11
4551.569869687346
 21
1367.5999939442561
 31
0.0
 11
4551.6386061814956
 21
1367.6008892808159
 31
0.0
 11
4551.7763825747907
 21
1367.6026839059823
 31
0.0
 11
4552.0607022116073
 21
1367.6286568402284
 31
0.0
 11
4552.2834323715761
 21
1367.6983665125833
 31
0.0
 11
4552.6087376234536
 21
1367.8535792272935
 31
0.0
 11
4553.0132452878443
 21
1368.046581745235
 31
0.0
  0
SPLINE
  5
48B
100
AcDbEntity
  8
0
  6
CONTINUOUS
 62
           3
100
AcDbSpline
210
0.0
220
0.0
230
1.0
 70
           0
 71
           3
 72
           8
 73
           5
 74
           7
 42
0.00000000001
 43
0.00000000001
 44
0.00000000001
 40
0.0
 40
0.0
 40
0.0
 40
0.2779464854372229
 40
0.7862840843773913
 40
1.542964265856738
 40
1.542964265856738
 40
1.542964265856738
 10
4551.569869687346
 20
1372.6000040770409
 30
0.0
 10
4551.5356531379821
 20
1372.5995583816691
 30
0.0
 10
4551.0482404188824
 20
1372.59320947744
 30
0.0
 10
4550.5706019393401
 20
1372.3653136934729
 30
0.0
 10
4550.1264938539734
 20
1372.1534162761091
 30
0.0
 11
4551.569869687346
 21
1372.6000040770409
 31
0.0
 11
4551.501132941592
 21
1372.5991087310697
 31
0.0
 11
4551.3633558030579
 21
1372.5973140838994
 31
0.0
 11
4551.079035433866
 21
1372.5713410900562
 31
0.0
 11
4550.8563050946441
 21
1372.501631321446
 31
0.0
 11
4550.5310007068247
 21
1372.3464187461252
 31
0.0
 11
4550.1264938539734
 21
1372.1534162761091
 31
0.0
  0
SPLINE
  5
48A
100
AcDbEntity
  8
0
  6
CONTINUOUS
 62
           3
100
AcDbSpline
210
0.0
220
0.0
230
1.0
 70
           0
 71
           3
 72
           8
 73
           5
 74
           7
 42
0.00000000001
 43
0.00000000001
 44
0.00000000001
 40
0.0
 40
0.0
 40
0.0
 40
0.2779464854282338
 40
0.7862840843628116
 40
1.5429642658951668
 40
1.5429642658951668
 40
1.5429642658951668
 10
4560.2301237560041
 20
1367.5999939442561
 30
0.0
 10
4560.2643403053644
 20
1367.600439639637
 30
0.0
 10
4560.7517530244531
 20
1367.606788543864
 30
0.0
 10
4561.2293915039991
 20
1367.834684327823
 30
0.0
 10
4561.6734995893648
 20
1368.0465817453121
 30
0.0
 11
4560.2301237560041
 21
1367.5999939442561
 31
0.0
 11
4560.2988605017536
 21
1367.6008892902339
 31
0.0
 11
4560.4366376402822
 21
1367.6026839374058
 31
0.0
 11
4560.7209580094686
 21
1367.628656931246
 31
0.0
 11
4560.9436883486833
 21
1367.6983666998503
 31
0.0
 11
4561.2689927365109
 21
1367.853579275202
 31
0.0
 11
4561.6734995893648
 21
1368.0465817453121
 31
0.0
  0
SPLINE
  5
489
100
AcDbEntity
  8
0
  6
CONTINUOUS
 62
           3
100
AcDbSpline
210
0.0
220
0.0
230
1.0
 70
           0
 71
           3
 72
           8
 73
           5
 74
           7
 42
0.00000000001
 43
0.00000000001
 44
0.00000000001
 40
0.0
 40
0.0
 40
0.0
 40
0.2779454797516296
 40
0.7862825386958174
 40
1.5429638907276935
 40
1.5429638907276935
 40
1.5429638907276935
 10
4560.2301237560041
 20
1372.6000040770409
 30
0.0
 10
4560.1959072114241
 20
1372.599558384783
 30
0.0
 10
4559.708496493311
 20
1372.5932095501271
 30
0.0
 10
4559.2308570261521
 20
1372.36531369562
 30
0.0
 10
4558.7867481555022
 20
1372.1534162760629
 30
0.0
 11
4560.2301237560041
 21
1372.6000040770409
 31
0.0
 11
4560.1613872618518
 21
1372.5991087404805
 31
0.0
 11
4560.0236108685513
 21
1372.5973141153156
 31
0.0
 11
4559.7392912317355
 21
1372.5713411810716
 31
0.0
 11
4559.5165610717677
 21
1372.5016315087164
 31
0.0
 11
4559.1912558198928
 21
1372.3464187940049
 31
0.0
 11
4558.7867481555022
 21
1372.1534162760629
 31
0.0
  0
SPLINE
  5
488
100
AcDbEntity
  8
0
  6
CONTINUOUS
 62
           3
100
AcDbSpline
210
0.0
220
0.0
230
1.0
 70
           0
 71
           3
 72
           8
 73
           5
 74
           7
 42
0.00000000001
 43
0.00000000001
 44
0.00000000001
 40
0.0
 40
0.0
 40
0.0
 40
0.709710718913514
 40
1.6878556121186348
 40
2.9354150974118154
 40
2.9354150974118154
 40
2.9354150974118154
 10
4553.0132452878443
 20
1368.046581745235
 30
0.0
 10
4553.2266018694954
 20
1367.986940602696
 30
0.0
 10
4554.1669045504623
 20
1367.7240908429519
 30
0.0
 10
4555.1443418916842
 20
1367.6541020998659
 30
0.0
 10
4555.8999967216751
 20
1367.5999939442561
 30
0.0
 11
4553.0132452878443
 21
1368.046581745235
 31
0.0
 11
4553.2721075078007
 21
1367.974220075213
 31
0.0
 11
4553.6219810043658
 21
1367.8764173502241
 31
0.0
 11
4554.1380638628552
 21
1367.754482866841
 31
0.0
 11
4554.5964653461278
 21
1367.6933324312363
 31
0.0
 11
4555.1962864627931
 21
1367.6503826438061
 31
0.0
 11
4555.8999967216751
 21
1367.5999939442561
 31
0.0
  0
SPLINE
  5
487
100
AcDbEntity
  8
0
  6
CONTINUOUS
 62
           3
100
AcDbSpline
210
0.0
220
0.0
230
1.0
 70
           0
 71
           3
 72
           8
 73
           5
 74
           7
 42
0.00000000001
 43
0.00000000001
 44
0.00000000001
 40
0.0
 40
0.0
 40
0.0
 40
0.7273681394902353
 40
1.7065914567886487
 40
2.9387223240284963
 40
2.9387223240284963
 40
2.9387223240284963
 10
4555.8999967216751
 20
1367.5999939442561
 30
0.0
 10
4556.138719501032
 20
1367.6054734833269
 30
0.0
 10
4557.1156271469818
 20
1367.6278969974519
 30
0.0
 10
4558.0674888562444
 20
1367.8663776207211
 30
0.0
 10
4558.7867481553621
 20
1368.0465817453121
 30
0.0
 11
4555.8999967216751
 21
1367.5999939442561
 31
0.0
 11
4556.1831310149728
 21
1367.6064928859432
 31
0.0
 11
4556.555088336152
 21
1367.6150306328632
 31
0.0
 11
4557.0808673755118
 21
1367.6510811733845
 31
0.0
 11
4557.5371268719337
 21
1367.7335000657718
 31
0.0
 11
4558.1147131849466
 21
1367.8782092631316
 31
0.0
 11
4558.7867481553621
 21
1368.0465817453121
 31
0.0
  0
SPLINE
  5
486
100
AcDbEntity
  8
0
  6
CONTINUOUS
 62
           3
100
AcDbSpline
210
0.0
220
0.0
230
1.0
 70
           0
 71
           3
 72
           8
 73
           5
 74
           7
 42
0.00000000001
 43
0.00000000001
 44
0.00000000001
 40
0.0
 40
0.0
 40
0.0
 40
1.2321308673576135
 40
2.2113541846560656
 40
2.9387223241462563
 40
2.9387223241462563
 40
2.9387223241462563
 10
4558.7867481555022
 20
1372.1534162760629
 30
0.0
 10
4558.0674888562444
 20
1372.3336204005791
 30
0.0
 10
4557.1156271469818
 20
1372.572101023849
 30
0.0
 10
4556.138719501032
 20
1372.5945245379701
 30
0.0
 10
4555.8999967216751
 20
1372.6000040770409
 30
0.0
 11
4558.7867481555022
 21
1372.1534162760629
 31
0.0
 11
4558.1147131849757
 21
1372.3217887581886
 31
0.0
 11
4557.5371268719109
 21
1372.4664979555346
 31
0.0
 11
4557.0808673755073
 21
1372.5489168479171
 31
0.0
 11
4556.555088336152
 21
1372.5849673884354
 31
0.0
 11
4556.1831310149719
 21
1372.593505135354
 31
0.0
 11
4555.8999967216751
 21
1372.6000040770409
 31
0.0
  0
SPLINE
  5
485
100
AcDbEntity
  8
0
  6
CONTINUOUS
 62
           3
100
AcDbSpline
210
0.0
220
0.0
230
1.0
 70
           0
 71
           3
 72
           8
 73
           5
 74
           7
 42
0.00000000001
 43
0.00000000001
 44
0.00000000001
 40
0.0
 40
0.0
 40
0.0
 40
1.2475616964931251
 40
2.2257084622422227
 40
2.9354211178794145
 40
2.9354211178794145
 40
2.9354211178794145
 10
4555.8999967216751
 20
1372.6000040770409
 30
0.0
 10
4555.1443400642538
 20
1372.5459088094719
 30
0.0
 10
4554.1668989125837
 20
1372.475936633469
 30
0.0
 10
4553.2266017037628
 20
1372.2130631111611
 30
0.0
 10
4553.0132452878443
 20
1372.1534162760629
 30
0.0
 11
4555.8999967216751
 21
1372.6000040770409
 31
0.0
 11
4555.196284566804
 21
1372.5496273656929
 31
0.0
 11
4554.5964614170334
 21
1372.5066877667873
 31
0.0
 11
4554.1380594916318
 21
1372.445539360308
 31
0.0
 11
4553.6219787243281
 21
1372.3235964075068
 31
0.0
 11
4553.2721068549254
 21
1372.225784726473
 31
0.0
 11
4553.0132452878443
 21
1372.1534162760629
 31
0.0
  0
SPLINE
  5
484
100
AcDbEntity
  8
0
  6
CONTINUOUS
 62
           3
100
AcDbSpline
210
0.0
220
0.0
230
1.0
 70
           0
 71
           3
 72
           8
 73
           5
 74
           7
 42
0.00000000001
 43
0.00000000001
 44
0.00000000001
 40
0.0
 40
0.0
 40
0.0
 40
0.2779452695546096
 40
0.7862805426571612
 40
1.5429573554978036
 40
1.5429573554978036
 40
1.5429573554978036
 10
4551.569869687346
 20
1372.6000040770409
 30
0.0
 10
4551.6040862308737
 20
1372.6004497818101
 30
0.0
 10
4552.0914965280836
 20
1372.6067987893659
 30
0.0
 10
4552.5691362283633
 20
1372.834686833085
 30
0.0
 10
4553.0132452878443
 20
1373.04657697686
 30
0.0
 11
4551.569869687346
 21
1372.6000040770409
 31
0.0
 11
4551.6386062202855
 21
1372.6008994392644
 31
0.0
 11
4551.7763827320487
 21
1372.6026941163966
 31
0.0
 11
4552.0607020292246
 21
1372.628666380841
 31
0.0
 11
4552.2834323286852
 21
1372.6983738282356
 31
0.0
 11
4552.6087375183142
 21
1372.8535811178162
 31
0.0
 11
4553.0132452878443
 21
1373.04657697686
 31
0.0
  0
SPLINE
  5
483
100
AcDbEntity
  8
0
  6
CONTINUOUS
 62
           3
100
AcDbSpline
210
0.0
220
0.0
230
1.0
 70
           0
 71
           3
 72
           8
 73
           5
 74
           7
 42
0.00000000001
 43
0.00000000001
 44
0.00000000001
 40
0.0
 40
0.0
 40
0.0
 40
0.2779463803337243
 40
0.786283086340376
 40
1.5429609982601331
 40
1.5429609982601331
 40
1.5429609982601331
 10
4551.569869687346
 20
1377.5999993086659
 30
0.0
 10
4551.5356531385041
 20
1377.5995536070379
 30
0.0
 10
4551.0482406298743
 20
1377.593204616358
 30
0.0
 10
4550.570602033762
 20
1377.3653127377879
 30
0.0
 10
4550.1264938539734
 20
1377.1534189582051
 30
0.0
 11
4551.569869687346
 21
1377.5999993086659
 31
0.0
 11
4551.501132922197
 21
1377.5991039498626
 31
0.0
 11
4551.3633557244348
 21
1377.5973092767085
 31
0.0
 11
4551.0790355250738
 21
1377.5713366177663
 31
0.0
 11
4550.8563051161118
 21
1377.5016279616409
 31
0.0
 11
4550.5310007594026
 21
1377.3464180988553
 31
0.0
 11
4550.1264938539734
 21
1377.1534189582051
 31
0.0
  0
SPLINE
  5
482
100
AcDbEntity
  8
0
  6
CONTINUOUS
 62
           3
100
AcDbSpline
210
0.0
220
0.0
230
1.0
 70
           0
 71
           3
 72
           8
 73
           5
 74
           7
 42
0.00000000001
 43
0.00000000001
 44
0.00000000001
 40
0.0
 40
0.0
 40
0.0
 40
0.2779462752393291
 40
0.7862820883272847
 40
1.5429577306519415
 40
1.5429577306519415
 40
1.5429577306519415
 10
4560.2301237560041
 20
1372.6000040770409
 30
0.0
 10
4560.2643403043221
 20
1372.6004497849281
 30
0.0
 10
4560.751752602504
 20
1372.606798862053
 30
0.0
 10
4561.2293913151643
 20
1372.8346868352339
 30
0.0
 10
4561.6734995893648
 20
1373.046576976913
 30
0.0
 11
4560.2301237560041
 21
1372.6000040770409
 31
0.0
 11
4560.298860540549
 21
1372.6008994486783
 31
0.0
 11
4560.4366377975457
 21
1372.6026941478156
 31
0.0
 11
4560.7209578270867
 21
1372.628666471855
 31
0.0
 11
4560.9436883057924
 21
1372.6983740154988
 31
0.0
 11
4561.2689926313715
 21
1372.8535811657198
 31
0.0
 11
4561.6734995893648
 21
1373.046576976913
 31
0.0
  0
SPLINE
  5
481
100
AcDbEntity
  8
0
  6
CONTINUOUS
 62
           3
100
AcDbSpline
210
0.0
220
0.0
230
1.0
 70
           0
 71
           3
 72
           8
 73
           5
 74
           7
 42
0.00000000001
 43
0.00000000001
 44
0.00000000001
 40
0.0
 40
0.0
 40
0.0
 40
0.2779453746522189
 40
0.7862815406665487
 40
1.5429606230909056
 40
1.5429606230909056
 40
1.5429606230909056
 10
4560.2301237560041
 20
1377.5999993086659
 30
0.0
 10
4560.1959072119507
 20
1377.5995536101509
 30
0.0
 10
4559.7084967042902
 20
1377.5932046890459
 30
0.0
 10
4559.230857120574
 20
1377.365312739938
 30
0.0
 10
4558.7867481555022
 20
1377.1534189582669
 30
0.0
 11
4560.2301237560041
 21
1377.5999993086659
 31
0.0
 11
4560.1613872424577
 21
1377.599103959273
 31
0.0
 11
4560.0236107899254
 21
1377.5973093081243
 31
0.0
 11
4559.7392913229314
 21
1377.5713367087808
 31
0.0
 11
4559.5165610932199
 21
1377.501628148907
 31
0.0
 11
4559.1912558724671
 21
1377.3464181467623
 31
0.0
 11
4558.7867481555022
 21
1377.1534189582669
 31
0.0
  0
SPLINE
  5
480
100
AcDbEntity
  8
0
  6
CONTINUOUS
 62
           3
100
AcDbSpline
210
0.0
220
0.0
230
1.0
 70
           0
 71
           3
 72
           8
 73
           5
 74
           7
 42
0.00000000001
 43
0.00000000001
 44
0.00000000001
 40
0.0
 40
0.0
 40
0.0
 40
0.7097104926816197
 40
1.6878550560184646
 40
2.9354142011749875
 40
2.9354142011749875
 40
2.9354142011749875
 10
4553.0132452878443
 20
1373.04657697686
 30
0.0
 10
4553.2266018489554
 20
1372.9869356693489
 30
0.0
 10
4554.166903851652
 20
1372.7240853468579
 30
0.0
 10
4555.1443416651719
 20
1372.654105412621
 30
0.0
 10
4555.8999967216751
 20
1372.6000040770409
 30
0.0
 11
4553.0132452878443
 21
1373.04657697686
 31
0.0
 11
4553.2721074221536
 21
1372.9742151236569
 31
0.0
 11
4553.6219807028583
 21
1372.8764121790696
 31
0.0
 11
4554.1380633113722
 21
1372.7544784200809
 31
0.0
 11
4554.5964648393274
 21
1372.6933308075384
 31
0.0
 11
4555.1962862228365
 21
1372.6503864274553
 31
0.0
 11
4555.8999967216751
 21
1372.6000040770409
 31
0.0
  0
SPLINE
  5
47F
100
AcDbEntity
  8
0
  6
CONTINUOUS
 62
           3
100
AcDbSpline
210
0.0
220
0.0
230
1.0
 70
           0
 71
           3
 72
           8
 73
           5
 74
           7
 42
0.00000000001
 43
0.00000000001
 44
0.00000000001
 40
0.0
 40
0.0
 40
0.0
 40
0.7273675739550281
 40
1.7065896374617373
 40
2.9387184666006929
 40
2.9387184666006929
 40
2.9387184666006929
 10
4555.8999967216751
 20
1372.6000040770409
 30
0.0
 10
4556.1387194651561
 20
1372.605483801264
 30
0.0
 10
4557.1156260260923
 20
1372.6279080515189
 30
0.0
 10
4558.0674885010521
 20
1372.8663796942849
 30
0.0
 10
4558.7867481553621
 20
1373.046576976913
 30
0.0
 11
4555.8999967216751
 21
1372.6000040770409
 31
0.0
 11
4556.183130902491
 21
1372.6065032367185
 31
0.0
 11
4556.5550879579741
 21
1372.6150412673048
 31
0.0
 11
4557.0808665470104
 21
1372.6510911338651
 31
0.0
 11
4557.5371261778801
 21
1372.7335071651169
 31
0.0
 11
4558.1147128338362
 21
1372.8782108826497
 31
0.0
 11
4558.7867481553621
 21
1373.046576976913
 31
0.0
  0
SPLINE
  5
47E
100
AcDbEntity
  8
0
  6
CONTINUOUS
 62
           3
100
AcDbSpline
210
0.0
220
0.0
230
1.0
 70
           0
 71
           3
 72
           8
 73
           5
 74
           7
 42
0.00000000001
 43
0.00000000001
 44
0.00000000001
 40
0.0
 40
0.0
 40
0.0
 40
1.2321298483019152
 40
2.2113525386989785
 40
2.9387203954176098
 40
2.9387203954176098
 40
2.9387203954176098
 10
4558.7867481555022
 20
1377.1534189582669
 30
0.0
 10
4558.0674886786446
 20
1377.333619661815
 30
0.0
 10
4557.115626586532
 20
1377.5720957948331
 30
0.0
 10
4556.1387194830913
 20
1377.5945196770219
 30
0.0
 10
4555.8999967216751
 20
1377.5999993086659
 30
0.0
 11
4558.7867481555022
 21
1377.1534189582669
 31
0.0
 11
4558.1147130094178
 21
1377.3217882464442
 31
0.0
 11
4557.5371265248787
 21
1377.4664947038796
 31
0.0
 11
4557.0808669612497
 21
1377.5489121656947
 31
0.0
 11
4556.555088147059
 21
1377.5849623692338
 31
0.0
 11
4556.1831309587287
 21
1377.5935002579859
 31
0.0
 11
4555.8999967216751
 21
1377.5999993086659
 31
0.0
  0
SPLINE
  5
47D
100
AcDbEntity
  8
0
  6
CONTINUOUS
 62
           3
100
AcDbSpline
210
0.0
220
0.0
230
1.0
 70
           0
 71
           3
 72
           8
 73
           5
 74
           7
 42
0.00000000001
 43
0.00000000001
 44
0.00000000001
 40
0.0
 40
0.0
 40
0.0
 40
1.24756042078711
 40
2.2257060852955828
 40
2.9354176594305246
 40
2.9354176594305246
 40
2.9354176594305246
 10
4555.8999967216751
 20
1377.5999993086659
 30
0.0
 10
4555.144340864721
 20
1377.5459010071061
 30
0.0
 10
4554.1669013821611
 20
1377.4759249520059
 30
0.0
 10
4553.2266017763632
 20
1377.2130630295719
 30
0.0
 10
4553.0132452878443
 20
1377.1534189582669
 30
0.0
 11
4555.8999967216751
 21
1377.5999993086659
 31
0.0
 11
4555.1962853948316
 21
1377.5496197777986
 31
0.0
 11
4554.5964631282077
 21
1377.5066777883162
 31
0.0
 11
4554.1380614015361
 21
1377.4455297788065
 31
0.0
 11
4553.6219797136137
 21
1377.3235914228976
 31
0.0
 11
4553.2721071385458
 21
1377.2257841100773
 31
0.0
 11
4553.0132452878443
 21
1377.1534189582669
 31
0.0
  0
SPLINE
  5
47C
100
AcDbEntity
  8
0
  6
CONTINUOUS
 62
           3
100
AcDbSpline
210
0.0
220
0.0
230
1.0
 70
           0
 71
           3
 72
           8
 73
           5
 74
           7
 42
0.00000000001
 43
0.00000000001
 44
0.00000000001
 40
0.0
 40
0.0
 40
0.0
 40
0.2779454797452741
 40
0.7862825386899756
 40
1.5429638907220735
 40
1.5429638907220735
 40
1.5429638907220735
 10
4551.569869687346
 20
1359.9999994040479
 30
0.0
 10
4551.6040862319223
 20
1360.0004450963061
 30
0.0
 10
4552.09149695003
 20
1360.0067939309631
 30
0.0
 10
4552.5691364171962
 20
1360.23468978547
 30
0.0
 10
4553.0132452878443
 20
1360.4465872050239
 30
0.0
 11
4551.569869687346
 21
1359.9999994040479
 31
0.0
 11
4551.6386061814956
 21
1360.0008947406084
 31
0.0
 11
4551.7763825747907
 21
1360.0026893657737
 31
0.0
 11
4552.0607022116073
 21
1360.0286623000186
 31
0.0
 11
4552.2834323715761
 21
1360.0983719723738
 31
0.0
 11
4552.6087376234536
 21
1360.2535846870844
 31
0.0
 11
4553.0132452878443
 21
1360.4465872050239
 31
0.0
  0
SPLINE
  5
47B
100
AcDbEntity
  8
0
  6
CONTINUOUS
 62
           3
100
AcDbSpline
210
0.0
220
0.0
230
1.0
 70
           0
 71
           3
 72
           8
 73
           5
 74
           7
 42
0.00000000001
 43
0.00000000001
 44
0.00000000001
 40
0.0
 40
0.0
 40
0.0
 40
0.2779462752379294
 40
0.7862820883294689
 40
1.5429577306137219
 40
1.5429577306137219
 40
1.5429577306137219
 10
4551.569869687346
 20
1364.9999946356729
 30
0.0
 10
4551.5356531390325
 20
1364.9995489277901
 30
0.0
 10
4551.0482408408443
 20
1364.993199850662
 30
0.0
 10
4550.5706021281821
 20
1364.7653118774831
 30
0.0
 10
4550.1264938539734
 20
1364.5534217359159
 30
0.0
 11
4551.569869687346
 21
1364.9999946356729
 31
0.0
 11
4551.5011329028048
 21
1364.9990992640387
 31
0.0
 11
4551.363355645808
 21
1364.9973045649015
 31
0.0
 11
4551.0790356162615
 21
1364.97133224086
 31
0.0
 11
4550.8563051375477
 21
1364.9016246972139
 31
0.0
 11
4550.5310008119714
 21
1364.7464175470241
 31
0.0
 11
4550.1264938539734
 21
1364.5534217359159
 31
0.0
  0
SPLINE
  5
47A
100
AcDbEntity
  8
0
  6
CONTINUOUS
 62
           3
100
AcDbSpline
210
0.0
220
0.0
230
1.0
 70
           0
 71
           3
 72
           8
 73
           5
 74
           7
 42
0.00000000001
 43
0.00000000001
 44
0.00000000001
 40
0.0
 40
0.0
 40
0.0
 40
0.27794648546984
 40
0.7862840844052634
 40
1.5429642659456966
 40
1.5429642659456966
 40
1.5429642659456966
 10
4560.2301237559641
 20
1359.9999994039219
 30
0.0
 10
4560.2643403053644
 20
1360.000445099424
 30
0.0
 10
4560.7517530244531
 20
1360.0067940036531
 30
0.0
 10
4561.2293915039991
 20
1360.2346897876159
 30
0.0
 10
4561.6734995893648
 20
1360.4465872051219
 30
0.0
 11
4560.2301237559641
 21
1359.9999994039219
 31
0.0
 11
4560.2988605017472
 21
1360.0008947499909
 31
0.0
 11
4560.4366376402977
 21
1360.002689397194
 31
0.0
 11
4560.7209580094714
 21
1360.0286623910351
 31
0.0
 11
4560.9436883486824
 21
1360.0983721596403
 31
0.0
 11
4561.2689927365109
 21
1360.2535847349986
 31
0.0
 11
4561.6734995893648
 21
1360.4465872051219
 31
0.0
  0
SPLINE
  5
479
100
AcDbEntity
  8
0
  6
CONTINUOUS
 62
           3
100
AcDbSpline
210
0.0
220
0.0
230
1.0
 70
           0
 71
           3
 72
           8
 73
           5
 74
           7
 42
0.00000000001
 43
0.00000000001
 44
0.00000000001
 40
0.0
 40
0.0
 40
0.0
 40
0.2779452695532173
 40
0.7862805426562545
 40
1.5429573555005907
 40
1.5429573555005907
 40
1.5429573555005907
 10
4560.2301237560041
 20
1364.9999946356729
 30
0.0
 10
4560.1959072124746
 20
1364.999548930904
 30
0.0
 10
4559.7084969152711
 20
1364.993199923352
 30
0.0
 10
4559.2308572149832
 20
1364.7653118796329
 30
0.0
 10
4558.7867481555022
 20
1364.5534217358579
 30
0.0
 11
4560.2301237560041
 21
1364.9999946356729
 31
0.0
 11
4560.1613872230637
 21
1364.9990992734502
 31
0.0
 11
4560.0236107113024
 21
1364.9973045963191
 31
0.0
 11
4559.7392914141274
 21
1364.9713323318763
 31
0.0
 11
4559.5165611146658
 21
1364.9016248844825
 31
0.0
 11
4559.1912559250341
 21
1364.7464175949015
 31
0.0
 11
4558.7867481555022
 21
1364.5534217358579
 31
0.0
  0
SPLINE
  5
478
100
AcDbEntity
  8
0
  6
CONTINUOUS
 62
           3
100
AcDbSpline
210
0.0
220
0.0
230
1.0
 70
           0
 71
           3
 72
           8
 73
           5
 74
           7
 42
0.00000000001
 43
0.00000000001
 44
0.00000000001
 40
0.0
 40
0.0
 40
0.0
 40
0.7097126556365796
 40
1.6878594213856855
 40
2.9354211178788185
 40
2.9354211178788185
 40
2.9354211178788185
 10
4553.0132452878443
 20
1360.4465872050239
 30
0.0
 10
4553.2266017037628
 20
1360.386940369928
 30
0.0
 10
4554.1668989125837
 20
1360.12406684762
 30
0.0
 10
4555.1443400642538
 20
1360.0540946716169
 30
0.0
 10
4555.8999967216751
 20
1359.9999994040479
 30
0.0
 11
4553.0132452878443
 21
1360.4465872050239
 31
0.0
 11
4553.2721068549245
 21
1360.3742187546156
 31
0.0
 11
4553.6219787243272
 21
1360.2764070735825
 31
0.0
 11
4554.1380594916327
 21
1360.1544641207813
 31
0.0
 11
4554.5964614170334
 21
1360.0933157143018
 31
0.0
 11
4555.196284566804
 21
1360.0503761153959
 31
0.0
 11
4555.8999967216751
 21
1359.9999994040479
 31
0.0
  0
SPLINE
  5
477
100
AcDbEntity
  8
0
  6
CONTINUOUS
 62
           3
100
AcDbSpline
210
0.0
220
0.0
230
1.0
 70
           0
 71
           3
 72
           8
 73
           5
 74
           7
 42
0.00000000001
 43
0.00000000001
 44
0.00000000001
 40
0.0
 40
0.0
 40
0.0
 40
0.7273681394901727
 40
1.7065914567886966
 40
2.9387223240334626
 40
2.9387223240334626
 40
2.9387223240334626
 10
4555.8999967216751
 20
1359.9999994040479
 30
0.0
 10
4556.138719501032
 20
1360.005478943116
 30
0.0
 10
4557.1156271469818
 20
1360.027902457241
 30
0.0
 10
4558.0674888562444
 20
1360.2663830805111
 30
0.0
 10
4558.7867481553621
 20
1360.4465872051219
 30
0.0
 11
4555.8999967216751
 21
1359.9999994040479
 31
0.0
 11
4556.1831310149728
 21
1360.006498345733
 31
0.0
 11
4556.555088336152
 21
1360.0150360926523
 31
0.0
 11
4557.0808673755118
 21
1360.0510866331738
 31
0.0
 11
4557.5371268719318
 21
1360.1335055255608
 31
0.0
 11
4558.1147131849466
 21
1360.2782147229264
 31
0.0
 11
4558.7867481553621
 21
1360.4465872051219
 31
0.0
  0
SPLINE
  5
476
100
AcDbEntity
  8
0
  6
CONTINUOUS
 62
           3
100
AcDbSpline
210
0.0
220
0.0
230
1.0
 70
           0
 71
           3
 72
           8
 73
           5
 74
           7
 42
0.00000000001
 43
0.00000000001
 44
0.00000000001
 40
0.0
 40
0.0
 40
0.0
 40
1.2321288292613362
 40
2.2113508927684427
 40
2.9387184667233872
 40
2.9387184667233872
 40
2.9387184667233872
 10
4558.7867481555022
 20
1364.5534217358579
 30
0.0
 10
4558.0674885010521
 20
1364.733619018429
 30
0.0
 10
4557.1156260260923
 20
1364.9720906611981
 30
0.0
 10
4556.1387194651561
 20
1364.994514911454
 30
0.0
 10
4555.8999967216751
 20
1364.9999946356729
 30
0.0
 11
4558.7867481555022
 21
1364.5534217358579
 31
0.0
 11
4558.1147128338662
 21
1364.7217878300803
 31
0.0
 11
4557.5371261778564
 21
1364.8664915476047
 31
0.0
 11
4557.080866547004
 21
1364.9489075788533
 31
0.0
 11
4556.5550879579732
 21
1364.9849574454126
 31
0.0
 11
4556.1831309024901
 21
1364.9934954759983
 31
0.0
 11
4555.8999967216751
 21
1364.9999946356729
 31
0.0
  0
SPLINE
  5
475
100
AcDbEntity
  8
0
  6
CONTINUOUS
 62
           3
100
AcDbSpline
210
0.0
220
0.0
230
1.0
 70
           0
 71
           3
 72
           8
 73
           5
 74
           7
 42
0.00000000001
 43
0.00000000001
 44
0.00000000001
 40
0.0
 40
0.0
 40
0.0
 40
1.2475591451564418
 40
2.2257037084933442
 40
2.9354142011742907
 40
2.9354142011742907
 40
2.9354142011742907
 10
4555.8999967216751
 20
1364.9999946356729
 30
0.0
 10
4555.1443416651719
 20
1364.9458933000931
 30
0.0
 10
4554.166903851652
 20
1364.875913365858
 30
0.0
 10
4553.2266018489554
 20
1364.6130630433661
 30
0.0
 10
4553.0132452878443
 20
1364.5534217358579
 30
0.0
 11
4555.8999967216751
 21
1364.9999946356729
 31
0.0
 11
4555.1962862228365
 21
1364.949612285259
 31
0.0
 11
4554.5964648393274
 21
1364.9066679051766
 31
0.0
 11
4554.1380633113722
 21
1364.8455202926343
 31
0.0
 11
4553.6219807028583
 21
1364.7235865336456
 31
0.0
 11
4553.2721074221536
 21
1364.625783589059
 31
0.0
 11
4553.0132452878443
 21
1364.5534217358579
 31
0.0
  0
SPLINE
  5
474
100
AcDbEntity
  8
0
  6
CONTINUOUS
 62
           3
100
AcDbSpline
210
0.0
220
0.0
230
1.0
 70
           0
 71
           3
 72
           8
 73
           5
 74
           7
 42
0.00000000001
 43
0.00000000001
 44
0.00000000001
 40
0.0
 40
0.0
 40
0.0
 40
0.2779464854665291
 40
0.7862840844020281
 40
1.5429642659222422
 40
1.5429642659222422
 40
1.5429642659222422
 10
4560.2301237559641
 20
1359.9999994039219
 30
0.0
 10
4560.2643403053644
 20
1359.9995537086761
 30
0.0
 10
4560.7517530244531
 20
1359.9932048044429
 30
0.0
 10
4561.2293915039991
 20
1359.7653090204799
 30
0.0
 10
4561.6734995893648
 20
1359.553411603021
 30
0.0
 11
4560.2301237559641
 21
1359.9999994039219
 31
0.0
 11
4560.2988605017481
 21
1359.9991040580448
 31
0.0
 11
4560.4366376402968
 21
1359.997309410905
 31
0.0
 11
4560.7209580094723
 21
1359.9713364170611
 31
0.0
 11
4560.9436883486851
 21
1359.9016266484541
 31
0.0
 11
4561.2689927365118
 21
1359.7464140731086
 31
0.0
 11
4561.6734995893648
 21
1359.553411603021
 31
0.0
  0
SPLINE
  5
473
100
AcDbEntity
  8
0
  6
CONTINUOUS
 62
           3
100
AcDbSpline
210
0.0
220
0.0
230
1.0
 70
           0
 71
           3
 72
           8
 73
           5
 74
           7
 42
0.00000000001
 43
0.00000000001
 44
0.00000000001
 40
0.0
 40
0.0
 40
0.0
 40
0.3778155284983235
 40
0.8942062233973662
 40
1.5357514174666138
 40
1.5357514174666138
 40
1.5357514174666138
 10
4550.1264938539734
 20
1359.553411603021
 30
0.0
 10
4550.2210118970343
 20
1359.6064716909059
 30
0.0
 10
4550.6908817949034
 20
1359.870245011374
 30
0.0
 10
4551.1795227343036
 20
1359.9423771861991
 30
0.0
 10
4551.569869687346
 20
1359.9999994040479
 30
0.0
 11
4550.1264938539734
 21
1359.553411603021
 31
0.0
 11
4550.2470141544072
 21
1359.6210687140281
 31
0.0
 11
4550.419538969586
 21
1359.7179198712795
 31
0.0
 11
4550.67752441433
 21
1359.8402057052367
 31
0.0
 11
4550.9087950979256
 21
1359.9024129269187
 31
0.0
 11
4551.2094275634699
 21
1359.9467916758413
 31
0.0
 11
4551.569869687346
 21
1359.9999994040479
 31
0.0
  0
SPLINE
  5
472
100
AcDbEntity
  8
0
  6
CONTINUOUS
 62
           3
100
AcDbSpline
210
0.0
220
0.0
230
1.0
 70
           0
 71
           3
 72
           8
 73
           5
 74
           7
 42
0.00000000001
 43
0.00000000001
 44
0.00000000001
 40
0.0
 40
0.0
 40
0.0
 40
0.6415450374775791
 40
1.1579303686113898
 40
1.5357381749054433
 40
1.5357381749054433
 40
1.5357381749054433
 10
4551.569869687346
 20
1355.0000041724199
 30
0.0
 10
4551.1795237086126
 20
1355.0576336938759
 30
0.0
 10
4550.6908846293591
 20
1355.1297749168839
 30
0.0
 10
4550.2210119621141
 20
1355.393522448258
 30
0.0
 10
4550.1264938539734
 20
1355.4465770722229
 30
0.0
 11
4551.569869687346
 21
1355.0000041724199
 31
0.0
 11
4551.2094282457037
 21
1355.0532186767994
 31
0.0
 11
4550.9087958782438
 21
1355.0976031470252
 31
0.0
 11
4550.6775260473178
 21
1355.1598096979621
 31
0.0
 11
4550.4195390523128
 21
1355.2820858110563
 31
0.0
 11
4550.247014207629
 21
1355.3789269449487
 31
0.0
 11
4550.1264938539734
 21
1355.4465770722229
 31
0.0
  0
SPLINE
  5
471
100
AcDbEntity
  8
0
  6
CONTINUOUS
 62
           3
100
AcDbSpline
210
0.0
220
0.0
230
1.0
 70
           0
 71
           3
 72
           8
 73
           5
 74
           7
 42
0.00000000001
 43
0.00000000001
 44
0.00000000001
 40
0.0
 40
0.0
 40
0.0
 40
0.3539460334951224
 40
0.8643414136594119
 40
1.5431068114000444
 40
1.5431068114000444
 40
1.5431068114000444
 10
4551.569869687346
 20
1359.9999994040479
 30
0.0
 10
4551.6793238424234
 20
1359.9953935078299
 30
0.0
 10
4552.1676816710442
 20
1359.97484311874
 30
0.0
 10
4552.6438213484453
 20
1359.7375336343539
 30
0.0
 10
4553.0132452879707
 20
1359.553411603021
 30
0.0
 11
4551.569869687346
 21
1359.9999994040479
 31
0.0
 11
4551.7019556855812
 21
1359.9944411463539
 31
0.0
 11
4551.8793053701338
 21
1359.9869781657089
 31
0.0
 11
4552.1466781413874
 21
1359.9524131949254
 31
0.0
 11
4552.3720438533273
 21
1359.8729883765131
 31
0.0
 11
4552.6682329595478
 21
1359.7253668120607
 31
0.0
 11
4553.0132452879707
 21
1359.553411603021
 31
0.0
  0
SPLINE
  5
470
100
AcDbEntity
  8
0
  6
CONTINUOUS
 62
           3
100
AcDbSpline
210
0.0
220
0.0
230
1.0
 70
           0
 71
           3
 72
           8
 73
           5
 74
           7
 42
0.00000000001
 43
0.00000000001
 44
0.00000000001
 40
0.0
 40
0.0
 40
0.0
 40
0.6787700534939568
 40
1.1891668948836114
 40
1.5431123743464028
 40
1.5431123743464028
 40
1.5431123743464028
 10
4553.0132452878443
 20
1355.4465770722429
 30
0.0
 10
4552.643821474403
 20
1355.2624483716061
 30
0.0
 10
4552.1676820506227
 20
1355.0251303367841
 30
0.0
 10
4551.6793238525843
 20
1355.0046045512611
 30
0.0
 10
4551.569869687346
 20
1355.0000041724199
 30
0.0
 11
4553.0132452878443
 21
1355.4465770722429
 31
0.0
 11
4552.6682329736368
 21
1355.2746155830068
 31
0.0
 11
4552.3720436578997
 21
1355.126988516573
 31
0.0
 11
4552.1466781919462
 21
1355.0475647466085
 31
0.0
 11
4551.8793050086433
 21
1355.0130097962931
 31
0.0
 11
4551.7019556002897
 21
1355.0055557678088
 31
0.0
 11
4551.569869687346
 21
1355.0000041724199
 31
0.0
  0
SPLINE
  5
46F
100
AcDbEntity
  8
0
  6
CONTINUOUS
 62
           3
100
AcDbSpline
210
0.0
220
0.0
230
1.0
 70
           0
 71
           3
 72
           8
 73
           5
 74
           7
 42
0.00000000001
 43
0.00000000001
 44
0.00000000001
 40
0.0
 40
0.0
 40
0.0
 40
0.2779452695532395
 40
0.7862805426571281
 40
1.5429573556204832
 40
1.5429573556204832
 40
1.5429573556204832
 10
4560.2301237560041
 20
1355.0000041724199
 30
0.0
 10
4560.1959072124746
 20
1355.0004498771891
 30
0.0
 10
4559.7084969152711
 20
1355.0067988847441
 30
0.0
 10
4559.2308572149832
 20
1355.234686928467
 30
0.0
 10
4558.7867481553621
 20
1355.4465770722229
 30
0.0
 11
4560.2301237560041
 21
1355.0000041724199
 31
0.0
 11
4560.1613872230646
 21
1355.0008995346434
 31
0.0
 11
4560.0236107113033
 21
1355.0026942117752
 31
0.0
 11
4559.7392914141328
 21
1355.0286664762175
 31
0.0
 11
4559.516561114684
 21
1355.0983739236065
 31
0.0
 11
4559.1912559250022
 21
1355.2535812131905
 31
0.0
 11
4558.7867481553621
 21
1355.4465770722229
 31
0.0
  0
SPLINE
  5
46E
100
AcDbEntity
  8
0
  6
CONTINUOUS
 62
           3
100
AcDbSpline
210
0.0
220
0.0
230
1.0
 70
           0
 71
           3
 72
           8
 73
           5
 74
           7
 42
0.00000000001
 43
0.00000000001
 44
0.00000000001
 40
0.0
 40
0.0
 40
0.0
 40
0.55585584906922
 40
1.5343195422055771
 40
2.9385037456638732
 40
2.9385037456638732
 40
2.9385037456638732
 10
4555.8999967216751
 20
1355.000004172322
 30
0.0
 10
4555.8315636362913
 20
1355.0004498783021
 30
0.0
 10
4554.8567416872411
 20
1355.0067989106681
 30
0.0
 10
4553.901462916263
 20
1355.234686929231
 30
0.0
 10
4553.0132452878443
 20
1355.4465770722429
 30
0.0
 11
4555.8999967216751
 21
1355.000004172322
 31
0.0
 11
4555.7603818762454
 21
1355.0009134863221
 31
0.0
 11
4555.4784035107277
 21
1355.0027500163631
 31
0.0
 11
4554.9140828960153
 21
1355.0291829422185
 31
0.0
 11
4554.4644446988523
 21
1355.1003839311754
 31
0.0
 11
4553.8201539548054
 21
1355.2540837154702
 31
0.0
 11
4553.0132452878443
 21
1355.4465770722429
 31
0.0
  0
SPLINE
  5
46D
100
AcDbEntity
  8
0
  6
CONTINUOUS
 62
           3
100
AcDbSpline
210
0.0
220
0.0
230
1.0
 70
           0
 71
           3
 72
           8
 73
           5
 74
           7
 42
0.00000000001
 43
0.00000000001
 44
0.00000000001
 40
0.0
 40
0.0
 40
0.0
 40
0.5558562714151618
 40
1.5343210643708305
 40
2.9385072682928572
 40
2.9385072682928572
 40
2.9385072682928572
 10
4555.8999967216751
 20
1359.9999994040479
 30
0.0
 10
4555.9684298091433
 20
1359.999553710677
 30
0.0
 10
4556.9432526000246
 20
1359.9932048512139
 30
0.0
 10
4557.8985309047421
 20
1359.7653090218639
 30
0.0
 10
4558.7867481555022
 20
1359.553411603069
 30
0.0
 11
4555.8999967216751
 21
1359.9999994040479
 31
0.0
 11
4556.0396116244056
 21
1359.999090115298
 31
0.0
 11
4556.3215901576605
 21
1359.9972536357898
 31
0.0
 11
4556.8859111712864
 21
1359.9708199944773
 31
0.0
 11
4557.3355493274366
 21
1359.8996166396914
 31
0.0
 11
4557.9798398231051
 21
1359.7459115716219
 31
0.0
 11
4558.7867481555022
 21
1359.553411603069
 31
0.0
  0
CIRCLE
  5
46C
100
AcDbEntity
  8
1
  6
CONTINUOUS
 62
           4
100
AcDbCircle
 10
4005.000000000002
 20
1444.999999999993
 40
15.0
  0
CIRCLE
  5
46B
100
AcDbEntity
  8
1
  6
CONTINUOUS
 62
           4
100
AcDbCircle
 10
4005.000000000002
 20
1404.999999999993
 40
15.0
  0
CIRCLE
  5
46A
100
AcDbEntity
  8
1
  6
CONTINUOUS
 62
           4
100
AcDbCircle
 10
3945.000000000002
 20
1459.999999999993
 40
15.0
  0
CIRCLE
  5
469
100
AcDbEntity
  8
1
  6
CONTINUOUS
 62
           4
100
AcDbCircle
 10
3725.000000000002
 20
1500.000000000003
 40
10.0
  0
CIRCLE
  5
468
100
AcDbEntity
  8
1
  6
CONTINUOUS
 62
           4
100
AcDbCircle
 10
3725.000000000002
 20
1500.000000000003
 40
40.0
  0
CIRCLE
  5
467
100
AcDbEntity
  8
1
  6
CONTINUOUS
 62
           4
100
AcDbCircle
 10
237.386953890959
 20
5252.000000000001
 40
100.947599999999
  0
CIRCLE
  5
466
100
AcDbEntity
  8
1
  6
CONTINUOUS
 62
           4
100
AcDbCircle
 10
237.386953890959
 20
5252.000000000001
 40
125.0
  0
CIRCLE
  5
465
100
AcDbEntity
  8
1
  6
CONTINUOUS
 62
           7
100
AcDbCircle
 10
237.386953890959
 20
5252.000000000001
 40
400.0
  0
CIRCLE
  5
464
100
AcDbEntity
  8
1
  6
CONTINUOUS
 62
           3
100
AcDbCircle
 10
-254.140790787161
 20
1295.20084832705
 40
40.0
  0
CIRCLE
  5
463
100
AcDbEntity
  8
1
  6
CONTINUOUS
 62
           7
100
AcDbCircle
 10
-962.613046109039
 20
4002.0
 40
45.000000000001
  0
CIRCLE
  5
462
100
AcDbEntity
  8
1
  6
CONTINUOUS
 62
           7
100
AcDbCircle
 10
787.386953890961
 20
4002.0
 40
45.0
  0
CIRCLE
  5
461
100
AcDbEntity
  8
1
  6
CONTINUOUS
 62
           2
100
AcDbCircle
 10
4940.0
 20
600.0
 40
8.350000000002
  0
CIRCLE
  5
460
100
AcDbEntity
  8
1
  6
CONTINUOUS
 62
           7
100
AcDbCircle
 10
4940.0
 20
600.0
 40
15.0
  0
CIRCLE
  5
45F
100
AcDbEntity
  8
1
  6
CONTINUOUS
 62
           2
100
AcDbCircle
 10
3945.000000000002
 20
1079.499999999994
 40
45.000000000001
  0
ARC
  5
45E
100
AcDbEntity
  8
1
  6
CONTINUOUS
 62
           3
100
AcDbCircle
 10
5060.163567691041
 20
1925.0
 40
9.499999999999
100
AcDbArc
 50
-124.797812779177
 51
0.0
  0
ARC
  5
45D
100
AcDbEntity
  8
1
  6
CONTINUOUS
 62
           3
100
AcDbCircle
 10
5060.163567691041
 20
1925.0
 40
9.5
100
AcDbArc
 50
0.0
 51
125.916957371441
  0
ARC
  5
45C
100
AcDbEntity
  8
1
  6
CONTINUOUS
 62
           3
100
AcDbCircle
 10
5060.163567691041
 20
1925.0
 40
5.871834995061
100
AcDbArc
 50
0.0
 51
38.599713917924
  0
ARC
  5
45B
100
AcDbEntity
  8
1
  6
CONTINUOUS
 62
           3
100
AcDbCircle
 10
5060.163567691041
 20
1925.0
 40
5.871834995069
100
AcDbArc
 50
38.599713917924
 51
90.0
  0
ARC
  5
45A
100
AcDbEntity
  8
1
  6
CONTINUOUS
 62
           3
100
AcDbCircle
 10
5060.163567691041
 20
1925.0
 40
5.871834995066
100
AcDbArc
 50
-90.0
 51
0.0
  0
ARC
  5
459
100
AcDbEntity
  8
0
  6
CONTINUOUS
 62
           3
100
AcDbCircle
 10
4618.399996721513
 20
1368.000000000114
 40
2.5
100
AcDbArc
 50
-0.000000000021
 51
180.0
  0
ARC
  5
458
100
AcDbEntity
  8
0
  6
CONTINUOUS
 62
           3
100
AcDbCircle
 10
4618.399996721513
 20
1631.999999999898
 40
2.499999999991
100
AcDbArc
 50
180.0
 51
0.0
  0
ARC
  5
457
100
AcDbEntity
  8
0
  6
CONTINUOUS
 62
           3
100
AcDbCircle
 10
4493.399996721824
 20
1631.999999999898
 40
2.5
100
AcDbArc
 50
180.0
 51
0.0
  0
ARC
  5
456
100
AcDbEntity
  8
0
  6
CONTINUOUS
 62
           3
100
AcDbCircle
 10
4493.399996721824
 20
1368.000000000113
 40
2.499999999989
100
AcDbArc
 50
0.0
 51
180.0
  0
ARC
  5
455
100
AcDbEntity
  8
0
  6
CONTINUOUS
 62
           3
100
AcDbCircle
 10
4497.899996721813
 20
1508.999999999996
 40
0.999999999996
100
AcDbArc
 50
-90.0
 51
90.0
  0
ARC
  5
454
100
AcDbEntity
  8
0
  6
CONTINUOUS
 62
           3
100
AcDbCircle
 10
4497.899996721813
 20
1431.000000000062
 40
1.0
100
AcDbArc
 50
-90.0
 51
90.0
  0
ARC
  5
453
100
AcDbEntity
  8
0
  6
CONTINUOUS
 62
           3
100
AcDbCircle
 10
4497.899996721813
 20
1409.000000000178
 40
0.999999999996
100
AcDbArc
 50
-90.0
 51
90.0
  0
ARC
  5
452
100
AcDbEntity
  8
0
  6
CONTINUOUS
 62
           3
100
AcDbCircle
 10
4613.899996721522
 20
1409.000000000178
 40
1.0
100
AcDbArc
 50
90.0
 51
-90.0
  0
ARC
  5
451
100
AcDbEntity
  8
0
  6
CONTINUOUS
 62
           3
100
AcDbCircle
 10
4613.899996721522
 20
1431.000000000062
 40
0.999999999996
100
AcDbArc
 50
90.0
 51
-90.0
  0
ARC
  5
450
100
AcDbEntity
  8
0
  6
CONTINUOUS
 62
           3
100
AcDbCircle
 10
4613.899996721522
 20
1508.999999999996
 40
1.0
100
AcDbArc
 50
90.0
 51
-90.0
  0
ARC
  5
44F
100
AcDbEntity
  8
0
  6
CONTINUOUS
 62
           3
100
AcDbCircle
 10
4613.899996721522
 20
1530.99999999988
 40
1.0
100
AcDbArc
 50
90.0
 51
-90.0
  0
ARC
  5
44E
100
AcDbEntity
  8
0
  6
CONTINUOUS
 62
           3
100
AcDbCircle
 10
4497.899996721813
 20
1530.99999999988
 40
0.999999999997
100
AcDbArc
 50
-90.0
 51
90.0
  0
ARC
  5
44D
100
AcDbEntity
  8
0
  6
CONTINUOUS
 62
           3
100
AcDbCircle
 10
4562.373499413461
 20
1389.999999999996
 40
0.900000000001
100
AcDbArc
 50
-90.0
 51
-62.733955549455
  0
ARC
  5
44C
100
AcDbEntity
  8
0
  6
CONTINUOUS
 62
           3
100
AcDbCircle
 10
4549.426494029872
 20
1389.999999999996
 40
0.9
100
AcDbArc
 50
-117.266044450441
 51
-90.0
  0
ARC
  5
44B
100
AcDbEntity
  8
0
  6
CONTINUOUS
 62
           3
100
AcDbCircle
 10
4555.899996721675
 20
1315.000000000058
 40
53.999999999964
100
AcDbArc
 50
180.0
 51
0.0
  0
ARC
  5
44A
100
AcDbEntity
  8
0
  6
CONTINUOUS
 62
           3
100
AcDbCircle
 10
4555.899996721675
 20
1315.000000000058
 40
45.999999999971
100
AcDbArc
 50
180.0
 51
0.0
  0
ARC
  5
449
100
AcDbEntity
  8
0
  6
CONTINUOUS
 62
           3
100
AcDbCircle
 10
4555.899996721675
 20
1355.000000000222
 40
4.0
100
AcDbArc
 50
180.0
 51
0.0
  0
ARC
  5
448
100
AcDbEntity
  8
1
  6
CONTINUOUS
 62
           4
100
AcDbCircle
 10
3725.000000000002
 20
1500.000000000003
 40
50.000000000001
100
AcDbArc
 50
56.536959032816
 51
123.463040967183
  0
ARC
  5
447
100
AcDbEntity
  8
1
  6
CONTINUOUS
 62
           4
100
AcDbCircle
 10
3725.000000000002
 20
1500.000000000003
 40
50.0
100
AcDbArc
 50
-123.463040967184
 51
-56.536959032815
  0
ARC
  5
446
100
AcDbEntity
  8
1
  6
CONTINUOUS
 62
           4
100
AcDbCircle
 10
3725.000000000002
 20
1500.000000000003
 40
50.0
100
AcDbArc
 50
-33.463040967184
 51
33.463040967184
  0
ARC
  5
445
100
AcDbEntity
  8
1
  6
CONTINUOUS
 62
           4
100
AcDbCircle
 10
3725.000000000002
 20
1500.000000000003
 40
50.0
100
AcDbArc
 50
146.536959032815
 51
-146.536959032815
  0
ARC
  5
444
100
AcDbEntity
  8
1
  6
CONTINUOUS
 62
           4
100
AcDbCircle
 10
3681.500000000002
 20
1543.500000000003
 40
10.000000000002
100
AcDbArc
 50
45.000000000004
 51
-135.0
  0
ARC
  5
443
100
AcDbEntity
  8
1
  6
CONTINUOUS
 62
           4
100
AcDbCircle
 10
3768.500000000002
 20
1543.500000000003
 40
10.0
100
AcDbArc
 50
-44.999999999994
 51
134.99999999999
  0
ARC
  5
442
100
AcDbEntity
  8
1
  6
CONTINUOUS
 62
           4
100
AcDbCircle
 10
3768.500000000002
 20
1456.500000000003
 40
9.999999999999
100
AcDbArc
 50
-135.0
 51
45.000000000004
  0
ARC
  5
441
100
AcDbEntity
  8
1
  6
CONTINUOUS
 62
           4
100
AcDbCircle
 10
3681.500000000002
 20
1456.500000000003
 40
10.000000000001
100
AcDbArc
 50
134.99999999999
 51
-44.999999999994
  0
ARC
  5
440
100
AcDbEntity
  8
1
  6
CONTINUOUS
 62
           7
100
AcDbCircle
 10
237.386953890959
 20
5252.000000000001
 40
150.0
100
AcDbArc
 50
-89.999999999999
 51
-23.882765003115
  0
ARC
  5
43F
100
AcDbEntity
  8
1
  6
CONTINUOUS
 62
           7
100
AcDbCircle
 10
237.386953890959
 20
5252.000000000001
 40
132.84
100
AcDbArc
 50
-75.809724714478
 51
-75.809724714478
  0
ARC
  5
43E
100
AcDbEntity
  8
1
  6
CONTINUOUS
 62
           7
100
AcDbCircle
 10
237.386953890959
 20
5252.000000000001
 40
150.000000000002
100
AcDbArc
 50
23.882765003116
 51
-89.999999999999
  0
ARC
  5
43D
100
AcDbEntity
  8
0
  6
CONTINUOUS
 62
           7
100
AcDbCircle
 10
282.386953890959
 20
5229.000000000001
 40
469.999999999994
100
AcDbArc
 50
31.359627184827
 51
72.547531235072
  0
ARC
  5
43C
100
AcDbEntity
  8
1
  6
CONTINUOUS
 62
           7
100
AcDbCircle
 10
418.569036519173
 20
5678.838238004551
 40
5.0
100
AcDbArc
 50
163.46182990048
 51
-17.147702543141
  0
ARC
  5
43B
100
AcDbEntity
  8
1
  6
CONTINUOUS
 62
           7
100
AcDbCircle
 10
767.368674574224
 20
5177.515926598167
 40
4.999999999999
100
AcDbArc
 50
89.793306572368
 51
-90.727565944082
  0
ARC
  5
43A
100
AcDbEntity
  8
0
  6
CONTINUOUS
 62
           7
100
AcDbCircle
 10
217.386953890959
 20
5182.000000000001
 40
550.000000000001
100
AcDbArc
 50
-65.3714141245
 51
-0.988002202365
  0
ARC
  5
439
100
AcDbEntity
  8
0
  6
CONTINUOUS
 62
           7
100
AcDbCircle
 10
217.386953890959
 20
5182.000000000001
 40
549.999999999999
100
AcDbArc
 50
0.053742830624
 51
18.194147279427
  0
ARC
  5
438
100
AcDbEntity
  8
1
  6
CONTINUOUS
 62
           7
100
AcDbCircle
 10
738.306362869688
 20
5358.4737072463
 40
4.999999999998
100
AcDbArc
 50
108.975456054179
 51
-71.545416462356
  0
ARC
  5
437
100
AcDbEntity
  8
0
  6
CONTINUOUS
 62
           7
100
AcDbCircle
 10
169.386953890959
 20
5292.000000000001
 40
670.0
100
AcDbArc
 50
180.0
 51
-177.004902602006
  0
ARC
  5
436
100
AcDbEntity
  8
1
  6
CONTINUOUS
 62
           7
100
AcDbCircle
 10
-499.417950397279
 20
5252.000000000001
 40
4.999999999999
100
AcDbArc
 50
-86.363530447515
 51
93.208888116185
  0
ARC
  5
435
100
AcDbEntity
  8
0
  6
CONTINUOUS
 62
           7
100
AcDbCircle
 10
169.386953890959
 20
5291.999999999999
 40
669.999999999999
100
AcDbArc
 50
-176.149739729349
 51
-90.0
  0
ARC
  5
434
100
AcDbEntity
  8
0
  6
CONTINUOUS
 62
           7
100
AcDbCircle
 10
217.386953890959
 20
5182.000000000001
 40
550.0
100
AcDbArc
 50
19.235892312416
 51
32.0167313156
  0
ARC
  5
433
100
AcDbEntity
  8
0
  6
CONTINUOUS
 62
           7
100
AcDbCircle
 10
282.386953890959
 20
5229.000000000001
 40
469.999999999995
100
AcDbArc
 50
73.766596122265
 51
91.7405042324
  0
ARC
  5
432
100
AcDbEntity
  8
0
  6
CONTINUOUS
 62
           7
100
AcDbCircle
 10
169.386953890959
 20
5292.000000000001
 40
670.0
100
AcDbArc
 50
-90.0
 51
-65.560184603745
  0
ARC
  5
431
100
AcDbEntity
  8
7
  6
CONTINUOUS
 62
           7
100
AcDbCircle
 10
123.42695389096
 20
3041.133628400001
 40
7.440000000001
100
AcDbArc
 50
122.681915000002
 51
180.0
  0
ARC
  5
430
100
AcDbEntity
  8
7
  6
CONTINUOUS
 62
           7
100
AcDbCircle
 10
148.866953890958
 20
3067.16
 40
3.84
100
AcDbArc
 50
90.0
 51
180.0
  0
ARC
  5
42F
100
AcDbEntity
  8
7
  6
CONTINUOUS
 62
           7
100
AcDbCircle
 10
142.626953890959
 20
3067.4493608
 40
2.4
100
AcDbArc
 50
-54.999999999974
 51
0.0
  0
ARC
  5
42E
100
AcDbEntity
  8
7
  6
CONTINUOUS
 62
           7
100
AcDbCircle
 10
322.906953890959
 20
3067.16
 40
3.84
100
AcDbArc
 50
0.0
 51
90.0
  0
ARC
  5
42D
100
AcDbEntity
  8
7
  6
CONTINUOUS
 62
           7
100
AcDbCircle
 10
329.146953890959
 20
3067.4493608
 40
2.4
100
AcDbArc
 50
180.0
 51
-124.999999999991
  0
ARC
  5
42C
100
AcDbEntity
  8
7
  6
CONTINUOUS
 62
           7
100
AcDbCircle
 10
353.89477829096
 20
3047.600000000001
 40
2.399999999998
100
AcDbArc
 50
-125.000000000003
 51
-90.0
  0
ARC
  5
42B
100
AcDbEntity
  8
7
  6
CONTINUOUS
 62
           7
100
AcDbCircle
 10
354.946953890958
 20
3041.360000000002
 40
3.840000000002
100
AcDbArc
 50
0.0
 51
90.0
  0
ARC
  5
42A
100
AcDbEntity
  8
7
  6
CONTINUOUS
 62
           7
100
AcDbCircle
 10
5257.560000000001
 20
3041.360000000002
 40
3.840000000004
100
AcDbArc
 50
0.0
 51
90.0
  0
ARC
  5
429
100
AcDbEntity
  8
7
  6
CONTINUOUS
 62
           7
100
AcDbCircle
 10
5256.507824400003
 20
3047.6
 40
2.399999999999
100
AcDbArc
 50
-125.000000000039
 51
-90.0
  0
ARC
  5
428
100
AcDbEntity
  8
7
  6
CONTINUOUS
 62
           7
100
AcDbCircle
 10
5231.760000000002
 20
3067.449360799999
 40
2.400000000001
100
AcDbArc
 50
180.0
 51
-125.000000000039
  0
ARC
  5
427
100
AcDbEntity
  8
7
  6
CONTINUOUS
 62
           7
100
AcDbCircle
 10
5225.520000000004
 20
3067.16
 40
3.839999999997
100
AcDbArc
 50
0.0
 51
90.0
  0
ARC
  5
426
100
AcDbEntity
  8
7
  6
CONTINUOUS
 62
           7
100
AcDbCircle
 10
5045.240000000002
 20
3067.449360799999
 40
2.399999999999
100
AcDbArc
 50
-54.999999999961
 51
0.0
  0
ARC
  5
425
100
AcDbEntity
  8
7
  6
CONTINUOUS
 62
           7
100
AcDbCircle
 10
5051.480000000003
 20
3067.16
 40
3.84
100
AcDbArc
 50
90.0
 51
180.0
  0
ARC
  5
424
100
AcDbEntity
  8
7
  6
CONTINUOUS
 62
           7
100
AcDbCircle
 10
5026.040000000001
 20
3041.133628400001
 40
7.439999999998
100
AcDbArc
 50
122.681914999973
 51
180.0
  0
ARC
  5
423
100
AcDbEntity
  8
1
  6
CONTINUOUS
 62
           3
100
AcDbCircle
 10
-251.103287787162
 20
1267.114622327059
 40
0.500000000002
100
AcDbArc
 50
-83.827497998178
 51
-5.00679300022
  0
ARC
  5
422
100
AcDbEntity
  8
1
  6
CONTINUOUS
 62
           3
100
AcDbCircle
 10
-257.178293787161
 20
1267.114622327059
 40
0.499999999996
100
AcDbArc
 50
-174.993206999699
 51
-96.172501999302
  0
ARC
  5
421
100
AcDbEntity
  8
1
  6
CONTINUOUS
 62
           3
100
AcDbCircle
 10
-251.103287787162
 20
1323.287074327051
 40
0.500000000005
100
AcDbArc
 50
5.006793001258
 51
83.827497998167
  0
ARC
  5
420
100
AcDbEntity
  8
1
  6
CONTINUOUS
 62
           3
100
AcDbCircle
 10
-257.178293787161
 20
1323.287074327051
 40
0.499999999999
100
AcDbArc
 50
96.172501999313
 51
174.993206998661
  0
ARC
  5
41F
100
AcDbEntity
  8
1
  6
CONTINUOUS
 62
           3
100
AcDbCircle
 10
-258.179093787155
 20
1295.20084832705
 40
9.999999999999
100
AcDbArc
 50
-5.006792999977
 51
5.006793000024
  0
ARC
  5
41E
100
AcDbEntity
  8
1
  6
CONTINUOUS
 62
           3
100
AcDbCircle
 10
-250.102488787161
 20
1295.20084832705
 40
10.0
100
AcDbArc
 50
174.993206999976
 51
-174.993207000022
  0
ARC
  5
41D
100
AcDbEntity
  8
1
  6
CONTINUOUS
 62
           3
100
AcDbCircle
 10
-254.140790787161
 20
1295.20084832705
 40
10.74999999999
100
AcDbArc
 50
118.773506999971
 51
-118.773506999951
  0
ARC
  5
41C
100
AcDbEntity
  8
1
  6
CONTINUOUS
 62
           3
100
AcDbCircle
 10
-254.140790787161
 20
1295.20084832705
 40
10.75
100
AcDbArc
 50
-61.226493000021
 51
0.0
  0
ARC
  5
41B
100
AcDbEntity
  8
1
  6
CONTINUOUS
 62
           3
100
AcDbCircle
 10
-254.140790787161
 20
1295.20084832705
 40
10.75
100
AcDbArc
 50
0.0
 51
61.226493000001
  0
ARC
  5
41A
100
AcDbEntity
  8
1
  6
CONTINUOUS
 62
           3
100
AcDbCircle
 10
-254.140790787161
 20
1295.20084832705
 40
28.749999999988
100
AcDbArc
 50
-96.172501999994
 51
-83.827497999994
  0
ARC
  5
419
100
AcDbEntity
  8
1
  6
CONTINUOUS
 62
           3
100
AcDbCircle
 10
-254.140790787161
 20
1295.20084832705
 40
28.75000000001
100
AcDbArc
 50
83.827497999999
 51
96.172501999989
  0
LINE
  5
418
100
AcDbEntity
  8
1
  6
CONTINUOUS
 62
           3
100
AcDbLine
 10
5060.163567691041
 20
1935.969655114602
 11
5054.489527668222
 21
1932.69374658004
  0
LINE
  5
417
100
AcDbEntity
  8
1
  6
CONTINUOUS
 62
           3
100
AcDbLine
 10
5069.663567691041
 20
1930.484827557302
 11
5060.163567691041
 21
1935.969655114602
  0
LINE
  5
416
100
AcDbEntity
  8
1
  6
CONTINUOUS
 62
           3
100
AcDbLine
 10
5069.663567691041
 20
1919.515172442699
 11
5069.663567691041
 21
1930.484827557302
  0
LINE
  5
415
100
AcDbEntity
  8
1
  6
CONTINUOUS
 62
           3
100
AcDbLine
 10
5060.163567691041
 20
1914.030344885398
 11
5069.663567691041
 21
1919.515172442699
  0
LINE
  5
414
100
AcDbEntity
  8
1
  6
CONTINUOUS
 62
           3
100
AcDbLine
 10
5054.489527668229
 20
1917.306253419961
 11
5060.163567691041
 21
1914.030344885398
  0
LINE
  5
413
100
AcDbEntity
  8
1
  6
DOT_CENTER
 62
           3
100
AcDbLine
 10
5036.218519558621
 20
1925.0
 11
5077.66769526244
 21
1925.0
  0
LINE
  5
412
100
AcDbEntity
  8
1
  6
CONTINUOUS
 62
           3
100
AcDbLine
 10
5049.389214871942
 20
1916.75
 11
5049.389214871942
 21
1917.306253419961
  0
LINE
  5
411
100
AcDbEntity
  8
1
  6
CONTINUOUS
 62
           3
100
AcDbLine
 10
5049.389214871942
 20
1916.75
 11
5039.714603906643
 21
1916.75
  0
LINE
  5
410
100
AcDbEntity
  8
1
  6
CONTINUOUS
 62
           3
100
AcDbLine
 10
5039.714603906643
 20
1916.75
 11
5039.714603906643
 21
1925.0
  0
LINE
  5
40F
100
AcDbEntity
  8
1
  6
CONTINUOUS
 62
           3
100
AcDbLine
 10
5039.714603906643
 20
1919.0
 11
5038.868798384461
 21
1919.0
  0
LINE
  5
40E
100
AcDbEntity
  8
1
  6
CONTINUOUS
 62
           3
100
AcDbLine
 10
5038.868798384461
 20
1917.306253419961
 11
5038.868798384461
 21
1925.0
  0
LINE
  5
40D
100
AcDbEntity
  8
1
  6
CONTINUOUS
 62
           3
100
AcDbLine
 10
5038.868798384461
 20
1917.306253419961
 11
5038.163567691041
 21
1917.306253419961
  0
LINE
  5
40C
100
AcDbEntity
  8
1
  6
CONTINUOUS
 62
           3
100
AcDbLine
 10
5037.663567691041
 20
1925.0
 11
5037.663567691041
 21
1917.806253419961
  0
LINE
  5
40B
100
AcDbEntity
  8
1
  6
CONTINUOUS
 62
           3
100
AcDbLine
 10
5037.663567691041
 20
1932.19374658004
 11
5037.663567691041
 21
1925.0
  0
LINE
  5
40A
100
AcDbEntity
  8
1
  6
CONTINUOUS
 62
           3
100
AcDbLine
 10
5038.163567691041
 20
1932.69374658004
 11
5038.868798384461
 21
1932.69374658004
  0
LINE
  5
409
100
AcDbEntity
  8
1
  6
CONTINUOUS
 62
           3
100
AcDbLine
 10
5038.868798384461
 20
1925.0
 11
5038.868798384461
 21
1932.69374658004
  0
LINE
  5
408
100
AcDbEntity
  8
1
  6
CONTINUOUS
 62
           3
100
AcDbLine
 10
5038.868798384461
 20
1931.0
 11
5039.714603906643
 21
1931.0
  0
LINE
  5
407
100
AcDbEntity
  8
1
  6
CONTINUOUS
 62
           3
100
AcDbLine
 10
5039.714603906643
 20
1933.25
 11
5049.389214871942
 21
1933.25
  0
LINE
  5
406
100
AcDbEntity
  8
1
  6
CONTINUOUS
 62
           3
100
AcDbLine
 10
5039.714603906643
 20
1925.0
 11
5039.714603906643
 21
1933.25
  0
LINE
  5
405
100
AcDbEntity
  8
1
  6
CONTINUOUS
 62
           3
100
AcDbLine
 10
5049.389214871942
 20
1932.69374658004
 11
5049.389214871942
 21
1933.25
  0
LINE
  5
404
100
AcDbEntity
  8
1
  6
CONTINUOUS
 62
           3
100
AcDbLine
 10
5049.389214871942
 20
1917.306253419961
 11
5049.389214871942
 21
1932.69374658004
  0
LINE
  5
403
100
AcDbEntity
  8
1
  6
CONTINUOUS
 62
           3
100
AcDbLine
 10
5055.254330418633
 20
1917.306253419961
 11
5055.254330418633
 21
1932.69374658004
  0
LINE
  5
402
100
AcDbEntity
  8
1
  6
CONTINUOUS
 62
           3
100
AcDbLine
 10
5055.254330418633
 20
1917.306253419961
 11
5049.389214871942
 21
1917.306253419961
  0
LINE
  5
401
100
AcDbEntity
  8
1
  6
CONTINUOUS
 62
           3
100
AcDbLine
 10
5055.254330418633
 20
1932.69374658004
 11
5049.389214871942
 21
1932.69374658004
  0
LINE
  5
400
100
AcDbEntity
  8
1
  6
CONTINUOUS
 62
           3
100
AcDbLine
 10
5055.254330418633
 20
1930.871834995071
 11
5060.163567691041
 21
1930.871834995071
  0
LINE
  5
3FF
100
AcDbEntity
  8
1
  6
DOT_CENTER
 62
           3
100
AcDbLine
 10
5060.163567691041
 20
1938.643555804874
 11
5060.163567691041
 21
1907.508008255126
  0
LINE
  5
3FE
100
AcDbEntity
  8
1
  6
CONTINUOUS
 62
           3
100
AcDbLine
 10
5060.163567691041
 20
1919.128165004934
 11
5055.254330418633
 21
1919.128165004934
  0
LINE
  5
3FD
100
AcDbEntity
  8
0
  6
CONTINUOUS
 62
           3
100
AcDbLine
 10
4554.844723494172
 20
1393.116392195192
 11
4555.899996721675
 21
1393.131740391393
  0
LINE
  5
3FC
100
AcDbEntity
  8
0
  6
CONTINUOUS
 62
           3
100
AcDbLine
 10
4553.903805503274
 20
1393.072016537193
 11
4554.844723494172
 21
1393.116392195192
  0
LINE
  5
3FB
100
AcDbEntity
  8
0
  6
CONTINUOUS
 62
           3
100
AcDbLine
 10
4553.179205573573
 20
1393.003411590991
 11
4553.903805503274
 21
1393.072016537193
  0
LINE
  5
3FA
100
AcDbEntity
  8
0
  6
CONTINUOUS
 62
           3
100
AcDbLine
 10
4552.749445840376
 20
1392.918020486794
 11
4553.179205573573
 21
1393.003411590991
  0
LINE
  5
3F9
100
AcDbEntity
  8
0
  6
CONTINUOUS
 62
           3
100
AcDbLine
 10
4552.661097088372
 20
1392.825089394994
 11
4552.749445840376
 21
1392.918020486794
  0
LINE
  5
3F8
100
AcDbEntity
  8
0
  6
CONTINUOUS
 62
           3
100
AcDbLine
 10
4552.899996695576
 20
1392.739541828793
 11
4552.661097088372
 21
1392.825089394994
  0
LINE
  5
3F7
100
AcDbEntity
  8
0
  6
CONTINUOUS
 62
           3
100
AcDbLine
 10
4559.138896354963
 20
1392.825089394994
 11
4558.899996747763
 21
1392.739541828793
  0
LINE
  5
3F6
100
AcDbEntity
  8
0
  6
CONTINUOUS
 62
           3
100
AcDbLine
 10
4559.050547602961
 20
1392.918020486792
 11
4559.138896354963
 21
1392.825089394994
  0
LINE
  5
3F5
100
AcDbEntity
  8
0
  6
CONTINUOUS
 62
           3
100
AcDbLine
 10
4558.620787869762
 20
1393.003411590991
 11
4559.050547602961
 21
1392.918020486792
  0
LINE
  5
3F4
100
AcDbEntity
  8
0
  6
CONTINUOUS
 62
           3
100
AcDbLine
 10
4557.896187940061
 20
1393.072016537193
 11
4558.620787869762
 21
1393.003411590991
  0
LINE
  5
3F3
100
AcDbEntity
  8
0
  6
CONTINUOUS
 62
           3
100
AcDbLine
 10
4556.955269949174
 20
1393.116392195192
 11
4557.896187940061
 21
1393.072016537193
  0
LINE
  5
3F2
100
AcDbEntity
  8
0
  6
CONTINUOUS
 62
           3
100
AcDbLine
 10
4555.899996721675
 20
1393.131740391393
 11
4556.955269949174
 21
1393.116392195192
  0
LINE
  5
3F1
100
AcDbEntity
  8
FORMAT
  6
CONTINUOUS
 62
           3
100
AcDbLine
 10
4552.399996721573
 20
1392.596845102893
 11
4541.899996721584
 21
1392.596845102893
  0
LINE
  5
3F0
100
AcDbEntity
  8
FORMAT
  6
DOT_CENTER
 62
           3
100
AcDbLine
 10
4555.899996721675
 20
1249.759397252255
 11
4555.899996721675
 21
1725.394390768569
  0
LINE
  5
3EF
100
AcDbEntity
  8
FORMAT
  6
CONTINUOUS
 62
           3
100
AcDbLine
 10
4559.399996721764
 20
1392.596845102893
 11
4552.399996721573
 21
1392.596845102893
  0
LINE
  5
3EE
100
AcDbEntity
  8
FORMAT
  6
CONTINUOUS
 62
           3
100
AcDbLine
 10
4569.899996721755
 20
1392.596845102893
 11
4559.399996721764
 21
1392.596845102893
  0
LINE
  5
3ED
100
AcDbEntity
  8
FORMAT
  6
DOT_CENTER
 62
           3
100
AcDbLine
 10
4480.999996721634
 20
1375.000000000007
 11
4467.399996721744
 21
1375.000000000007
  0
LINE
  5
3EC
100
AcDbEntity
  8
FORMAT
  6
DOT_CENTER
 62
           3
100
AcDbLine
 10
4480.999996721634
 20
1625.0
 11
4467.399996721744
 21
1625.0
  0
LINE
  5
3EB
100
AcDbEntity
  8
0
  6
CONTINUOUS
 62
           3
100
AcDbLine
 10
4490.899999106019
 20
1364.999994635816
 11
4475.499999189235
 21
1364.999994635815
  0
LINE
  5
3EA
100
AcDbEntity
  8
0
  6
CONTINUOUS
 62
           3
100
AcDbLine
 10
4494.399995023124
 20
1590.000003576231
 11
4494.399995023124
 21
1509.999999776395
  0
LINE
  5
3E9
100
AcDbEntity
  8
0
  6
CONTINUOUS
 62
           3
100
AcDbLine
 10
4497.399997377515
 20
1590.000003576231
 11
4494.399995023124
 21
1590.000003576231
  0
LINE
  5
3E8
100
AcDbEntity
  8
0
  6
CONTINUOUS
 62
           3
100
AcDbLine
 10
4497.399997377515
 20
1550.000000744964
 11
4497.399997377515
 21
1590.000003576231
  0
LINE
  5
3E7
100
AcDbEntity
  8
0
  6
CONTINUOUS
 62
           3
100
AcDbLine
 10
4497.399997377515
 20
1529.999999329481
 11
4497.399997377515
 21
1532.000001519879
  0
LINE
  5
3E6
100
AcDbEntity
  8
0
  6
CONTINUOUS
 62
           3
100
AcDbLine
 10
4494.399995023124
 20
1509.999999776395
 11
4495.975189322322
 21
1509.999999776395
  0
LINE
  5
3E5
100
AcDbEntity
  8
0
  6
CONTINUOUS
 62
           3
100
AcDbLine
 10
4615.899995380621
 20
1368.000000715314
 11
4615.899995380621
 21
1367.300003767014
  0
LINE
  5
3E4
100
AcDbEntity
  8
0
  6
CONTINUOUS
 62
           3
100
AcDbLine
 10
4620.899994337314
 20
1364.999994635816
 11
4620.899994337314
 21
1368.000000715314
  0
LINE
  5
3E3
100
AcDbEntity
  8
0
  6
CONTINUOUS
 62
           3
100
AcDbLine
 10
4620.899994337314
 20
1635.000005364196
 11
4620.899994337314
 21
1631.999999284697
  0
LINE
  5
3E2
100
AcDbEntity
  8
0
  6
CONTINUOUS
 62
           3
100
AcDbLine
 10
4615.899995380621
 20
1631.999999284697
 11
4615.899995380621
 21
1632.699996232996
  0
LINE
  5
3E1
100
AcDbEntity
  8
0
  6
CONTINUOUS
 62
           3
100
AcDbLine
 10
4495.899998062714
 20
1631.999999284697
 11
4495.899998062714
 21
1632.699996232996
  0
LINE
  5
3E0
100
AcDbEntity
  8
0
  6
CONTINUOUS
 62
           3
100
AcDbLine
 10
4490.899999106019
 20
1635.000005364196
 11
4490.899999106019
 21
1631.999999284697
  0
LINE
  5
3DF
100
AcDbEntity
  8
0
  6
CONTINUOUS
 62
           3
100
AcDbLine
 10
4490.899999106019
 20
1635.000005364196
 11
4475.499999189235
 21
1635.000005364196
  0
LINE
  5
3DE
100
AcDbEntity
  8
0
  6
CONTINUOUS
 62
           3
100
AcDbLine
 10
4490.899999106019
 20
1364.999994635816
 11
4490.899999106019
 21
1368.000000715314
  0
LINE
  5
3DD
100
AcDbEntity
  8
0
  6
CONTINUOUS
 62
           3
100
AcDbLine
 10
4495.899998062714
 20
1368.000000715314
 11
4495.899998062714
 21
1367.300003767014
  0
LINE
  5
3DC
100
AcDbEntity
  8
0
  6
CONTINUOUS
 62
           3
100
AcDbLine
 10
4494.399995023124
 20
1409.99999642378
 11
4494.399995023124
 21
1490.000000223612
  0
LINE
  5
3DB
100
AcDbEntity
  8
0
  6
CONTINUOUS
 62
           3
100
AcDbLine
 10
4494.399995023124
 20
1490.000000223612
 11
4495.899998062714
 21
1490.000000223612
  0
LINE
  5
3DA
100
AcDbEntity
  8
0
  6
CONTINUOUS
 62
           3
100
AcDbLine
 10
4497.399997377515
 20
1431.999996304559
 11
4497.399997377515
 21
1429.999999701962
  0
LINE
  5
3D9
100
AcDbEntity
  8
0
  6
CONTINUOUS
 62
           3
100
AcDbLine
 10
4495.975189322322
 20
1409.99999642378
 11
4494.399995023124
 21
1409.99999642378
  0
LINE
  5
3D8
100
AcDbEntity
  8
0
  6
CONTINUOUS
 62
           3
100
AcDbLine
 10
4617.399998420225
 20
1590.000003576231
 11
4617.399998420225
 21
1509.999999776395
  0
LINE
  5
3D7
100
AcDbEntity
  8
0
  6
CONTINUOUS
 62
           3
100
AcDbLine
 10
4617.399998420225
 20
1509.999999776395
 11
4615.824804121022
 21
1509.999999776395
  0
LINE
  5
3D6
100
AcDbEntity
  8
0
  6
CONTINUOUS
 62
           3
100
AcDbLine
 10
4614.399996066124
 20
1550.000000744964
 11
4614.399996066124
 21
1590.000003576231
  0
LINE
  5
3D5
100
AcDbEntity
  8
0
  6
CONTINUOUS
 62
           3
100
AcDbLine
 10
4614.399996066124
 20
1529.999999329481
 11
4614.399996066124
 21
1532.000001519879
  0
LINE
  5
3D4
100
AcDbEntity
  8
0
  6
CONTINUOUS
 62
           3
100
AcDbLine
 10
4614.399996066124
 20
1590.000003576231
 11
4617.399998420225
 21
1590.000003576231
  0
LINE
  5
3D3
100
AcDbEntity
  8
0
  6
CONTINUOUS
 62
           3
100
AcDbLine
 10
4617.399998420225
 20
1409.99999642378
 11
4617.399998420225
 21
1490.000000223612
  0
LINE
  5
3D2
100
AcDbEntity
  8
0
  6
CONTINUOUS
 62
           3
100
AcDbLine
 10
4615.824804121022
 20
1409.99999642378
 11
4617.399998420225
 21
1409.99999642378
  0
LINE
  5
3D1
100
AcDbEntity
  8
0
  6
CONTINUOUS
 62
           3
100
AcDbLine
 10
4614.399996066124
 20
1431.999996304559
 11
4614.399996066124
 21
1429.999999701962
  0
LINE
  5
3D0
100
AcDbEntity
  8
0
  6
CONTINUOUS
 62
           3
100
AcDbLine
 10
4617.399998420225
 20
1490.000000223612
 11
4615.899995380621
 21
1490.000000223612
  0
LINE
  5
3CF
100
AcDbEntity
  8
0
  6
CONTINUOUS
 62
           3
100
AcDbLine
 10
4475.499999189235
 20
1635.000005364196
 11
4473.399993443332
 21
1635.000005364196
  0
LINE
  5
3CE
100
AcDbEntity
  8
0
  6
CONTINUOUS
 62
           3
100
AcDbLine
 10
4473.399993443332
 20
1635.000005364196
 11
4473.399993443332
 21
1364.999994635815
  0
LINE
  5
3CD
100
AcDbEntity
  8
0
  6
CONTINUOUS
 62
           3
100
AcDbLine
 10
4475.499999189235
 20
1364.999994635815
 11
4473.399993443332
 21
1364.999994635815
  0
LINE
  5
3CC
100
AcDbEntity
  8
0
  6
CONTINUOUS
 62
           3
100
AcDbLine
 10
4495.899998062714
 20
1366.600006818713
 11
4495.899998062714
 21
1367.300003767014
  0
LINE
  5
3CB
100
AcDbEntity
  8
0
  6
CONTINUOUS
 62
           3
100
AcDbLine
 10
4615.899995380621
 20
1366.600006818713
 11
4615.899995380621
 21
1367.300003767014
  0
LINE
  5
3CA
100
AcDbEntity
  8
0
  6
CONTINUOUS
 62
           3
100
AcDbLine
 10
4495.899998062714
 20
1633.399993180997
 11
4495.899998062714
 21
1632.699996232996
  0
LINE
  5
3C9
100
AcDbEntity
  8
0
  6
CONTINUOUS
 62
           3
100
AcDbLine
 10
4615.899995380621
 20
1633.399993180997
 11
4615.899995380621
 21
1632.699996232996
  0
LINE
  5
3C8
100
AcDbEntity
  8
0
  6
CONTINUOUS
 62
           3
100
AcDbLine
 10
4610.899996423622
 20
1633.399993180997
 11
4615.899995380621
 21
1633.399993180997
  0
LINE
  5
3C7
100
AcDbEntity
  8
0
  6
CONTINUOUS
 62
           3
100
AcDbLine
 10
4615.899995380621
 20
1635.000005364196
 11
4610.899996423622
 21
1635.000005364196
  0
LINE
  5
3C6
100
AcDbEntity
  8
0
  6
CONTINUOUS
 62
           3
100
AcDbLine
 10
4615.899995380621
 20
1633.399993180997
 11
4615.899995380621
 21
1635.000005364196
  0
LINE
  5
3C5
100
AcDbEntity
  8
0
  6
CONTINUOUS
 62
           3
100
AcDbLine
 10
4610.899996423622
 20
1366.600006818713
 11
4615.899995380621
 21
1366.600006818713
  0
LINE
  5
3C4
100
AcDbEntity
  8
0
  6
CONTINUOUS
 62
           3
100
AcDbLine
 10
4615.899995380621
 20
1364.999994635816
 11
4610.899996423622
 21
1364.999994635816
  0
LINE
  5
3C3
100
AcDbEntity
  8
0
  6
CONTINUOUS
 62
           3
100
AcDbLine
 10
4615.899995380621
 20
1366.600006818713
 11
4615.899995380621
 21
1364.999994635816
  0
LINE
  5
3C2
100
AcDbEntity
  8
0
  6
CONTINUOUS
 62
           3
100
AcDbLine
 10
4600.899998509632
 20
1366.600006818713
 11
4602.899995112233
 21
1366.600006818713
  0
LINE
  5
3C1
100
AcDbEntity
  8
0
  6
CONTINUOUS
 62
           3
100
AcDbLine
 10
4602.899995112233
 20
1364.999994635816
 11
4600.899998509632
 21
1364.999994635816
  0
LINE
  5
3C0
100
AcDbEntity
  8
0
  6
CONTINUOUS
 62
           3
100
AcDbLine
 10
4602.899995112233
 20
1366.600006818713
 11
4602.899995112233
 21
1364.999994635816
  0
LINE
  5
3BF
100
AcDbEntity
  8
0
  6
CONTINUOUS
 62
           3
100
AcDbLine
 10
4600.899998509632
 20
1633.399993180997
 11
4602.899995112233
 21
1633.399993180997
  0
LINE
  5
3BE
100
AcDbEntity
  8
0
  6
CONTINUOUS
 62
           3
100
AcDbLine
 10
4602.899995112233
 20
1635.000005364196
 11
4600.899998509632
 21
1635.000005364196
  0
LINE
  5
3BD
100
AcDbEntity
  8
0
  6
CONTINUOUS
 62
           3
100
AcDbLine
 10
4602.899995112233
 20
1633.399993180997
 11
4602.899995112233
 21
1635.000005364196
  0
LINE
  5
3BC
100
AcDbEntity
  8
0
  6
CONTINUOUS
 62
           3
100
AcDbLine
 10
4608.899996095919
 20
1366.600006818713
 11
4610.899996423622
 21
1366.600006818713
  0
LINE
  5
3BB
100
AcDbEntity
  8
0
  6
CONTINUOUS
 62
           3
100
AcDbLine
 10
4610.899996423622
 20
1364.999994635816
 11
4608.899996095919
 21
1364.999994635816
  0
LINE
  5
3BA
100
AcDbEntity
  8
0
  6
CONTINUOUS
 62
           3
100
AcDbLine
 10
4608.899996095919
 20
1364.999994635816
 11
4608.899996095919
 21
1366.600006818713
  0
LINE
  5
3B9
100
AcDbEntity
  8
0
  6
CONTINUOUS
 62
           3
100
AcDbLine
 10
4608.899996095919
 20
1633.399993180997
 11
4610.899996423622
 21
1633.399993180997
  0
LINE
  5
3B8
100
AcDbEntity
  8
0
  6
CONTINUOUS
 62
           3
100
AcDbLine
 10
4610.899996423622
 20
1635.000005364196
 11
4608.899996095919
 21
1635.000005364196
  0
LINE
  5
3B7
100
AcDbEntity
  8
0
  6
CONTINUOUS
 62
           3
100
AcDbLine
 10
4608.899996095919
 20
1635.000005364196
 11
4608.899996095919
 21
1633.399993180997
  0
LINE
  5
3B6
100
AcDbEntity
  8
0
  6
CONTINUOUS
 62
           3
100
AcDbLine
 10
4500.899997019711
 20
1633.399993180997
 11
4495.899998062714
 21
1633.399993180997
  0
LINE
  5
3B5
100
AcDbEntity
  8
0
  6
CONTINUOUS
 62
           3
100
AcDbLine
 10
4495.899998062714
 20
1635.000005364196
 11
4500.899997019711
 21
1635.000005364196
  0
LINE
  5
3B4
100
AcDbEntity
  8
0
  6
CONTINUOUS
 62
           3
100
AcDbLine
 10
4495.899998062714
 20
1633.399993180997
 11
4495.899998062714
 21
1635.000005364196
  0
LINE
  5
3B3
100
AcDbEntity
  8
0
  6
CONTINUOUS
 62
           3
100
AcDbLine
 10
4500.899997019711
 20
1366.600006818713
 11
4495.899998062714
 21
1366.600006818713
  0
LINE
  5
3B2
100
AcDbEntity
  8
0
  6
CONTINUOUS
 62
           3
100
AcDbLine
 10
4495.899998062714
 20
1364.999994635816
 11
4500.899997019711
 21
1364.999994635816
  0
LINE
  5
3B1
100
AcDbEntity
  8
0
  6
CONTINUOUS
 62
           3
100
AcDbLine
 10
4495.899998062714
 20
1366.600006818713
 11
4495.899998062714
 21
1364.999994635816
  0
LINE
  5
3B0
100
AcDbEntity
  8
0
  6
CONTINUOUS
 62
           3
100
AcDbLine
 10
4510.899994933703
 20
1633.399993180997
 11
4600.899998509632
 21
1633.399993180997
  0
LINE
  5
3AF
100
AcDbEntity
  8
0
  6
CONTINUOUS
 62
           3
100
AcDbLine
 10
4510.899994933703
 20
1635.000005364196
 11
4600.899998509632
 21
1635.000005364196
  0
LINE
  5
3AE
100
AcDbEntity
  8
0
  6
CONTINUOUS
 62
           3
100
AcDbLine
 10
4510.899994933703
 20
1366.600006818713
 11
4600.899998509632
 21
1366.600006818713
  0
LINE
  5
3AD
100
AcDbEntity
  8
0
  6
CONTINUOUS
 62
           3
100
AcDbLine
 10
4510.899994933703
 20
1364.999994635816
 11
4600.899998509632
 21
1364.999994635816
  0
LINE
  5
3AC
100
AcDbEntity
  8
0
  6
CONTINUOUS
 62
           3
100
AcDbLine
 10
4510.899994933703
 20
1366.600006818713
 11
4508.899998331102
 21
1366.600006818713
  0
LINE
  5
3AB
100
AcDbEntity
  8
0
  6
CONTINUOUS
 62
           3
100
AcDbLine
 10
4508.899998331102
 20
1366.600006818713
 11
4508.899998331102
 21
1364.999994635816
  0
LINE
  5
3AA
100
AcDbEntity
  8
0
  6
CONTINUOUS
 62
           3
100
AcDbLine
 10
4508.899998331102
 20
1364.999994635816
 11
4510.899994933703
 21
1364.999994635816
  0
LINE
  5
3A9
100
AcDbEntity
  8
0
  6
CONTINUOUS
 62
           3
100
AcDbLine
 10
4510.899994933703
 20
1633.399993180997
 11
4508.899998331102
 21
1633.399993180997
  0
LINE
  5
3A8
100
AcDbEntity
  8
0
  6
CONTINUOUS
 62
           3
100
AcDbLine
 10
4508.899998331102
 20
1635.000005364196
 11
4510.899994933703
 21
1635.000005364196
  0
LINE
  5
3A7
100
AcDbEntity
  8
0
  6
CONTINUOUS
 62
           3
100
AcDbLine
 10
4508.899998331102
 20
1633.399993180997
 11
4508.899998331102
 21
1635.000005364196
  0
LINE
  5
3A6
100
AcDbEntity
  8
0
  6
CONTINUOUS
 62
           3
100
AcDbLine
 10
4502.899997347713
 20
1633.399993180997
 11
4500.899997019711
 21
1633.399993180997
  0
LINE
  5
3A5
100
AcDbEntity
  8
0
  6
CONTINUOUS
 62
           3
100
AcDbLine
 10
4502.899997347713
 20
1635.000005364196
 11
4502.899997347713
 21
1633.399993180997
  0
LINE
  5
3A4
100
AcDbEntity
  8
0
  6
CONTINUOUS
 62
           3
100
AcDbLine
 10
4500.899997019711
 20
1635.000005364196
 11
4502.899997347713
 21
1635.000005364196
  0
LINE
  5
3A3
100
AcDbEntity
  8
0
  6
CONTINUOUS
 62
           3
100
AcDbLine
 10
4502.899997347713
 20
1366.600006818713
 11
4500.899997019711
 21
1366.600006818713
  0
LINE
  5
3A2
100
AcDbEntity
  8
0
  6
CONTINUOUS
 62
           3
100
AcDbLine
 10
4500.899997019711
 20
1364.999994635816
 11
4502.899997347713
 21
1364.999994635816
  0
LINE
  5
3A1
100
AcDbEntity
  8
0
  6
CONTINUOUS
 62
           3
100
AcDbLine
 10
4502.899997347713
 20
1364.999994635816
 11
4502.899997347713
 21
1366.600006818713
  0
LINE
  5
3A0
100
AcDbEntity
  8
0
  6
CONTINUOUS
 62
           3
100
AcDbLine
 10
4615.824804121022
 20
1409.99999642378
 11
4614.199996405623
 21
1409.99999642378
  0
LINE
  5
39F
100
AcDbEntity
  8
0
  6
CONTINUOUS
 62
           3
100
AcDbLine
 10
4614.199996405623
 20
1429.999999701962
 11
4615.899995380621
 21
1429.999999701962
  0
LINE
  5
39E
100
AcDbEntity
  8
0
  6
CONTINUOUS
 62
           3
100
AcDbLine
 10
4615.899995380621
 20
1429.999999701962
 11
4615.899995380621
 21
1409.99999642378
  0
LINE
  5
39D
100
AcDbEntity
  8
0
  6
CONTINUOUS
 62
           3
100
AcDbLine
 10
4495.899998062714
 20
1529.999999329481
 11
4497.599997037714
 21
1529.999999329481
  0
LINE
  5
39C
100
AcDbEntity
  8
0
  6
CONTINUOUS
 62
           3
100
AcDbLine
 10
4495.899998062714
 20
1509.999999776395
 11
4495.899998062714
 21
1529.999999329481
  0
LINE
  5
39B
100
AcDbEntity
  8
0
  6
CONTINUOUS
 62
           3
100
AcDbLine
 10
4497.599997037714
 20
1509.999999776395
 11
4495.975189322322
 21
1509.999999776395
  0
LINE
  5
39A
100
AcDbEntity
  8
0
  6
CONTINUOUS
 62
           3
100
AcDbLine
 10
4495.975189322322
 20
1409.99999642378
 11
4497.599997037714
 21
1409.99999642378
  0
LINE
  5
399
100
AcDbEntity
  8
0
  6
CONTINUOUS
 62
           3
100
AcDbLine
 10
4497.599997037714
 20
1429.999999701962
 11
4495.899998062714
 21
1429.999999701962
  0
LINE
  5
398
100
AcDbEntity
  8
0
  6
CONTINUOUS
 62
           3
100
AcDbLine
 10
4495.899998062714
 20
1429.999999701962
 11
4495.899998062714
 21
1409.99999642378
  0
LINE
  5
397
100
AcDbEntity
  8
0
  6
CONTINUOUS
 62
           3
100
AcDbLine
 10
4497.599997037714
 20
1529.999999329481
 11
4497.899998390714
 21
1529.999999329481
  0
LINE
  5
396
100
AcDbEntity
  8
0
  6
CONTINUOUS
 62
           3
100
AcDbLine
 10
4497.899998390714
 20
1509.999999776395
 11
4497.599997037714
 21
1509.999999776395
  0
LINE
  5
395
100
AcDbEntity
  8
0
  6
CONTINUOUS
 62
           3
100
AcDbLine
 10
4495.899998062714
 20
1508.000000379899
 11
4497.899998390714
 21
1508.000000379899
  0
LINE
  5
394
100
AcDbEntity
  8
0
  6
CONTINUOUS
 62
           3
100
AcDbLine
 10
4495.899998062714
 20
1508.000000379899
 11
4495.899998062714
 21
1431.999996304559
  0
LINE
  5
393
100
AcDbEntity
  8
0
  6
CONTINUOUS
 62
           3
100
AcDbLine
 10
4495.899998062714
 20
1431.999996304559
 11
4497.899998390714
 21
1431.999996304559
  0
LINE
  5
392
100
AcDbEntity
  8
0
  6
CONTINUOUS
 62
           3
100
AcDbLine
 10
4497.899998390714
 20
1429.999999701962
 11
4497.599997037714
 21
1429.999999701962
  0
LINE
  5
391
100
AcDbEntity
  8
0
  6
CONTINUOUS
 62
           3
100
AcDbLine
 10
4497.599997037714
 20
1409.99999642378
 11
4497.899998390714
 21
1409.99999642378
  0
LINE
  5
390
100
AcDbEntity
  8
0
  6
CONTINUOUS
 62
           3
100
AcDbLine
 10
4497.899998390714
 20
1407.999999821183
 11
4495.899998062714
 21
1407.999999821183
  0
LINE
  5
38F
100
AcDbEntity
  8
0
  6
CONTINUOUS
 62
           3
100
AcDbLine
 10
4495.899998062714
 20
1391.699999570792
 11
4495.899998062714
 21
1407.999999821183
  0
LINE
  5
38E
100
AcDbEntity
  8
0
  6
CONTINUOUS
 62
           3
100
AcDbLine
 10
4615.899995380621
 20
1391.699999570792
 11
4615.899995380621
 21
1407.999999821183
  0
LINE
  5
38D
100
AcDbEntity
  8
0
  6
CONTINUOUS
 62
           3
100
AcDbLine
 10
4613.899995052621
 20
1407.999999821183
 11
4615.899995380621
 21
1407.999999821183
  0
LINE
  5
38C
100
AcDbEntity
  8
0
  6
CONTINUOUS
 62
           3
100
AcDbLine
 10
4614.199996405623
 20
1409.99999642378
 11
4613.899995052621
 21
1409.99999642378
  0
LINE
  5
38B
100
AcDbEntity
  8
0
  6
CONTINUOUS
 62
           3
100
AcDbLine
 10
4613.899995052621
 20
1429.999999701962
 11
4614.199996405623
 21
1429.999999701962
  0
LINE
  5
38A
100
AcDbEntity
  8
0
  6
CONTINUOUS
 62
           3
100
AcDbLine
 10
4615.899995380621
 20
1431.999996304559
 11
4613.899995052621
 21
1431.999996304559
  0
LINE
  5
389
100
AcDbEntity
  8
0
  6
CONTINUOUS
 62
           3
100
AcDbLine
 10
4615.899995380621
 20
1508.000000379899
 11
4615.899995380621
 21
1431.999996304559
  0
LINE
  5
388
100
AcDbEntity
  8
0
  6
CONTINUOUS
 62
           3
100
AcDbLine
 10
4615.899995380621
 20
1508.000000379899
 11
4613.899995052621
 21
1508.000000379899
  0
LINE
  5
387
100
AcDbEntity
  8
0
  6
CONTINUOUS
 62
           3
100
AcDbLine
 10
4613.899995052621
 20
1509.999999776395
 11
4614.199996405623
 21
1509.999999776395
  0
LINE
  5
386
100
AcDbEntity
  8
0
  6
CONTINUOUS
 62
           3
100
AcDbLine
 10
4614.199996405623
 20
1529.999999329481
 11
4613.899995052621
 21
1529.999999329481
  0
LINE
  5
385
100
AcDbEntity
  8
0
  6
CONTINUOUS
 62
           3
100
AcDbLine
 10
4613.899995052621
 20
1532.000001519879
 11
4615.899995380621
 21
1532.000001519879
  0
LINE
  5
384
100
AcDbEntity
  8
0
  6
CONTINUOUS
 62
           3
100
AcDbLine
 10
4615.899995380621
 20
1548.300001770265
 11
4615.899995380621
 21
1532.000001519879
  0
LINE
  5
383
100
AcDbEntity
  8
0
  6
CONTINUOUS
 62
           3
100
AcDbLine
 10
4495.899998062714
 20
1548.300001770265
 11
4495.899998062714
 21
1532.000001519879
  0
LINE
  5
382
100
AcDbEntity
  8
0
  6
CONTINUOUS
 62
           3
100
AcDbLine
 10
4497.899998390714
 20
1532.000001519879
 11
4495.899998062714
 21
1532.000001519879
  0
LINE
  5
381
100
AcDbEntity
  8
0
  6
CONTINUOUS
 62
           3
100
AcDbLine
 10
4614.199996405623
 20
1509.999999776395
 11
4615.824804121022
 21
1509.999999776395
  0
LINE
  5
380
100
AcDbEntity
  8
0
  6
CONTINUOUS
 62
           3
100
AcDbLine
 10
4615.899995380621
 20
1509.999999776395
 11
4615.899995380621
 21
1529.999999329481
  0
LINE
  5
37F
100
AcDbEntity
  8
0
  6
CONTINUOUS
 62
           3
100
AcDbLine
 10
4615.899995380621
 20
1529.999999329481
 11
4614.199996405623
 21
1529.999999329481
  0
LINE
  5
37E
100
AcDbEntity
  8
0
  6
CONTINUOUS
 62
           3
100
AcDbLine
 10
4615.899995380621
 20
1548.799999058067
 11
4615.899995380621
 21
1548.300001770265
  0
LINE
  5
37D
100
AcDbEntity
  8
0
  6
CONTINUOUS
 62
           3
100
AcDbLine
 10
4495.899998062714
 20
1548.799999058067
 11
4495.899998062714
 21
1548.300001770265
  0
LINE
  5
37C
100
AcDbEntity
  8
0
  6
CONTINUOUS
 62
           3
100
AcDbLine
 10
4495.899998062714
 20
1391.199998557593
 11
4495.899998062714
 21
1391.699999570792
  0
LINE
  5
37B
100
AcDbEntity
  8
0
  6
CONTINUOUS
 62
           3
100
AcDbLine
 10
4615.899995380621
 20
1391.199998557593
 11
4615.899995380621
 21
1391.699999570792
  0
LINE
  5
37A
100
AcDbEntity
  8
0
  6
CONTINUOUS
 62
           3
100
AcDbLine
 10
4558.899996747763
 20
1550.000000744964
 11
4559.149996788763
 21
1550.000000744964
  0
LINE
  5
379
100
AcDbEntity
  8
0
  6
CONTINUOUS
 62
           3
100
AcDbLine
 10
4552.649996654576
 20
1550.000000744964
 11
4552.899996695576
 21
1550.000000744964
  0
LINE
  5
378
100
AcDbEntity
  8
0
  6
CONTINUOUS
 62
           3
100
AcDbLine
 10
4558.899996747763
 20
1548.799999058067
 11
4559.149996788763
 21
1548.799999058065
  0
LINE
  5
377
100
AcDbEntity
  8
0
  6
CONTINUOUS
 62
           3
100
AcDbLine
 10
4552.649996654576
 20
1548.799999058067
 11
4552.899996695576
 21
1548.799999058067
  0
LINE
  5
376
100
AcDbEntity
  8
0
  6
CONTINUOUS
 62
           3
100
AcDbLine
 10
4552.899996695576
 20
1391.199998557593
 11
4552.649996654576
 21
1391.199998557593
  0
LINE
  5
375
100
AcDbEntity
  8
0
  6
CONTINUOUS
 62
           3
100
AcDbLine
 10
4559.149996788763
 20
1391.199998557593
 11
4558.899996747763
 21
1391.199998557593
  0
LINE
  5
374
100
AcDbEntity
  8
0
  6
CONTINUOUS
 62
           3
100
AcDbLine
 10
4500.899997019711
 20
1391.199998557593
 11
4495.899998062714
 21
1391.199998557593
  0
LINE
  5
373
100
AcDbEntity
  8
0
  6
CONTINUOUS
 62
           3
100
AcDbLine
 10
4495.899998062714
 20
1390.000000596097
 11
4500.899997019711
 21
1390.000000596097
  0
LINE
  5
372
100
AcDbEntity
  8
0
  6
CONTINUOUS
 62
           3
100
AcDbLine
 10
4495.899998062714
 20
1391.199998557593
 11
4495.899998062714
 21
1390.000000596097
  0
LINE
  5
371
100
AcDbEntity
  8
0
  6
CONTINUOUS
 62
           3
100
AcDbLine
 10
4495.899998062714
 20
1550.000000744964
 11
4500.899997019711
 21
1550.000000744964
  0
LINE
  5
370
100
AcDbEntity
  8
0
  6
CONTINUOUS
 62
           3
100
AcDbLine
 10
4500.899997019711
 20
1548.799999058067
 11
4495.899998062714
 21
1548.799999058067
  0
LINE
  5
36F
100
AcDbEntity
  8
0
  6
CONTINUOUS
 62
           3
100
AcDbLine
 10
4495.899998062714
 20
1548.799999058067
 11
4495.899998062714
 21
1550.000000744964
  0
LINE
  5
36E
100
AcDbEntity
  8
0
  6
CONTINUOUS
 62
           3
100
AcDbLine
 10
4600.899998509632
 20
1550.000000744964
 11
4585.899996051144
 21
1550.000000744964
  0
LINE
  5
36D
100
AcDbEntity
  8
0
  6
CONTINUOUS
 62
           3
100
AcDbLine
 10
4600.899998509632
 20
1548.799999058067
 11
4585.899996051144
 21
1548.799999058065
  0
LINE
  5
36C
100
AcDbEntity
  8
0
  6
CONTINUOUS
 62
           3
100
AcDbLine
 10
4615.899995380621
 20
1550.000000744964
 11
4610.899996423622
 21
1550.000000744964
  0
LINE
  5
36B
100
AcDbEntity
  8
0
  6
CONTINUOUS
 62
           3
100
AcDbLine
 10
4610.899996423622
 20
1548.799999058067
 11
4615.899995380621
 21
1548.799999058067
  0
LINE
  5
36A
100
AcDbEntity
  8
0
  6
CONTINUOUS
 62
           3
100
AcDbLine
 10
4615.899995380621
 20
1548.799999058067
 11
4615.899995380621
 21
1550.000000744964
  0
LINE
  5
369
100
AcDbEntity
  8
0
  6
CONTINUOUS
 62
           3
100
AcDbLine
 10
4600.899998509632
 20
1391.199998557593
 11
4585.899996051144
 21
1391.199998557593
  0
LINE
  5
368
100
AcDbEntity
  8
0
  6
CONTINUOUS
 62
           3
100
AcDbLine
 10
4600.899998509632
 20
1390.000000596097
 11
4585.899996051144
 21
1390.000000596097
  0
LINE
  5
367
100
AcDbEntity
  8
0
  6
CONTINUOUS
 62
           3
100
AcDbLine
 10
4510.899994933703
 20
1550.000000744964
 11
4525.899997392189
 21
1550.000000744964
  0
LINE
  5
366
100
AcDbEntity
  8
0
  6
CONTINUOUS
 62
           3
100
AcDbLine
 10
4510.899994933703
 20
1548.799999058067
 11
4525.899997392189
 21
1548.799999058067
  0
LINE
  5
365
100
AcDbEntity
  8
0
  6
CONTINUOUS
 62
           3
100
AcDbLine
 10
4610.899996423622
 20
1391.199998557593
 11
4615.899995380621
 21
1391.199998557593
  0
LINE
  5
364
100
AcDbEntity
  8
0
  6
CONTINUOUS
 62
           3
100
AcDbLine
 10
4615.899995380621
 20
1390.000000596097
 11
4610.899996423622
 21
1390.000000596097
  0
LINE
  5
363
100
AcDbEntity
  8
0
  6
CONTINUOUS
 62
           3
100
AcDbLine
 10
4615.899995380621
 20
1391.199998557593
 11
4615.899995380621
 21
1390.000000596097
  0
LINE
  5
362
100
AcDbEntity
  8
0
  6
CONTINUOUS
 62
           3
100
AcDbLine
 10
4510.899994933703
 20
1391.199998557593
 11
4525.899997392189
 21
1391.199998557593
  0
LINE
  5
361
100
AcDbEntity
  8
0
  6
CONTINUOUS
 62
           3
100
AcDbLine
 10
4510.899994933703
 20
1390.000000596097
 11
4525.899997392189
 21
1390.000000596097
  0
LINE
  5
360
100
AcDbEntity
  8
0
  6
CONTINUOUS
 62
           3
100
AcDbLine
 10
4508.899998331102
 20
1550.000000744964
 11
4510.899994933703
 21
1550.000000744964
  0
LINE
  5
35F
100
AcDbEntity
  8
0
  6
CONTINUOUS
 62
           3
100
AcDbLine
 10
4510.899994933703
 20
1548.799999058067
 11
4508.899998331102
 21
1548.799999058067
  0
LINE
  5
35E
100
AcDbEntity
  8
0
  6
CONTINUOUS
 62
           3
100
AcDbLine
 10
4508.899998331102
 20
1548.799999058067
 11
4508.899998331102
 21
1550.000000744964
  0
LINE
  5
35D
100
AcDbEntity
  8
0
  6
CONTINUOUS
 62
           3
100
AcDbLine
 10
4500.899997019711
 20
1550.000000744964
 11
4502.899997347713
 21
1550.000000744964
  0
LINE
  5
35C
100
AcDbEntity
  8
0
  6
CONTINUOUS
 62
           3
100
AcDbLine
 10
4502.899997347713
 20
1548.799999058067
 11
4500.899997019711
 21
1548.799999058067
  0
LINE
  5
35B
100
AcDbEntity
  8
0
  6
CONTINUOUS
 62
           3
100
AcDbLine
 10
4502.899997347713
 20
1550.000000744964
 11
4502.899997347713
 21
1548.799999058067
  0
LINE
  5
35A
100
AcDbEntity
  8
0
  6
CONTINUOUS
 62
           3
100
AcDbLine
 10
4600.899998509632
 20
1391.199998557593
 11
4602.899995112233
 21
1391.199998557593
  0
LINE
  5
359
100
AcDbEntity
  8
0
  6
CONTINUOUS
 62
           3
100
AcDbLine
 10
4602.899995112233
 20
1390.000000596097
 11
4600.899998509632
 21
1390.000000596097
  0
LINE
  5
358
100
AcDbEntity
  8
0
  6
CONTINUOUS
 62
           3
100
AcDbLine
 10
4602.899995112233
 20
1391.199998557593
 11
4602.899995112233
 21
1390.000000596097
  0
LINE
  5
357
100
AcDbEntity
  8
0
  6
CONTINUOUS
 62
           3
100
AcDbLine
 10
4608.899996095919
 20
1391.199998557593
 11
4610.899996423622
 21
1391.199998557593
  0
LINE
  5
356
100
AcDbEntity
  8
0
  6
CONTINUOUS
 62
           3
100
AcDbLine
 10
4610.899996423622
 20
1390.000000596097
 11
4608.899996095919
 21
1390.000000596097
  0
LINE
  5
355
100
AcDbEntity
  8
0
  6
CONTINUOUS
 62
           3
100
AcDbLine
 10
4608.899996095919
 20
1390.000000596097
 11
4608.899996095919
 21
1391.199998557593
  0
LINE
  5
354
100
AcDbEntity
  8
0
  6
CONTINUOUS
 62
           3
100
AcDbLine
 10
4602.899995112233
 20
1550.000000744964
 11
4600.899998509632
 21
1550.000000744964
  0
LINE
  5
353
100
AcDbEntity
  8
0
  6
CONTINUOUS
 62
           3
100
AcDbLine
 10
4600.899998509632
 20
1548.799999058067
 11
4602.899995112233
 21
1548.799999058067
  0
LINE
  5
352
100
AcDbEntity
  8
0
  6
CONTINUOUS
 62
           3
100
AcDbLine
 10
4602.899995112233
 20
1548.799999058067
 11
4602.899995112233
 21
1550.000000744964
  0
LINE
  5
351
100
AcDbEntity
  8
0
  6
CONTINUOUS
 62
           3
100
AcDbLine
 10
4610.899996423622
 20
1550.000000744964
 11
4608.899996095919
 21
1550.000000744964
  0
LINE
  5
350
100
AcDbEntity
  8
0
  6
CONTINUOUS
 62
           3
100
AcDbLine
 10
4608.899996095919
 20
1548.799999058067
 11
4610.899996423622
 21
1548.799999058067
  0
LINE
  5
34F
100
AcDbEntity
  8
0
  6
CONTINUOUS
 62
           3
100
AcDbLine
 10
4608.899996095919
 20
1550.000000744964
 11
4608.899996095919
 21
1548.799999058067
  0
LINE
  5
34E
100
AcDbEntity
  8
0
  6
CONTINUOUS
 62
           3
100
AcDbLine
 10
4510.899994933703
 20
1391.199998557593
 11
4508.899998331102
 21
1391.199998557593
  0
LINE
  5
34D
100
AcDbEntity
  8
0
  6
CONTINUOUS
 62
           3
100
AcDbLine
 10
4508.899998331102
 20
1390.000000596097
 11
4510.899994933703
 21
1390.000000596097
  0
LINE
  5
34C
100
AcDbEntity
  8
0
  6
CONTINUOUS
 62
           3
100
AcDbLine
 10
4508.899998331102
 20
1391.199998557593
 11
4508.899998331102
 21
1390.000000596097
  0
LINE
  5
34B
100
AcDbEntity
  8
0
  6
CONTINUOUS
 62
           3
100
AcDbLine
 10
4502.899997347713
 20
1391.199998557593
 11
4500.899997019711
 21
1391.199998557593
  0
LINE
  5
34A
100
AcDbEntity
  8
0
  6
CONTINUOUS
 62
           3
100
AcDbLine
 10
4500.899997019711
 20
1390.000000596097
 11
4502.899997347713
 21
1390.000000596097
  0
LINE
  5
349
100
AcDbEntity
  8
0
  6
CONTINUOUS
 62
           3
100
AcDbLine
 10
4502.899997347713
 20
1390.000000596097
 11
4502.899997347713
 21
1391.199998557593
  0
LINE
  5
348
100
AcDbEntity
  8
0
  6
CONTINUOUS
 62
           3
100
AcDbLine
 10
4552.399996613576
 20
1391.199998557593
 11
4552.649996654576
 21
1391.199998557593
  0
LINE
  5
347
100
AcDbEntity
  8
0
  6
CONTINUOUS
 62
           3
100
AcDbLine
 10
4552.649996654576
 20
1391.199998557593
 11
4552.649996654576
 21
1390.000000596097
  0
LINE
  5
346
100
AcDbEntity
  8
0
  6
CONTINUOUS
 62
           3
100
AcDbLine
 10
4585.899996051144
 20
1391.199998557593
 11
4575.899996274751
 21
1391.199998557593
  0
LINE
  5
345
100
AcDbEntity
  8
0
  6
CONTINUOUS
 62
           3
100
AcDbLine
 10
4585.899996051144
 20
1390.000000596097
 11
4575.899996274751
 21
1390.000000596097
  0
LINE
  5
344
100
AcDbEntity
  8
0
  6
CONTINUOUS
 62
           3
100
AcDbLine
 10
4585.899996051144
 20
1391.199998557593
 11
4585.899996051144
 21
1390.000000596097
  0
LINE
  5
343
100
AcDbEntity
  8
0
  6
CONTINUOUS
 62
           3
100
AcDbLine
 10
4550.649996792473
 20
1550.000000744964
 11
4552.649996654576
 21
1550.000000744964
  0
LINE
  5
342
100
AcDbEntity
  8
0
  6
CONTINUOUS
 62
           3
100
AcDbLine
 10
4552.649996654576
 20
1548.799999058067
 11
4550.649996792473
 21
1548.799999058067
  0
LINE
  5
341
100
AcDbEntity
  8
0
  6
CONTINUOUS
 62
           3
100
AcDbLine
 10
4552.649996654576
 20
1550.000000744964
 11
4552.649996654576
 21
1548.799999058067
  0
LINE
  5
340
100
AcDbEntity
  8
0
  6
CONTINUOUS
 62
           3
100
AcDbLine
 10
4563.899997101563
 20
1391.199998557593
 11
4575.899996274751
 21
1391.199998557593
  0
LINE
  5
33F
100
AcDbEntity
  8
0
  6
CONTINUOUS
 62
           3
100
AcDbLine
 10
4563.899997101563
 20
1390.000000596097
 11
4575.899996274751
 21
1390.000000596097
  0
LINE
  5
33E
100
AcDbEntity
  8
0
  6
CONTINUOUS
 62
           3
100
AcDbLine
 10
4575.899996274751
 20
1391.199998557593
 11
4575.899996274751
 21
1390.000000596097
  0
LINE
  5
33D
100
AcDbEntity
  8
0
  6
CONTINUOUS
 62
           3
100
AcDbLine
 10
4525.899997392189
 20
1391.199998557593
 11
4535.899997168586
 21
1391.199998557593
  0
LINE
  5
33C
100
AcDbEntity
  8
0
  6
CONTINUOUS
 62
           3
100
AcDbLine
 10
4525.899997392189
 20
1390.000000596097
 11
4535.899997168586
 21
1390.000000596097
  0
LINE
  5
33B
100
AcDbEntity
  8
0
  6
CONTINUOUS
 62
           3
100
AcDbLine
 10
4525.899997392189
 20
1391.199998557593
 11
4525.899997392189
 21
1390.000000596097
  0
LINE
  5
33A
100
AcDbEntity
  8
0
  6
CONTINUOUS
 62
           3
100
AcDbLine
 10
4559.149996788763
 20
1550.000000744964
 11
4561.149996650865
 21
1550.000000744964
  0
LINE
  5
339
100
AcDbEntity
  8
0
  6
CONTINUOUS
 62
           3
100
AcDbLine
 10
4561.149996650865
 20
1548.799999058065
 11
4559.149996788763
 21
1548.799999058065
  0
LINE
  5
338
100
AcDbEntity
  8
0
  6
CONTINUOUS
 62
           3
100
AcDbLine
 10
4559.149996788763
 20
1548.799999058065
 11
4559.149996788763
 21
1550.000000744964
  0
LINE
  5
337
100
AcDbEntity
  8
0
  6
CONTINUOUS
 62
           3
100
AcDbLine
 10
4585.899996051144
 20
1550.000000744964
 11
4575.899996274751
 21
1550.000000744964
  0
LINE
  5
336
100
AcDbEntity
  8
0
  6
CONTINUOUS
 62
           3
100
AcDbLine
 10
4585.899996051144
 20
1548.799999058065
 11
4575.899996274751
 21
1548.799999058065
  0
LINE
  5
335
100
AcDbEntity
  8
0
  6
CONTINUOUS
 62
           3
100
AcDbLine
 10
4585.899996051144
 20
1548.799999058065
 11
4585.899996051144
 21
1550.000000744964
  0
LINE
  5
334
100
AcDbEntity
  8
0
  6
CONTINUOUS
 62
           3
100
AcDbLine
 10
4559.149996788763
 20
1391.199998557593
 11
4559.399996829763
 21
1391.199998557593
  0
LINE
  5
333
100
AcDbEntity
  8
0
  6
CONTINUOUS
 62
           3
100
AcDbLine
 10
4559.149996788763
 20
1390.000000596097
 11
4559.149996788763
 21
1391.199998557593
  0
LINE
  5
332
100
AcDbEntity
  8
0
  6
CONTINUOUS
 62
           3
100
AcDbLine
 10
4535.899997168586
 20
1391.199998557593
 11
4547.899996341775
 21
1391.199998557593
  0
LINE
  5
331
100
AcDbEntity
  8
0
  6
CONTINUOUS
 62
           3
100
AcDbLine
 10
4535.899997168586
 20
1390.000000596097
 11
4547.899996341775
 21
1390.000000596097
  0
LINE
  5
330
100
AcDbEntity
  8
0
  6
CONTINUOUS
 62
           3
100
AcDbLine
 10
4535.899997168586
 20
1391.199998557593
 11
4535.899997168586
 21
1390.000000596097
  0
LINE
  5
32F
100
AcDbEntity
  8
0
  6
CONTINUOUS
 62
           3
100
AcDbLine
 10
4535.899997168586
 20
1550.000000744964
 11
4550.649996792473
 21
1550.000000744964
  0
LINE
  5
32E
100
AcDbEntity
  8
0
  6
CONTINUOUS
 62
           3
100
AcDbLine
 10
4535.899997168586
 20
1548.799999058067
 11
4550.649996792473
 21
1548.799999058067
  0
LINE
  5
32D
100
AcDbEntity
  8
0
  6
CONTINUOUS
 62
           3
100
AcDbLine
 10
4561.149996650865
 20
1550.000000744964
 11
4575.899996274751
 21
1550.000000744964
  0
LINE
  5
32C
100
AcDbEntity
  8
0
  6
CONTINUOUS
 62
           3
100
AcDbLine
 10
4561.149996650865
 20
1548.799999058065
 11
4575.899996274751
 21
1548.799999058065
  0
LINE
  5
32B
100
AcDbEntity
  8
0
  6
CONTINUOUS
 62
           3
100
AcDbLine
 10
4575.899996274751
 20
1548.799999058065
 11
4575.899996274751
 21
1550.000000744964
  0
LINE
  5
32A
100
AcDbEntity
  8
0
  6
CONTINUOUS
 62
           3
100
AcDbLine
 10
4525.899997392189
 20
1548.799999058067
 11
4525.899997392189
 21
1550.000000744964
  0
LINE
  5
329
100
AcDbEntity
  8
0
  6
CONTINUOUS
 62
           3
100
AcDbLine
 10
4525.899997392189
 20
1548.799999058067
 11
4535.899997168586
 21
1548.799999058067
  0
LINE
  5
328
100
AcDbEntity
  8
0
  6
CONTINUOUS
 62
           3
100
AcDbLine
 10
4535.899997168586
 20
1548.799999058067
 11
4535.899997168586
 21
1550.000000744964
  0
LINE
  5
327
100
AcDbEntity
  8
0
  6
CONTINUOUS
 62
           3
100
AcDbLine
 10
4525.899997392189
 20
1550.000000744964
 11
4535.899997168586
 21
1550.000000744964
  0
LINE
  5
326
100
AcDbEntity
  8
0
  6
CONTINUOUS
 62
           3
100
AcDbLine
 10
4563.899997101563
 20
1389.200001954996
 11
4563.899997101563
 21
1388.276241719796
  0
LINE
  5
325
100
AcDbEntity
  8
0
  6
CONTINUOUS
 62
           3
100
AcDbLine
 10
4547.899996341775
 20
1389.200001954996
 11
4547.899996341775
 21
1388.276241719796
  0
LINE
  5
324
100
AcDbEntity
  8
0
  6
CONTINUOUS
 62
           3
100
AcDbLine
 10
4550.899996833472
 20
1388.276241719796
 11
4547.899996341775
 21
1388.276241719796
  0
LINE
  5
323
100
AcDbEntity
  8
0
  6
CONTINUOUS
 62
           3
100
AcDbLine
 10
4563.899997101563
 20
1388.276241719796
 11
4560.899996609865
 21
1388.276241719796
  0
LINE
  5
322
100
AcDbEntity
  8
0
  6
CONTINUOUS
 62
           3
100
AcDbLine
 10
4558.399996665761
 20
1384.199999272902
 11
4560.899996609912
 21
1384.199999272902
  0
LINE
  5
321
100
AcDbEntity
  8
0
  6
CONTINUOUS
 62
           3
100
AcDbLine
 10
4550.899996833433
 20
1384.199999272902
 11
4553.399996777554
 21
1384.199999272902
  0
LINE
  5
320
100
AcDbEntity
  8
0
  6
CONTINUOUS
 62
           3
100
AcDbLine
 10
4560.899996609865
 20
1384.646579623302
 11
4560.899996609865
 21
1389.100000262195
  0
LINE
  5
31F
100
AcDbEntity
  8
0
  6
CONTINUOUS
 62
           3
100
AcDbLine
 10
4550.899996833472
 20
1384.646579623302
 11
4550.899996833472
 21
1389.100000262195
  0
LINE
  5
31E
100
AcDbEntity
  8
0
  6
CONTINUOUS
 62
           3
100
AcDbLine
 10
4550.899996833472
 20
1384.646579623302
 11
4553.399996777554
 21
1384.199999272902
  0
LINE
  5
31D
100
AcDbEntity
  8
0
  6
CONTINUOUS
 62
           3
100
AcDbLine
 10
4555.899996721675
 20
1384.646579623295
 11
4555.899996721675
 21
1389.100000262195
  0
LINE
  5
31C
100
AcDbEntity
  8
0
  6
CONTINUOUS
 62
           3
100
AcDbLine
 10
4553.399996777554
 20
1384.199999272902
 11
4558.399996665761
 21
1384.199999272902
  0
LINE
  5
31B
100
AcDbEntity
  8
0
  6
CONTINUOUS
 62
           3
100
AcDbLine
 10
4555.899996721675
 20
1384.646579623295
 11
4558.399996665761
 21
1384.199999272902
  0
LINE
  5
31A
100
AcDbEntity
  8
0
  6
CONTINUOUS
 62
           3
100
AcDbLine
 10
4552.399996613576
 20
1389.200001954996
 11
4559.399996829763
 21
1389.200001954996
  0
LINE
  5
319
100
AcDbEntity
  8
0
  6
CONTINUOUS
 62
           3
100
AcDbLine
 10
4552.399996613576
 20
1390.000000596097
 11
4559.399996829763
 21
1390.000000596097
  0
LINE
  5
318
100
AcDbEntity
  8
0
  6
CONTINUOUS
 62
           3
100
AcDbLine
 10
4559.399996829763
 20
1393.990144133492
 11
4552.399996613576
 21
1393.990144133492
  0
LINE
  5
317
100
AcDbEntity
  8
0
  6
CONTINUOUS
 62
           3
100
AcDbLine
 10
4552.899996695576
 20
1392.246469855294
 11
4552.399996613576
 21
1392.246469855294
  0
LINE
  5
316
100
AcDbEntity
  8
0
  6
CONTINUOUS
 62
           3
100
AcDbLine
 10
4559.399996829763
 20
1392.246469855294
 11
4558.899996747763
 21
1392.246469855294
  0
LINE
  5
315
100
AcDbEntity
  8
0
  6
CONTINUOUS
 62
           3
100
AcDbLine
 10
4563.899997101563
 20
1394.799999892894
 11
4563.899997101563
 21
1389.200001954996
  0
LINE
  5
314
100
AcDbEntity
  8
0
  6
CONTINUOUS
 62
           3
100
AcDbLine
 10
4547.899996341775
 20
1394.799999892894
 11
4547.899996341775
 21
1389.200001954996
  0
LINE
  5
313
100
AcDbEntity
  8
0
  6
CONTINUOUS
 62
           3
100
AcDbLine
 10
4552.399996613576
 20
1389.200001954996
 11
4552.399996613576
 21
1394.799999892894
  0
LINE
  5
312
100
AcDbEntity
  8
0
  6
CONTINUOUS
 62
           3
100
AcDbLine
 10
4559.399996829763
 20
1394.799999892894
 11
4559.399996829763
 21
1389.200001954996
  0
LINE
  5
311
100
AcDbEntity
  8
0
  6
CONTINUOUS
 62
           3
100
AcDbLine
 10
4552.399996613576
 20
1389.200001954996
 11
4547.899996341775
 21
1389.200001954996
  0
LINE
  5
310
100
AcDbEntity
  8
0
  6
CONTINUOUS
 62
           3
100
AcDbLine
 10
4552.399996613576
 20
1394.792847335491
 11
4559.399996829763
 21
1394.792847335491
  0
LINE
  5
30F
100
AcDbEntity
  8
0
  6
CONTINUOUS
 62
           3
100
AcDbLine
 10
4563.899997101563
 20
1389.200001954996
 11
4559.399996829763
 21
1389.200001954996
  0
LINE
  5
30E
100
AcDbEntity
  8
0
  6
CONTINUOUS
 62
           3
100
AcDbLine
 10
4557.899996816559
 20
1638.422653078993
 11
4553.899996626774
 21
1638.422653078993
  0
LINE
  5
30D
100
AcDbEntity
  8
0
  6
CONTINUOUS
 62
           3
100
AcDbLine
 10
4552.899996695576
 20
1637.422651052293
 11
4558.899996747763
 21
1637.422651052293
  0
LINE
  5
30C
100
AcDbEntity
  8
0
  6
CONTINUOUS
 62
           3
100
AcDbLine
 10
4501.899995321013
 20
1665.000006556369
 11
4505.899995976711
 21
1665.000006556369
  0
LINE
  5
30B
100
AcDbEntity
  8
0
  6
CONTINUOUS
 62
           3
100
AcDbLine
 10
4505.899995976711
 20
1665.000006556369
 11
4509.899996632413
 21
1665.000006556369
  0
LINE
  5
30A
100
AcDbEntity
  8
0
  6
CONTINUOUS
 62
           3
100
AcDbLine
 10
4551.569869687346
 20
1367.599993944256
 11
4550.899996833472
 21
1367.599993944114
  0
LINE
  5
309
100
AcDbEntity
  8
0
  6
CONTINUOUS
 62
           3
100
AcDbLine
 10
4560.899996609865
 20
1367.599993944114
 11
4560.230123756004
 21
1367.599993944256
  0
LINE
  5
308
100
AcDbEntity
  8
0
  6
CONTINUOUS
 62
           3
100
AcDbLine
 10
4551.569869687346
 20
1372.600004077041
 11
4550.899996833472
 21
1372.600004077011
  0
LINE
  5
307
100
AcDbEntity
  8
0
  6
CONTINUOUS
 62
           3
100
AcDbLine
 10
4560.230123756004
 20
1367.599993944256
 11
4555.899996721675
 21
1367.599993944256
  0
LINE
  5
306
100
AcDbEntity
  8
0
  6
CONTINUOUS
 62
           3
100
AcDbLine
 10
4555.899996721675
 20
1367.599993944256
 11
4551.569869687346
 21
1367.599993944256
  0
LINE
  5
305
100
AcDbEntity
  8
0
  6
CONTINUOUS
 62
           3
100
AcDbLine
 10
4550.126493853973
 20
1372.153416276109
 11
4550.126493853973
 21
1368.046581745312
  0
LINE
  5
304
100
AcDbEntity
  8
0
  6
CONTINUOUS
 62
           3
100
AcDbLine
 10
4550.126493853973
 20
1368.046581745312
 11
4551.569869687346
 21
1367.599993944256
  0
LINE
  5
303
100
AcDbEntity
  8
0
  6
CONTINUOUS
 62
           3
100
AcDbLine
 10
4553.013245287844
 20
1372.153416276063
 11
4551.569869687346
 21
1372.600004077041
  0
LINE
  5
302
100
AcDbEntity
  8
0
  6
CONTINUOUS
 62
           3
100
AcDbLine
 10
4558.786748155362
 20
1368.046581745312
 11
4560.230123756004
 21
1367.599993944256
  0
LINE
  5
301
100
AcDbEntity
  8
0
  6
CONTINUOUS
 62
           3
100
AcDbLine
 10
4561.673499589365
 20
1372.153416276109
 11
4561.673499589365
 21
1368.046581745312
  0
LINE
  5
300
100
AcDbEntity
  8
0
  6
CONTINUOUS
 62
           3
100
AcDbLine
 10
4561.673499589365
 20
1372.153416276109
 11
4560.230123756004
 21
1372.600004077041
  0
LINE
  5
2FF
100
AcDbEntity
  8
0
  6
CONTINUOUS
 62
           3
100
AcDbLine
 10
4553.013245287844
 20
1372.153416276063
 11
4553.013245287844
 21
1368.046581745235
  0
LINE
  5
2FE
100
AcDbEntity
  8
0
  6
CONTINUOUS
 62
           3
100
AcDbLine
 10
4558.786748155502
 20
1372.153416276063
 11
4558.786748155362
 21
1368.046581745312
  0
LINE
  5
2FD
100
AcDbEntity
  8
0
  6
CONTINUOUS
 62
           3
100
AcDbLine
 10
4560.899996609865
 20
1372.600004077011
 11
4560.230123756004
 21
1372.600004077041
  0
LINE
  5
2FC
100
AcDbEntity
  8
0
  6
CONTINUOUS
 62
           3
100
AcDbLine
 10
4560.899996609865
 20
1377.599999308604
 11
4560.230123756004
 21
1377.599999308666
  0
LINE
  5
2FB
100
AcDbEntity
  8
0
  6
CONTINUOUS
 62
           3
100
AcDbLine
 10
4551.569869687346
 20
1377.599999308666
 11
4550.899996833472
 21
1377.599999308604
  0
LINE
  5
2FA
100
AcDbEntity
  8
0
  6
CONTINUOUS
 62
           3
100
AcDbLine
 10
4555.899996721675
 20
1372.600004077041
 11
4551.569869687346
 21
1372.600004077041
  0
LINE
  5
2F9
100
AcDbEntity
  8
0
  6
CONTINUOUS
 62
           3
100
AcDbLine
 10
4560.230123756004
 20
1372.600004077041
 11
4555.899996721675
 21
1372.600004077041
  0
LINE
  5
2F8
100
AcDbEntity
  8
0
  6
CONTINUOUS
 62
           3
100
AcDbLine
 10
4555.899996721675
 20
1377.599999308666
 11
4551.569869687346
 21
1377.599999308666
  0
LINE
  5
2F7
100
AcDbEntity
  8
0
  6
CONTINUOUS
 62
           3
100
AcDbLine
 10
4550.126493853973
 20
1377.153418958205
 11
4550.126493853973
 21
1373.046576976913
  0
LINE
  5
2F6
100
AcDbEntity
  8
0
  6
CONTINUOUS
 62
           3
100
AcDbLine
 10
4550.126493853973
 20
1373.046576976913
 11
4551.569869687346
 21
1372.600004077041
  0
LINE
  5
2F5
100
AcDbEntity
  8
0
  6
CONTINUOUS
 62
           3
100
AcDbLine
 10
4553.013245287844
 20
1377.153418958267
 11
4551.569869687346
 21
1377.599999308666
  0
LINE
  5
2F4
100
AcDbEntity
  8
0
  6
CONTINUOUS
 62
           3
100
AcDbLine
 10
4560.230123756004
 20
1377.599999308666
 11
4555.899996721675
 21
1377.599999308666
  0
LINE
  5
2F3
100
AcDbEntity
  8
0
  6
CONTINUOUS
 62
           3
100
AcDbLine
 10
4558.786748155362
 20
1373.046576976913
 11
4560.230123756004
 21
1372.600004077041
  0
LINE
  5
2F2
100
AcDbEntity
  8
0
  6
CONTINUOUS
 62
           3
100
AcDbLine
 10
4561.673499589365
 20
1377.153418958205
 11
4561.673499589365
 21
1373.046576976913
  0
LINE
  5
2F1
100
AcDbEntity
  8
0
  6
CONTINUOUS
 62
           3
100
AcDbLine
 10
4561.673499589365
 20
1377.153418958205
 11
4560.230123756004
 21
1377.599999308666
  0
LINE
  5
2F0
100
AcDbEntity
  8
0
  6
CONTINUOUS
 62
           3
100
AcDbLine
 10
4553.013245287844
 20
1377.153418958267
 11
4553.013245287844
 21
1373.04657697686
  0
LINE
  5
2EF
100
AcDbEntity
  8
0
  6
CONTINUOUS
 62
           3
100
AcDbLine
 10
4558.786748155502
 20
1377.153418958267
 11
4558.786748155362
 21
1373.046576976913
  0
LINE
  5
2EE
100
AcDbEntity
  8
0
  6
CONTINUOUS
 62
           3
100
AcDbLine
 10
4550.126493853973
 20
1364.553421735916
 11
4550.126493853973
 21
1360.446587205122
  0
LINE
  5
2ED
100
AcDbEntity
  8
0
  6
CONTINUOUS
 62
           3
100
AcDbLine
 10
4550.126493853973
 20
1360.446587205122
 11
4551.569869687346
 21
1359.999999404048
  0
LINE
  5
2EC
100
AcDbEntity
  8
0
  6
CONTINUOUS
 62
           3
100
AcDbLine
 10
4553.013245287844
 20
1364.553421735858
 11
4551.569869687346
 21
1364.999994635673
  0
LINE
  5
2EB
100
AcDbEntity
  8
0
  6
CONTINUOUS
 62
           3
100
AcDbLine
 10
4558.786748155362
 20
1360.446587205122
 11
4560.230123755964
 21
1359.999999403922
  0
LINE
  5
2EA
100
AcDbEntity
  8
0
  6
CONTINUOUS
 62
           3
100
AcDbLine
 10
4561.673499589365
 20
1364.553421735916
 11
4561.673499589365
 21
1360.446587205122
  0
LINE
  5
2E9
100
AcDbEntity
  8
0
  6
CONTINUOUS
 62
           3
100
AcDbLine
 10
4561.673499589365
 20
1364.553421735916
 11
4560.230123756004
 21
1364.999994635673
  0
LINE
  5
2E8
100
AcDbEntity
  8
0
  6
CONTINUOUS
 62
           3
100
AcDbLine
 10
4553.013245287844
 20
1364.553421735858
 11
4553.013245287844
 21
1360.446587205024
  0
LINE
  5
2E7
100
AcDbEntity
  8
0
  6
CONTINUOUS
 62
           3
100
AcDbLine
 10
4558.786748155502
 20
1364.553421735858
 11
4558.786748155362
 21
1360.446587205122
  0
LINE
  5
2E6
100
AcDbEntity
  8
0
  6
CONTINUOUS
 62
           3
100
AcDbLine
 10
4550.899996833472
 20
1359.999999403922
 11
4551.569869687346
 21
1359.999999404048
  0
LINE
  5
2E5
100
AcDbEntity
  8
0
  6
CONTINUOUS
 62
           3
100
AcDbLine
 10
4560.899996609865
 20
1355.000004172322
 11
4560.230123756004
 21
1355.00000417242
  0
LINE
  5
2E4
100
AcDbEntity
  8
0
  6
CONTINUOUS
 62
           3
100
AcDbLine
 10
4550.899996833472
 20
1355.000004172322
 11
4551.569869687346
 21
1355.00000417242
  0
LINE
  5
2E3
100
AcDbEntity
  8
0
  6
CONTINUOUS
 62
           3
100
AcDbLine
 10
4561.673499589365
 20
1355.446577072223
 11
4560.230123756004
 21
1355.00000417242
  0
LINE
  5
2E2
100
AcDbEntity
  8
0
  6
CONTINUOUS
 62
           3
100
AcDbLine
 10
4561.673499589365
 20
1355.446577072223
 11
4561.673499589365
 21
1359.553411603021
  0
LINE
  5
2E1
100
AcDbEntity
  8
0
  6
CONTINUOUS
 62
           3
100
AcDbLine
 10
4550.126493853973
 20
1355.446577072223
 11
4550.126493853973
 21
1359.553411603021
  0
LINE
  5
2E0
100
AcDbEntity
  8
0
  6
CONTINUOUS
 62
           3
100
AcDbLine
 10
4555.899996721675
 20
1359.999999404048
 11
4560.230123755964
 21
1359.999999403922
  0
LINE
  5
2DF
100
AcDbEntity
  8
0
  6
CONTINUOUS
 62
           3
100
AcDbLine
 10
4558.786748155502
 20
1359.553411603069
 11
4560.230123755964
 21
1359.999999403922
  0
LINE
  5
2DE
100
AcDbEntity
  8
0
  6
CONTINUOUS
 62
           3
100
AcDbLine
 10
4551.569869687346
 20
1359.999999404048
 11
4555.899996721675
 21
1359.999999404048
  0
LINE
  5
2DD
100
AcDbEntity
  8
0
  6
CONTINUOUS
 62
           3
100
AcDbLine
 10
4551.569869687346
 20
1355.00000417242
 11
4555.899996721675
 21
1355.000004172322
  0
LINE
  5
2DC
100
AcDbEntity
  8
0
  6
CONTINUOUS
 62
           3
100
AcDbLine
 10
4555.899996721675
 20
1355.000004172322
 11
4560.230123756004
 21
1355.00000417242
  0
LINE
  5
2DB
100
AcDbEntity
  8
0
  6
CONTINUOUS
 62
           3
100
AcDbLine
 10
4553.013245287971
 20
1359.553411603021
 11
4555.899996721675
 21
1359.999999404048
  0
LINE
  5
2DA
100
AcDbEntity
  8
0
  6
CONTINUOUS
 62
           3
100
AcDbLine
 10
4553.013245287844
 20
1355.446577072243
 11
4553.013245287971
 21
1359.553411603021
  0
LINE
  5
2D9
100
AcDbEntity
  8
0
  6
CONTINUOUS
 62
           3
100
AcDbLine
 10
4558.786748155362
 20
1355.446577072223
 11
4555.899996721675
 21
1355.000004172322
  0
LINE
  5
2D8
100
AcDbEntity
  8
0
  6
CONTINUOUS
 62
           3
100
AcDbLine
 10
4558.786748155362
 20
1355.446577072223
 11
4558.786748155502
 21
1359.553411603069
  0
LINE
  5
2D7
100
AcDbEntity
  8
0
  6
CONTINUOUS
 62
           3
100
AcDbLine
 10
4612.899996751324
 20
1393.799997866196
 11
4612.899996751324
 21
1543.800000101368
  0
LINE
  5
2D6
100
AcDbEntity
  8
0
  6
CONTINUOUS
 62
           3
100
AcDbLine
 10
4501.899995321013
 20
1543.800000101368
 11
4498.899996692009
 21
1543.800000101368
  0
LINE
  5
2D5
100
AcDbEntity
  8
0
  6
CONTINUOUS
 62
           3
100
AcDbLine
 10
4552.899996695576
 20
1543.800000101368
 11
4509.899996632413
 21
1543.800000101368
  0
LINE
  5
2D4
100
AcDbEntity
  8
0
  6
CONTINUOUS
 62
           3
100
AcDbLine
 10
4601.899996810931
 20
1543.800000101368
 11
4558.899996747763
 21
1543.800000101368
  0
LINE
  5
2D3
100
AcDbEntity
  8
0
  6
CONTINUOUS
 62
           3
100
AcDbLine
 10
4612.899996751324
 20
1543.800000101368
 11
4609.899998122326
 21
1543.800000101368
  0
LINE
  5
2D2
100
AcDbEntity
  8
0
  6
CONTINUOUS
 62
           3
100
AcDbLine
 10
4498.899996692009
 20
1543.800000101368
 11
4498.899996692009
 21
1393.799997866196
  0
LINE
  5
2D1
100
AcDbEntity
  8
0
  6
CONTINUOUS
 62
           3
100
AcDbLine
 10
4609.899998122326
 20
1393.799997866196
 11
4612.899996751324
 21
1393.799997866196
  0
LINE
  5
2D0
100
AcDbEntity
  8
0
  6
CONTINUOUS
 62
           3
100
AcDbLine
 10
4563.899997101563
 20
1393.799997866196
 11
4601.899996810931
 21
1393.799997866196
  0
LINE
  5
2CF
100
AcDbEntity
  8
0
  6
CONTINUOUS
 62
           3
100
AcDbLine
 10
4509.899996632413
 20
1393.799997866196
 11
4547.899996341775
 21
1393.799997866196
  0
LINE
  5
2CE
100
AcDbEntity
  8
0
  6
CONTINUOUS
 62
           3
100
AcDbLine
 10
4498.899996692009
 20
1393.799997866196
 11
4501.899995321013
 21
1393.799997866196
  0
LINE
  5
2CD
100
AcDbEntity
  8
0
  6
CONTINUOUS
 62
           3
100
AcDbLine
 10
4549.426494029872
 20
1389.099999999995
 11
4562.373499413461
 21
1389.099999999995
  0
LINE
  5
2CC
100
AcDbEntity
  8
0
  6
CONTINUOUS
 62
           3
100
AcDbLine
 10
4563.899997101563
 20
1394.799999892894
 11
4559.399996829763
 21
1394.799999892894
  0
LINE
  5
2CB
100
AcDbEntity
  8
0
  6
CONTINUOUS
 62
           3
100
AcDbLine
 10
4552.399996613576
 20
1394.799999892894
 11
4547.899996341775
 21
1394.799999892894
  0
LINE
  5
2CA
100
AcDbEntity
  8
0
  6
CONTINUOUS
 62
           3
100
AcDbLine
 10
4553.899996626774
 20
1638.422653078993
 11
4552.899996695576
 21
1637.422651052293
  0
LINE
  5
2C9
100
AcDbEntity
  8
0
  6
CONTINUOUS
 62
           3
100
AcDbLine
 10
4558.899996747763
 20
1637.422651052293
 11
4557.899996816559
 21
1638.422653078993
  0
LINE
  5
2C8
100
AcDbEntity
  8
0
  6
CONTINUOUS
 62
           3
100
AcDbLine
 10
4552.899996695576
 20
1367.599993944114
 11
4552.899996695576
 21
1366.600006818713
  0
LINE
  5
2C7
100
AcDbEntity
  8
0
  6
CONTINUOUS
 62
           3
100
AcDbLine
 10
4552.899996695576
 20
1384.199999272902
 11
4552.899996695576
 21
1377.599999308604
  0
LINE
  5
2C6
100
AcDbEntity
  8
0
  6
CONTINUOUS
 62
           3
100
AcDbLine
 10
4552.899996695576
 20
1392.957426607594
 11
4552.899996695576
 21
1390.000000596097
  0
LINE
  5
2C5
100
AcDbEntity
  8
0
  6
CONTINUOUS
 62
           3
100
AcDbLine
 10
4552.899996695576
 20
1633.399993180997
 11
4552.899996695576
 21
1394.792847335491
  0
LINE
  5
2C4
100
AcDbEntity
  8
0
  6
CONTINUOUS
 62
           3
100
AcDbLine
 10
4552.899996695576
 20
1637.422651052293
 11
4552.899996695576
 21
1635.000005364196
  0
LINE
  5
2C3
100
AcDbEntity
  8
0
  6
CONTINUOUS
 62
           3
100
AcDbLine
 10
4558.899996747763
 20
1635.000005364196
 11
4558.899996747763
 21
1637.422651052293
  0
LINE
  5
2C2
100
AcDbEntity
  8
0
  6
CONTINUOUS
 62
           3
100
AcDbLine
 10
4558.899996747763
 20
1394.792847335491
 11
4558.899996747763
 21
1633.399993180997
  0
LINE
  5
2C1
100
AcDbEntity
  8
0
  6
CONTINUOUS
 62
           3
100
AcDbLine
 10
4558.899996747763
 20
1390.000000596097
 11
4558.899996747763
 21
1392.957426607594
  0
LINE
  5
2C0
100
AcDbEntity
  8
0
  6
CONTINUOUS
 62
           3
100
AcDbLine
 10
4558.899996747763
 20
1377.599999308604
 11
4558.899996747763
 21
1384.199999272902
  0
LINE
  5
2BF
100
AcDbEntity
  8
0
  6
CONTINUOUS
 62
           3
100
AcDbLine
 10
4558.899996747763
 20
1366.600006818713
 11
4558.899996747763
 21
1367.599993944114
  0
LINE
  5
2BE
100
AcDbEntity
  8
0
  6
CONTINUOUS
 62
           3
100
AcDbLine
 10
4509.899996632413
 20
1635.000005364196
 11
4509.899996632413
 21
1665.000006556369
  0
LINE
  5
2BD
100
AcDbEntity
  8
0
  6
CONTINUOUS
 62
           3
100
AcDbLine
 10
4509.899996632413
 20
1550.000000744964
 11
4509.899996632413
 21
1633.399993180997
  0
LINE
  5
2BC
100
AcDbEntity
  8
0
  6
CONTINUOUS
 62
           3
100
AcDbLine
 10
4509.899996632413
 20
1391.199998557593
 11
4509.899996632413
 21
1548.799999058067
  0
LINE
  5
2BB
100
AcDbEntity
  8
0
  6
CONTINUOUS
 62
           3
100
AcDbLine
 10
4509.899996632413
 20
1366.600006818713
 11
4509.899996632413
 21
1390.000000596097
  0
LINE
  5
2BA
100
AcDbEntity
  8
0
  6
CONTINUOUS
 62
           3
100
AcDbLine
 10
4501.899995321013
 20
1364.999994635816
 11
4501.899995321013
 21
1314.999997615956
  0
LINE
  5
2B9
100
AcDbEntity
  8
0
  6
CONTINUOUS
 62
           3
100
AcDbLine
 10
4501.899995321013
 20
1390.000000596097
 11
4501.899995321013
 21
1366.600006818713
  0
LINE
  5
2B8
100
AcDbEntity
  8
0
  6
CONTINUOUS
 62
           3
100
AcDbLine
 10
4501.899995321013
 20
1548.799999058067
 11
4501.899995321013
 21
1391.199998557593
  0
LINE
  5
2B7
100
AcDbEntity
  8
0
  6
CONTINUOUS
 62
           3
100
AcDbLine
 10
4501.899995321013
 20
1633.399993180997
 11
4501.899995321013
 21
1550.000000744964
  0
LINE
  5
2B6
100
AcDbEntity
  8
0
  6
CONTINUOUS
 62
           3
100
AcDbLine
 10
4501.899995321013
 20
1665.000006556369
 11
4501.899995321013
 21
1635.000005364196
  0
LINE
  5
2B5
100
AcDbEntity
  8
0
  6
CONTINUOUS
 62
           3
100
AcDbLine
 10
4609.899998122326
 20
1635.000005364196
 11
4609.899998122326
 21
1641.000000000001
  0
LINE
  5
2B4
100
AcDbEntity
  8
0
  6
CONTINUOUS
 62
           3
100
AcDbLine
 10
4609.899998122326
 20
1550.000000744964
 11
4609.899998122326
 21
1633.399993180997
  0
LINE
  5
2B3
100
AcDbEntity
  8
0
  6
CONTINUOUS
 62
           3
100
AcDbLine
 10
4609.899998122326
 20
1391.199998557593
 11
4609.899998122326
 21
1548.799999058067
  0
LINE
  5
2B2
100
AcDbEntity
  8
0
  6
CONTINUOUS
 62
           3
100
AcDbLine
 10
4609.899998122326
 20
1366.600006818713
 11
4609.899998122326
 21
1390.000000596097
  0
LINE
  5
2B1
100
AcDbEntity
  8
0
  6
CONTINUOUS
 62
           3
100
AcDbLine
 10
4609.899998122326
 20
1314.999997615956
 11
4609.899998122326
 21
1364.999994635816
  0
LINE
  5
2B0
100
AcDbEntity
  8
0
  6
CONTINUOUS
 62
           3
100
AcDbLine
 10
4601.899996810931
 20
1364.999994635816
 11
4601.899996810931
 21
1314.999997615956
  0
LINE
  5
2AF
100
AcDbEntity
  8
0
  6
CONTINUOUS
 62
           3
100
AcDbLine
 10
4601.899996810931
 20
1390.000000596097
 11
4601.899996810931
 21
1366.600006818713
  0
LINE
  5
2AE
100
AcDbEntity
  8
0
  6
CONTINUOUS
 62
           3
100
AcDbLine
 10
4601.899996810931
 20
1548.799999058067
 11
4601.899996810931
 21
1391.199998557593
  0
LINE
  5
2AD
100
AcDbEntity
  8
0
  6
CONTINUOUS
 62
           3
100
AcDbLine
 10
4601.899996810931
 20
1633.399993180997
 11
4601.899996810931
 21
1550.000000744964
  0
LINE
  5
2AC
100
AcDbEntity
  8
0
  6
CONTINUOUS
 62
           3
100
AcDbLine
 10
4601.899996810931
 20
1641.0
 11
4601.899996810931
 21
1635.000005364196
  0
LINE
  5
2AB
100
AcDbEntity
  8
0
  6
CONTINUOUS
 62
           3
100
AcDbLine
 10
4550.126493853973
 20
1368.046581745312
 11
4550.899996833472
 21
1367.599993944114
  0
LINE
  5
2AA
100
AcDbEntity
  8
0
  6
CONTINUOUS
 62
           3
100
AcDbLine
 10
4560.899996609865
 20
1367.599993944114
 11
4561.673499589365
 21
1368.046581745312
  0
LINE
  5
2A9
100
AcDbEntity
  8
0
  6
CONTINUOUS
 62
           3
100
AcDbLine
 10
4561.673499589365
 20
1372.153416276109
 11
4560.899996609865
 21
1372.600004077011
  0
LINE
  5
2A8
100
AcDbEntity
  8
0
  6
CONTINUOUS
 62
           3
100
AcDbLine
 10
4550.899996833472
 20
1372.600004077011
 11
4550.126493853973
 21
1372.153416276109
  0
LINE
  5
2A7
100
AcDbEntity
  8
0
  6
CONTINUOUS
 62
           3
100
AcDbLine
 10
4550.126493853973
 20
1373.046576976913
 11
4550.899996833472
 21
1372.600004077011
  0
LINE
  5
2A6
100
AcDbEntity
  8
0
  6
CONTINUOUS
 62
           3
100
AcDbLine
 10
4560.899996609865
 20
1372.600004077011
 11
4561.673499589365
 21
1373.046576976913
  0
LINE
  5
2A5
100
AcDbEntity
  8
0
  6
CONTINUOUS
 62
           3
100
AcDbLine
 10
4561.673499589365
 20
1377.153418958205
 11
4560.899996609865
 21
1377.599999308604
  0
LINE
  5
2A4
100
AcDbEntity
  8
0
  6
CONTINUOUS
 62
           3
100
AcDbLine
 10
4550.899996833472
 20
1377.599999308604
 11
4550.126493853973
 21
1377.153418958205
  0
LINE
  5
2A3
100
AcDbEntity
  8
0
  6
CONTINUOUS
 62
           3
100
AcDbLine
 10
4550.126493853973
 20
1360.446587205122
 11
4550.899996833472
 21
1359.999999403922
  0
LINE
  5
2A2
100
AcDbEntity
  8
0
  6
CONTINUOUS
 62
           3
100
AcDbLine
 10
4560.899996609865
 20
1359.999999403922
 11
4561.673499589365
 21
1360.446587205122
  0
LINE
  5
2A1
100
AcDbEntity
  8
0
  6
CONTINUOUS
 62
           3
100
AcDbLine
 10
4561.673499589365
 20
1364.553421735916
 11
4560.899996609865
 21
1364.999994635816
  0
LINE
  5
2A0
100
AcDbEntity
  8
0
  6
CONTINUOUS
 62
           3
100
AcDbLine
 10
4550.899996833472
 20
1364.999994635816
 11
4550.126493853973
 21
1364.553421735916
  0
LINE
  5
29F
100
AcDbEntity
  8
0
  6
CONTINUOUS
 62
           3
100
AcDbLine
 10
4561.673499589365
 20
1359.553411603021
 11
4560.899996609865
 21
1359.999999403922
  0
LINE
  5
29E
100
AcDbEntity
  8
0
  6
CONTINUOUS
 62
           3
100
AcDbLine
 10
4550.899996833472
 20
1359.999999403922
 11
4550.126493853973
 21
1359.553411603021
  0
LINE
  5
29D
100
AcDbEntity
  8
0
  6
CONTINUOUS
 62
           3
100
AcDbLine
 10
4560.899996609865
 20
1355.000004172322
 11
4561.673499589365
 21
1355.446577072223
  0
LINE
  5
29C
100
AcDbEntity
  8
0
  6
CONTINUOUS
 62
           3
100
AcDbLine
 10
4550.126493853973
 20
1355.446577072223
 11
4550.899996833472
 21
1355.000004172322
  0
LINE
  5
29B
100
AcDbEntity
  8
0
  6
CONTINUOUS
 62
           3
100
AcDbLine
 10
4509.899996632413
 20
1314.999997615956
 11
4509.899996632413
 21
1364.999994635816
  0
LINE
  5
29A
100
AcDbEntity
  8
1
  6
CONTINUOUS
 62
           3
100
AcDbLine
 10
5037.5
 20
1929.0
 11
4889.899996810931
 21
1929.0
  0
LINE
  5
299
100
AcDbEntity
  8
1
  6
CONTINUOUS
 62
           3
100
AcDbLine
 10
5037.5
 20
1921.000000000001
 11
4889.899998122324
 21
1921.000000000001
  0
LINE
  5
298
100
AcDbEntity
  8
1
  6
CONTINUOUS
 62
           4
100
AcDbLine
 10
2042.386953890961
 20
4209.500000000003
 11
2042.386953890961
 21
3904.500000000003
  0
LINE
  5
297
100
AcDbEntity
  8
1
  6
CONTINUOUS
 62
           4
100
AcDbLine
 10
2237.38695389096
 20
4182.000000000003
 11
2042.386953890961
 21
4182.000000000003
  0
LINE
  5
296
100
AcDbEntity
  8
1
  6
CONTINUOUS
 62
           4
100
AcDbLine
 10
2237.38695389096
 20
3904.500000000003
 11
2237.38695389096
 21
4182.000000000003
  0
LINE
  5
295
100
AcDbEntity
  8
1
  6
CONTINUOUS
 62
           4
100
AcDbLine
 10
2042.386953890961
 20
3932.000000000003
 11
2237.38695389096
 21
3932.000000000003
  0
LINE
  5
294
100
AcDbEntity
  8
1
  6
CONTINUOUS
 62
           4
100
AcDbLine
 10
2267.38695389096
 20
4152.000000000003
 11
2237.38695389096
 21
4152.000000000003
  0
LINE
  5
293
100
AcDbEntity
  8
1
  6
CONTINUOUS
 62
           4
100
AcDbLine
 10
2267.38695389096
 20
3962.000000000003
 11
2267.38695389096
 21
4152.000000000003
  0
LINE
  5
292
100
AcDbEntity
  8
1
  6
CONTINUOUS
 62
           4
100
AcDbLine
 10
2237.38695389096
 20
3962.000000000003
 11
2267.38695389096
 21
3962.000000000003
  0
LINE
  5
291
100
AcDbEntity
  8
1
  6
CONTINUOUS
 62
           4
100
AcDbLine
 10
2057.38695389096
 20
4209.500000000003
 11
2057.38695389096
 21
4182.000000000003
  0
LINE
  5
290
100
AcDbEntity
  8
1
  6
CONTINUOUS
 62
           4
100
AcDbLine
 10
2042.386953890961
 20
4209.500000000003
 11
2057.38695389096
 21
4209.500000000003
  0
LINE
  5
28F
100
AcDbEntity
  8
1
  6
CONTINUOUS
 62
           4
100
AcDbLine
 10
2057.38695389096
 20
3904.500000000003
 11
2042.386953890961
 21
3904.500000000003
  0
LINE
  5
28E
100
AcDbEntity
  8
1
  6
CONTINUOUS
 62
           4
100
AcDbLine
 10
2057.38695389096
 20
3932.000000000003
 11
2057.38695389096
 21
3904.500000000003
  0
LINE
  5
28D
100
AcDbEntity
  8
1
  6
CONTINUOUS
 62
           4
100
AcDbLine
 10
2207.38695389096
 20
3932.000000000003
 11
2207.38695389096
 21
4182.000000000003
  0
LINE
  5
28C
100
AcDbEntity
  8
1
  6
CONTINUOUS
 62
           4
100
AcDbLine
 10
2177.38695389096
 20
3904.500000000003
 11
2177.38695389096
 21
3932.000000000003
  0
LINE
  5
28B
100
AcDbEntity
  8
1
  6
CONTINUOUS
 62
           4
100
AcDbLine
 10
2177.38695389096
 20
3904.500000000003
 11
2237.38695389096
 21
3904.500000000003
  0
LINE
  5
28A
100
AcDbEntity
  8
1
  6
CONTINUOUS
 62
           4
100
AcDbLine
 10
2157.38695389096
 20
3827.000000000003
 11
2172.38695389096
 21
3827.000000000003
  0
LINE
  5
289
100
AcDbEntity
  8
1
  6
CONTINUOUS
 62
           4
100
AcDbLine
 10
2172.38695389096
 20
3847.000000000003
 11
2157.38695389096
 21
3847.000000000003
  0
LINE
  5
288
100
AcDbEntity
  8
1
  6
CONTINUOUS
 62
           4
100
AcDbLine
 10
2172.38695389096
 20
3852.000000000004
 11
2157.38695389096
 21
3852.000000000004
  0
LINE
  5
287
100
AcDbEntity
  8
1
  6
CONTINUOUS
 62
           4
100
AcDbLine
 10
2172.38695389096
 20
3807.000000000003
 11
2172.38695389096
 21
3852.000000000004
  0
LINE
  5
286
100
AcDbEntity
  8
1
  6
CONTINUOUS
 62
           4
100
AcDbLine
 10
2157.38695389096
 20
3807.000000000003
 11
2172.38695389096
 21
3807.000000000003
  0
LINE
  5
285
100
AcDbEntity
  8
1
  6
CONTINUOUS
 62
           4
100
AcDbLine
 10
2157.38695389096
 20
3877.000000000003
 11
2127.38695389096
 21
3877.000000000003
  0
LINE
  5
284
100
AcDbEntity
  8
1
  6
CONTINUOUS
 62
           4
100
AcDbLine
 10
2157.38695389096
 20
3797.000000000003
 11
2157.38695389096
 21
3877.000000000003
  0
LINE
  5
283
100
AcDbEntity
  8
1
  6
CONTINUOUS
 62
           4
100
AcDbLine
 10
2127.38695389096
 20
3797.000000000003
 11
2157.38695389096
 21
3797.000000000003
  0
LINE
  5
282
100
AcDbEntity
  8
1
  6
CONTINUOUS
 62
           4
100
AcDbLine
 10
2127.38695389096
 20
3890.500000000003
 11
2112.38695389096
 21
3890.500000000003
  0
LINE
  5
281
100
AcDbEntity
  8
1
  6
CONTINUOUS
 62
           4
100
AcDbLine
 10
2127.38695389096
 20
3783.500000000003
 11
2127.38695389096
 21
3816.68493993661
  0
LINE
  5
280
100
AcDbEntity
  8
1
  6
CONTINUOUS
 62
           4
100
AcDbLine
 10
2042.386953890961
 20
3787.000000000003
 11
2112.38695389096
 21
3787.000000000003
  0
LINE
  5
27F
100
AcDbEntity
  8
1
  6
CONTINUOUS
 62
           4
100
AcDbLine
 10
2042.386953890961
 20
3887.000000000003
 11
2042.386953890961
 21
3787.000000000003
  0
LINE
  5
27E
100
AcDbEntity
  8
1
  6
CONTINUOUS
 62
           4
100
AcDbLine
 10
2127.38695389096
 20
3857.315060063396
 11
2112.38695389096
 21
3857.315060063396
  0
LINE
  5
27D
100
AcDbEntity
  8
1
  6
CONTINUOUS
 62
           4
100
AcDbLine
 10
2112.38695389096
 20
3783.500000000003
 11
2112.38695389096
 21
3890.500000000003
  0
LINE
  5
27C
100
AcDbEntity
  8
1
  6
CONTINUOUS
 62
           4
100
AcDbLine
 10
2127.38695389096
 20
3816.68493993661
 11
2112.38695389096
 21
3816.68493993661
  0
LINE
  5
27B
100
AcDbEntity
  8
1
  6
CONTINUOUS
 62
           4
100
AcDbLine
 10
2112.38695389096
 20
3887.000000000003
 11
2042.386953890961
 21
3887.000000000003
  0
LINE
  5
27A
100
AcDbEntity
  8
1
  6
CONTINUOUS
 62
           4
100
AcDbLine
 10
2127.38695389096
 20
3857.315060063396
 11
2127.38695389096
 21
3890.500000000003
  0
LINE
  5
279
100
AcDbEntity
  8
1
  6
CONTINUOUS
 62
           4
100
AcDbLine
 10
2112.38695389096
 20
3783.500000000003
 11
2127.38695389096
 21
3783.500000000003
  0
LINE
  5
278
100
AcDbEntity
  8
1
  6
CONTINUOUS
 62
           4
100
AcDbLine
 10
2112.38695389096
 20
3861.000000000003
 11
2042.386953890961
 21
3861.000000000003
  0
LINE
  5
277
100
AcDbEntity
  8
1
  6
CONTINUOUS
 62
           4
100
AcDbLine
 10
2042.386953890961
 20
3813.000000000003
 11
2112.38695389096
 21
3813.000000000003
  0
LINE
  5
276
100
AcDbEntity
  8
1
  6
CONTINUOUS
 62
           4
100
AcDbLine
 10
2237.38695389096
 20
1322.000000000003
 11
2042.386953890961
 21
1322.000000000003
  0
LINE
  5
275
100
AcDbEntity
  8
1
  6
CONTINUOUS
 62
           4
100
AcDbLine
 10
2237.38695389096
 20
1678.000000000003
 11
2042.386953890961
 21
1678.000000000003
  0
LINE
  5
274
100
AcDbEntity
  8
1
  6
CONTINUOUS
 62
           4
100
AcDbLine
 10
2207.38695389096
 20
1162.000000000003
 11
2207.38695389096
 21
1838.000000000003
  0
LINE
  5
273
100
AcDbEntity
  8
1
  6
CONTINUOUS
 62
           4
100
AcDbLine
 10
2237.38695389096
 20
1352.000000000003
 11
2267.38695389096
 21
1352.000000000003
  0
LINE
  5
272
100
AcDbEntity
  8
1
  6
CONTINUOUS
 62
           4
100
AcDbLine
 10
2267.38695389096
 20
1352.000000000003
 11
2267.38695389096
 21
1648.000000000003
  0
LINE
  5
271
100
AcDbEntity
  8
1
  6
CONTINUOUS
 62
           4
100
AcDbLine
 10
2267.38695389096
 20
1648.000000000003
 11
2237.38695389096
 21
1648.000000000003
  0
LINE
  5
270
100
AcDbEntity
  8
1
  6
CONTINUOUS
 62
           4
100
AcDbLine
 10
2042.386953890961
 20
1357.500000000003
 11
2057.38695389096
 21
1357.500000000003
  0
LINE
  5
26F
100
AcDbEntity
  8
1
  6
CONTINUOUS
 62
           4
100
AcDbLine
 10
2057.38695389096
 20
1357.500000000003
 11
2057.38695389096
 21
1392.500000000003
  0
LINE
  5
26E
100
AcDbEntity
  8
1
  6
CONTINUOUS
 62
           4
100
AcDbLine
 10
2057.38695389096
 20
1392.500000000003
 11
2042.386953890961
 21
1392.500000000003
  0
LINE
  5
26D
100
AcDbEntity
  8
1
  6
CONTINUOUS
 62
           4
100
AcDbLine
 10
2042.386953890961
 20
1607.500000000003
 11
2057.38695389096
 21
1607.500000000003
  0
LINE
  5
26C
100
AcDbEntity
  8
1
  6
CONTINUOUS
 62
           4
100
AcDbLine
 10
2057.38695389096
 20
1607.500000000003
 11
2057.38695389096
 21
1642.500000000003
  0
LINE
  5
26B
100
AcDbEntity
  8
1
  6
CONTINUOUS
 62
           4
100
AcDbLine
 10
2057.38695389096
 20
1642.500000000003
 11
2042.386953890961
 21
1642.500000000003
  0
LINE
  5
26A
100
AcDbEntity
  8
1
  6
CONTINUOUS
 62
           4
100
AcDbLine
 10
2042.386953890961
 20
1838.000000000003
 11
2042.386953890961
 21
1162.000000000003
  0
LINE
  5
269
100
AcDbEntity
  8
1
  6
CONTINUOUS
 62
           4
100
AcDbLine
 10
2042.386953890961
 20
1162.000000000003
 11
2237.38695389096
 21
1162.000000000003
  0
LINE
  5
268
100
AcDbEntity
  8
1
  6
CONTINUOUS
 62
           4
100
AcDbLine
 10
2237.38695389096
 20
1162.000000000003
 11
2237.38695389096
 21
1838.000000000003
  0
LINE
  5
267
100
AcDbEntity
  8
1
  6
CONTINUOUS
 62
           4
100
AcDbLine
 10
2237.38695389096
 20
1838.000000000003
 11
2042.386953890961
 21
1838.000000000003
  0
LINE
  5
266
100
AcDbEntity
  8
1
  6
CONTINUOUS
 62
           4
100
AcDbLine
 10
3820.000000000002
 20
1454.999999999993
 11
3820.000000000002
 21
1161.999999999993
  0
LINE
  5
265
100
AcDbEntity
  8
1
  6
CONTINUOUS
 62
           4
100
AcDbLine
 10
3820.000000000002
 20
1514.999999999993
 11
3820.000000000002
 21
1484.999999999993
  0
LINE
  5
264
100
AcDbEntity
  8
1
  6
CONTINUOUS
 62
           4
100
AcDbLine
 10
3792.500000000002
 20
1454.999999999993
 11
3850.000000000002
 21
1454.999999999993
  0
LINE
  5
263
100
AcDbEntity
  8
1
  6
CONTINUOUS
 62
           4
100
AcDbLine
 10
3792.500000000002
 20
1484.999999999993
 11
3792.500000000002
 21
1454.999999999993
  0
LINE
  5
262
100
AcDbEntity
  8
1
  6
CONTINUOUS
 62
           4
100
AcDbLine
 10
3850.000000000002
 20
1484.999999999993
 11
3792.500000000002
 21
1484.999999999993
  0
LINE
  5
261
100
AcDbEntity
  8
1
  6
CONTINUOUS
 62
           4
100
AcDbLine
 10
3792.500000000002
 20
1514.999999999993
 11
3850.000000000002
 21
1514.999999999993
  0
LINE
  5
260
100
AcDbEntity
  8
1
  6
CONTINUOUS
 62
           4
100
AcDbLine
 10
3792.500000000002
 20
1544.999999999993
 11
3792.500000000002
 21
1514.999999999993
  0
LINE
  5
25F
100
AcDbEntity
  8
1
  6
CONTINUOUS
 62
           4
100
AcDbLine
 10
3850.000000000002
 20
1544.999999999993
 11
3792.500000000002
 21
1544.999999999993
  0
LINE
  5
25E
100
AcDbEntity
  8
1
  6
CONTINUOUS
 62
           4
100
AcDbLine
 10
3850.000000000002
 20
1191.999999999993
 11
3850.000000000002
 21
1291.999999999993
  0
LINE
  5
25D
100
AcDbEntity
  8
1
  6
CONTINUOUS
 62
           4
100
AcDbLine
 10
4040.000000000002
 20
1191.999999999993
 11
3850.000000000002
 21
1191.999999999993
  0
LINE
  5
25C
100
AcDbEntity
  8
1
  6
CONTINUOUS
 62
           4
100
AcDbLine
 10
4040.000000000002
 20
1291.999999999993
 11
4040.000000000002
 21
1191.999999999993
  0
LINE
  5
25B
100
AcDbEntity
  8
1
  6
CONTINUOUS
 62
           4
100
AcDbLine
 10
3850.000000000002
 20
1291.999999999993
 11
4040.000000000002
 21
1291.999999999993
  0
LINE
  5
25A
100
AcDbEntity
  8
1
  6
CONTINUOUS
 62
           4
100
AcDbLine
 10
3850.000000000002
 20
1351.999999999993
 11
3850.000000000002
 21
1647.999999999993
  0
LINE
  5
259
100
AcDbEntity
  8
1
  6
CONTINUOUS
 62
           4
100
AcDbLine
 10
4040.000000000002
 20
1351.999999999993
 11
3850.000000000002
 21
1351.999999999993
  0
LINE
  5
258
100
AcDbEntity
  8
1
  6
CONTINUOUS
 62
           4
100
AcDbLine
 10
4040.000000000002
 20
1647.999999999993
 11
4040.000000000002
 21
1351.999999999993
  0
LINE
  5
257
100
AcDbEntity
  8
1
  6
CONTINUOUS
 62
           4
100
AcDbLine
 10
3850.000000000002
 20
1647.999999999993
 11
4040.000000000002
 21
1647.999999999993
  0
LINE
  5
256
100
AcDbEntity
  8
1
  6
CONTINUOUS
 62
           4
100
AcDbLine
 10
3850.000000000002
 20
1707.999999999993
 11
3850.000000000002
 21
1807.999999999993
  0
LINE
  5
255
100
AcDbEntity
  8
1
  6
CONTINUOUS
 62
           4
100
AcDbLine
 10
4040.000000000002
 20
1707.999999999993
 11
3850.000000000002
 21
1707.999999999993
  0
LINE
  5
254
100
AcDbEntity
  8
1
  6
CONTINUOUS
 62
           4
100
AcDbLine
 10
4040.000000000002
 20
1807.999999999993
 11
4040.000000000002
 21
1707.999999999993
  0
LINE
  5
253
100
AcDbEntity
  8
1
  6
CONTINUOUS
 62
           4
100
AcDbLine
 10
3850.000000000002
 20
1807.999999999993
 11
4040.000000000002
 21
1807.999999999993
  0
LINE
  5
252
100
AcDbEntity
  8
1
  6
CONTINUOUS
 62
           4
100
AcDbLine
 10
3820.000000000002
 20
1161.999999999993
 11
4070.000000000002
 21
1161.999999999993
  0
LINE
  5
251
100
AcDbEntity
  8
1
  6
CONTINUOUS
 62
           4
100
AcDbLine
 10
4070.000000000002
 20
1161.999999999993
 11
4070.000000000002
 21
1837.999999999993
  0
LINE
  5
250
100
AcDbEntity
  8
1
  6
CONTINUOUS
 62
           4
100
AcDbLine
 10
4070.000000000002
 20
1837.999999999993
 11
3820.000000000002
 21
1837.999999999993
  0
LINE
  5
24F
100
AcDbEntity
  8
1
  6
CONTINUOUS
 62
           4
100
AcDbLine
 10
3820.000000000002
 20
1837.999999999993
 11
3820.000000000002
 21
1544.999999999993
  0
LINE
  5
24E
100
AcDbEntity
  8
1
  6
CONTINUOUS
 62
           4
100
AcDbLine
 10
4070.000000000002
 20
1677.999999999993
 11
3820.000000000002
 21
1677.999999999993
  0
LINE
  5
24D
100
AcDbEntity
  8
1
  6
CONTINUOUS
 62
           4
100
AcDbLine
 10
3820.000000000002
 20
1321.999999999993
 11
4070.000000000002
 21
1321.999999999993
  0
LINE
  5
24C
100
AcDbEntity
  8
1
  6
CONTINUOUS
 62
           4
100
AcDbLine
 10
4070.000000000002
 20
1642.499999999993
 11
4097.500000000002
 21
1642.499999999993
  0
LINE
  5
24B
100
AcDbEntity
  8
1
  6
CONTINUOUS
 62
           4
100
AcDbLine
 10
4097.500000000002
 20
1642.499999999993
 11
4097.500000000002
 21
1607.499999999993
  0
LINE
  5
24A
100
AcDbEntity
  8
1
  6
CONTINUOUS
 62
           4
100
AcDbLine
 10
4097.500000000002
 20
1607.499999999993
 11
4070.000000000002
 21
1607.499999999993
  0
LINE
  5
249
100
AcDbEntity
  8
1
  6
CONTINUOUS
 62
           4
100
AcDbLine
 10
4070.000000000002
 20
1392.499999999993
 11
4097.500000000002
 21
1392.499999999993
  0
LINE
  5
248
100
AcDbEntity
  8
1
  6
CONTINUOUS
 62
           4
100
AcDbLine
 10
4097.500000000002
 20
1392.499999999993
 11
4097.500000000002
 21
1357.499999999993
  0
LINE
  5
247
100
AcDbEntity
  8
1
  6
CONTINUOUS
 62
           4
100
AcDbLine
 10
4097.500000000002
 20
1357.499999999993
 11
4070.000000000002
 21
1357.499999999993
  0
LINE
  5
246
100
AcDbEntity
  8
1
  6
CONTINUOUS
 62
           4
100
AcDbLine
 10
3820.000000000002
 20
1357.499999999993
 11
3792.500000000002
 21
1357.499999999993
  0
LINE
  5
245
100
AcDbEntity
  8
1
  6
CONTINUOUS
 62
           4
100
AcDbLine
 10
3792.500000000002
 20
1357.499999999993
 11
3792.500000000002
 21
1392.499999999993
  0
LINE
  5
244
100
AcDbEntity
  8
1
  6
CONTINUOUS
 62
           4
100
AcDbLine
 10
3792.500000000002
 20
1392.499999999993
 11
3820.000000000002
 21
1392.499999999993
  0
LINE
  5
243
100
AcDbEntity
  8
1
  6
CONTINUOUS
 62
           4
100
AcDbLine
 10
3820.000000000002
 20
1607.499999999993
 11
3792.500000000002
 21
1607.499999999993
  0
LINE
  5
242
100
AcDbEntity
  8
1
  6
CONTINUOUS
 62
           4
100
AcDbLine
 10
3792.500000000002
 20
1607.499999999993
 11
3792.500000000002
 21
1642.499999999993
  0
LINE
  5
241
100
AcDbEntity
  8
1
  6
CONTINUOUS
 62
           4
100
AcDbLine
 10
3792.500000000002
 20
1642.499999999993
 11
3820.000000000002
 21
1642.499999999993
  0
LINE
  5
240
100
AcDbEntity
  8
1
  6
CONTINUOUS
 62
           4
100
AcDbLine
 10
2112.38695389096
 20
1524.000000000003
 11
2052.38695389096
 21
1524.000000000003
  0
LINE
  5
23F
100
AcDbEntity
  8
1
  6
CONTINUOUS
 62
           4
100
AcDbLine
 10
2052.38695389096
 20
1476.000000000003
 11
2112.38695389096
 21
1476.000000000003
  0
LINE
  5
23E
100
AcDbEntity
  8
1
  6
CONTINUOUS
 62
           4
100
AcDbLine
 10
2127.38695389096
 20
1553.500000000003
 11
2112.38695389096
 21
1553.500000000003
  0
LINE
  5
23D
100
AcDbEntity
  8
1
  6
CONTINUOUS
 62
           4
100
AcDbLine
 10
2127.38695389096
 20
1446.500000000003
 11
2127.38695389096
 21
1479.68493993661
  0
LINE
  5
23C
100
AcDbEntity
  8
1
  6
CONTINUOUS
 62
           4
100
AcDbLine
 10
2052.38695389096
 20
1450.000000000003
 11
2112.38695389096
 21
1450.000000000003
  0
LINE
  5
23B
100
AcDbEntity
  8
1
  6
CONTINUOUS
 62
           4
100
AcDbLine
 10
2112.38695389096
 20
1520.315060063397
 11
2127.38695389096
 21
1520.315060063397
  0
LINE
  5
23A
100
AcDbEntity
  8
1
  6
CONTINUOUS
 62
           4
100
AcDbLine
 10
2112.38695389096
 20
1446.500000000003
 11
2112.38695389096
 21
1553.500000000003
  0
LINE
  5
239
100
AcDbEntity
  8
1
  6
CONTINUOUS
 62
           4
100
AcDbLine
 10
2112.38695389096
 20
1479.68493993661
 11
2127.38695389096
 21
1479.68493993661
  0
LINE
  5
238
100
AcDbEntity
  8
1
  6
CONTINUOUS
 62
           4
100
AcDbLine
 10
2042.386953890961
 20
1570.000000000003
 11
2042.386953890961
 21
1430.000000000003
  0
LINE
  5
237
100
AcDbEntity
  8
1
  6
CONTINUOUS
 62
           4
100
AcDbLine
 10
2112.38695389096
 20
1550.000000000003
 11
2052.38695389096
 21
1550.000000000003
  0
LINE
  5
236
100
AcDbEntity
  8
1
  6
CONTINUOUS
 62
           4
100
AcDbLine
 10
2127.38695389096
 20
1520.315060063397
 11
2127.38695389096
 21
1553.500000000003
  0
LINE
  5
235
100
AcDbEntity
  8
1
  6
CONTINUOUS
 62
           4
100
AcDbLine
 10
2112.38695389096
 20
1446.500000000003
 11
2127.38695389096
 21
1446.500000000003
  0
LINE
  5
234
100
AcDbEntity
  8
1
  6
CONTINUOUS
 62
           4
100
AcDbLine
 10
2157.38695389096
 20
1540.000000000003
 11
2127.38695389096
 21
1540.000000000003
  0
LINE
  5
233
100
AcDbEntity
  8
1
  6
CONTINUOUS
 62
           4
100
AcDbLine
 10
2157.38695389096
 20
1460.000000000003
 11
2157.38695389096
 21
1540.000000000003
  0
LINE
  5
232
100
AcDbEntity
  8
1
  6
CONTINUOUS
 62
           4
100
AcDbLine
 10
2127.38695389096
 20
1460.000000000003
 11
2157.38695389096
 21
1460.000000000003
  0
LINE
  5
231
100
AcDbEntity
  8
1
  6
CONTINUOUS
 62
           4
100
AcDbLine
 10
2157.38695389096
 20
1470.000000000003
 11
2172.38695389096
 21
1470.000000000003
  0
LINE
  5
230
100
AcDbEntity
  8
1
  6
CONTINUOUS
 62
           4
100
AcDbLine
 10
2172.38695389096
 20
1470.000000000003
 11
2172.38695389096
 21
1515.000000000003
  0
LINE
  5
22F
100
AcDbEntity
  8
1
  6
CONTINUOUS
 62
           4
100
AcDbLine
 10
2172.38695389096
 20
1515.000000000003
 11
2157.38695389096
 21
1515.000000000003
  0
LINE
  5
22E
100
AcDbEntity
  8
1
  6
CONTINUOUS
 62
           4
100
AcDbLine
 10
2172.38695389096
 20
1510.000000000003
 11
2157.38695389096
 21
1510.000000000003
  0
LINE
  5
22D
100
AcDbEntity
  8
1
  6
CONTINUOUS
 62
           4
100
AcDbLine
 10
2157.38695389096
 20
1490.000000000003
 11
2172.38695389096
 21
1490.000000000003
  0
LINE
  5
22C
100
AcDbEntity
  8
1
  6
CONTINUOUS
 62
           4
100
AcDbLine
 10
2052.38695389096
 20
1570.000000000003
 11
2052.38695389096
 21
1430.000000000003
  0
LINE
  5
22B
100
AcDbEntity
  8
1
  6
CONTINUOUS
 62
           4
100
AcDbLine
 10
2090.38695389096
 20
1570.000000000003
 11
2042.386953890961
 21
1570.000000000003
  0
LINE
  5
22A
100
AcDbEntity
  8
1
  6
CONTINUOUS
 62
           4
100
AcDbLine
 10
2090.38695389096
 20
1550.000000000003
 11
2090.38695389096
 21
1570.000000000003
  0
LINE
  5
229
100
AcDbEntity
  8
1
  6
CONTINUOUS
 62
           4
100
AcDbLine
 10
2090.38695389096
 20
1430.000000000003
 11
2042.386953890961
 21
1430.000000000003
  0
LINE
  5
228
100
AcDbEntity
  8
1
  6
CONTINUOUS
 62
           4
100
AcDbLine
 10
2090.38695389096
 20
1450.000000000003
 11
2090.38695389096
 21
1430.000000000003
  0
LINE
  5
227
100
AcDbEntity
  8
1
  6
CONTINUOUS
 62
           4
100
AcDbLine
 10
3722.411809548978
 20
1509.659258262894
 11
3710.85786437627
 21
1514.142135623734
  0
LINE
  5
226
100
AcDbEntity
  8
1
  6
CONTINUOUS
 62
           4
100
AcDbLine
 10
3715.340741737112
 20
1502.588190451028
 11
3710.85786437627
 21
1514.142135623734
  0
LINE
  5
225
100
AcDbEntity
  8
1
  6
CONTINUOUS
 62
           4
100
AcDbLine
 10
3727.588190451027
 20
1490.340741737112
 11
3749.526896494875
 21
1468.402035693266
  0
LINE
  5
224
100
AcDbEntity
  8
1
  6
CONTINUOUS
 62
           4
100
AcDbLine
 10
3734.659258262893
 20
1497.411809548979
 11
3756.597964306739
 21
1475.473103505131
  0
LINE
  5
223
100
AcDbEntity
  8
1
  6
CONTINUOUS
 62
           4
100
AcDbLine
 10
3685.000000000002
 20
1552.867496997601
 11
3685.000000000002
 21
1570.000000000003
  0
LINE
  5
222
100
AcDbEntity
  8
1
  6
CONTINUOUS
 62
           4
100
AcDbLine
 10
3674.428932188137
 20
1536.428932188138
 11
3690.542804312878
 21
1520.315060063397
  0
LINE
  5
221
100
AcDbEntity
  8
1
  6
CONTINUOUS
 62
           4
100
AcDbLine
 10
3761.428932188137
 20
1550.57106781187
 11
3745.315060063395
 21
1534.457195687127
  0
LINE
  5
220
100
AcDbEntity
  8
1
  6
CONTINUOUS
 62
           4
100
AcDbLine
 10
3775.571067811868
 20
1463.57106781187
 11
3759.457195687126
 21
1479.68493993661
  0
LINE
  5
21F
100
AcDbEntity
  8
1
  6
CONTINUOUS
 62
           4
100
AcDbLine
 10
3704.684939936608
 20
1534.457195687127
 11
3688.571067811868
 21
1550.57106781187
  0
LINE
  5
21E
100
AcDbEntity
  8
1
  6
CONTINUOUS
 62
           4
100
AcDbLine
 10
3759.457195687126
 20
1520.315060063397
 11
3775.571067811868
 21
1536.428932188138
  0
LINE
  5
21D
100
AcDbEntity
  8
1
  6
CONTINUOUS
 62
           4
100
AcDbLine
 10
3745.315060063395
 20
1465.542804312879
 11
3761.428932188137
 21
1449.428932188138
  0
LINE
  5
21C
100
AcDbEntity
  8
1
  6
CONTINUOUS
 62
           4
100
AcDbLine
 10
3688.571067811868
 20
1449.428932188138
 11
3704.684939936608
 21
1465.542804312879
  0
LINE
  5
21B
100
AcDbEntity
  8
1
  6
CONTINUOUS
 62
           4
100
AcDbLine
 10
3690.542804312878
 20
1479.68493993661
 11
3674.428932188137
 21
1463.57106781187
  0
LINE
  5
21A
100
AcDbEntity
  8
1
  6
CONTINUOUS
 62
           4
100
AcDbLine
 10
3685.000000000002
 20
1570.000000000003
 11
3745.000000000002
 21
1570.000000000003
  0
LINE
  5
219
100
AcDbEntity
  8
1
  6
CONTINUOUS
 62
           4
100
AcDbLine
 10
3745.000000000002
 20
1570.000000000003
 11
3745.000000000002
 21
1545.825756949561
  0
LINE
  5
218
100
AcDbEntity
  8
1
  6
CONTINUOUS
 62
           4
100
AcDbLine
 10
3705.000000000002
 20
1454.174243050445
 11
3705.000000000002
 21
1430.000000000003
  0
LINE
  5
217
100
AcDbEntity
  8
1
  6
CONTINUOUS
 62
           4
100
AcDbLine
 10
3705.000000000002
 20
1430.000000000003
 11
3765.000000000002
 21
1430.000000000003
  0
LINE
  5
216
100
AcDbEntity
  8
1
  6
CONTINUOUS
 62
           4
100
AcDbLine
 10
3765.000000000002
 20
1430.000000000003
 11
3765.000000000002
 21
1447.132503002406
  0
LINE
  5
215
100
AcDbEntity
  8
1
  6
CONTINUOUS
 62
           4
100
AcDbLine
 10
3745.000000000002
 20
1454.174243050445
 11
3745.000000000002
 21
1430.000000000003
  0
LINE
  5
214
100
AcDbEntity
  8
1
  6
CONTINUOUS
 62
           4
100
AcDbLine
 10
3705.000000000002
 20
1570.000000000003
 11
3705.000000000002
 21
1545.825756949561
  0
LINE
  5
213
100
AcDbEntity
  8
1
  6
CONTINUOUS
 62
           4
100
AcDbLine
 10
371.819615643745
 20
5194.500000000003
 11
355.295656653005
 21
5194.500000000003
  0
LINE
  5
212
100
AcDbEntity
  8
1
  6
CONTINUOUS
 62
           4
100
AcDbLine
 10
371.819615643745
 20
5309.500000000003
 11
355.295656653005
 21
5309.500000000003
  0
LINE
  5
211
100
AcDbEntity
  8
1
  6
CONTINUOUS
 62
           7
100
AcDbLine
 10
422.386953890961
 20
5188.500000000003
 11
382.211920489155
 21
5188.500000000003
  0
LINE
  5
210
100
AcDbEntity
  8
1
  6
CONTINUOUS
 62
           7
100
AcDbLine
 10
382.211920489155
 20
5315.500000000003
 11
422.386953890961
 21
5315.500000000003
  0
LINE
  5
20F
100
AcDbEntity
  8
1
  6
CONTINUOUS
 62
           7
100
AcDbLine
 10
370.211920489155
 20
5200.500000000003
 11
370.211920489155
 21
5303.500000000003
  0
LINE
  5
20E
100
AcDbEntity
  8
1
  6
CONTINUOUS
 62
           7
100
AcDbLine
 10
434.386953890961
 20
5303.500000000003
 11
434.386953890961
 21
5200.500000000003
  0
LINE
  5
20D
100
AcDbEntity
  8
1
  6
DOT_CENTER
 62
           2
100
AcDbLine
 10
-127.613046109041
 20
5895.027293831617
 11
-127.613046109041
 21
5448.695406410117
  0
LINE
  5
20C
100
AcDbEntity
  8
1
  6
CONTINUOUS
 62
           7
100
AcDbLine
 10
463.386953890961
 20
5026.000000000001
 11
463.386953890961
 21
5512.000000000001
  0
LINE
  5
20B
100
AcDbEntity
  8
1
  6
CONTINUOUS
 62
           7
100
AcDbLine
 10
11.386953890961
 20
5026.000000000001
 11
497.386953890961
 21
5026.000000000001
  0
LINE
  5
20A
100
AcDbEntity
  8
1
  6
CONTINUOUS
 62
           7
100
AcDbLine
 10
463.386953890961
 20
5478.000000000001
 11
-22.613046109039
 21
5478.000000000001
  0
LINE
  5
209
100
AcDbEntity
  8
1
  6
CONTINUOUS
 62
           7
100
AcDbLine
 10
11.386953890961
 20
5478.000000000001
 11
11.386953890961
 21
4992.000000000001
  0
LINE
  5
208
100
AcDbEntity
  8
0
  6
CONTINUOUS
 62
           7
100
AcDbLine
 10
268.111710781041
 20
5698.783160015505
 11
237.386953890959
 21
5752.000000000001
  0
LINE
  5
207
100
AcDbEntity
  8
0
  6
CONTINUOUS
 62
           7
100
AcDbLine
 10
-492.613046109041
 20
5752.000000000001
 11
-500.613046109041
 21
5742.000000000001
  0
LINE
  5
206
100
AcDbEntity
  8
0
  6
CONTINUOUS
 62
           7
100
AcDbLine
 10
-500.613046109041
 20
5742.000000000001
 11
-500.613046109041
 21
5292.000000000001
  0
LINE
  5
205
100
AcDbEntity
  8
0
  6
CONTINUOUS
 62
           7
100
AcDbLine
 10
-492.613046109041
 20
5762.000000000001
 11
-492.613046109041
 21
5752.000000000001
  0
LINE
  5
204
100
AcDbEntity
  8
1
  6
CONTINUOUS
 62
           7
100
AcDbLine
 10
237.386953890959
 20
5752.000000000001
 11
237.386953890959
 21
5762.000000000001
  0
LINE
  5
203
100
AcDbEntity
  8
0
  6
CONTINUOUS
 62
           7
100
AcDbLine
 10
237.386953890959
 20
5752.000000000001
 11
237.386953890959
 21
5762.000000000001
  0
LINE
  5
202
100
AcDbEntity
  8
1
  6
CONTINUOUS
 62
           7
100
AcDbLine
 10
-491.729928563356
 20
5252.883117545688
 11
17.386953890959
 21
5762.000000000001
  0
LINE
  5
201
100
AcDbEntity
  8
1
  6
CONTINUOUS
 62
           7
100
AcDbLine
 10
733.386953890957
 20
5360.000159772889
 11
419.386953890957
 21
5674.000000000001
  0
LINE
  5
200
100
AcDbEntity
  8
1
  6
CONTINUOUS
 62
           7
100
AcDbLine
 10
-491.729928563356
 20
5252.883117545688
 11
174.364659314371
 21
4586.788529667959
  0
LINE
  5
1FF
100
AcDbEntity
  8
1
  6
CONTINUOUS
 62
           7
100
AcDbLine
 10
764.798821605138
 20
5177.222691958726
 11
174.364659314371
 21
4586.788529667959
  0
LINE
  5
1FE
100
AcDbEntity
  8
1
  6
CONTINUOUS
 62
           7
100
AcDbLine
 10
-531.613046109041
 20
5837.000000000001
 11
-526.613046109041
 21
5841.999999999999
  0
LINE
  5
1FD
100
AcDbEntity
  8
1
  6
CONTINUOUS
 62
           7
100
AcDbLine
 10
278.386953890959
 20
5837.000000000001
 11
273.386953890959
 21
5842.000000000001
  0
LINE
  5
1FC
100
AcDbEntity
  8
1
  6
CONTINUOUS
 62
           7
100
AcDbLine
 10
-526.613046109041
 20
5841.999999999999
 11
273.386953890959
 21
5842.000000000001
  0
LINE
  5
1FB
100
AcDbEntity
  8
1
  6
CONTINUOUS
 62
           7
100
AcDbLine
 10
-531.613046109041
 20
5802.000000000001
 11
-531.613046109041
 21
5837.000000000001
  0
LINE
  5
1FA
100
AcDbEntity
  8
1
  6
CONTINUOUS
 62
           7
100
AcDbLine
 10
278.386953890959
 20
5837.000000000001
 11
278.386953890959
 21
5802.000000000001
  0
LINE
  5
1F9
100
AcDbEntity
  8
1
  6
CONTINUOUS
 62
           4
100
AcDbLine
 10
-531.613046109041
 20
5806.499999999999
 11
278.386953890959
 21
5806.500000000001
  0
LINE
  5
1F8
100
AcDbEntity
  8
1
  6
CONTINUOUS
 62
           4
100
AcDbLine
 10
278.386953890959
 20
5797.500000000001
 11
-531.613046109041
 21
5797.500000000001
  0
LINE
  5
1F7
100
AcDbEntity
  8
1
  6
CONTINUOUS
 62
           7
100
AcDbLine
 10
278.386953890959
 20
5802.000000000001
 11
278.386953890959
 21
5767.000000000001
  0
LINE
  5
1F6
100
AcDbEntity
  8
1
  6
CONTINUOUS
 62
           7
100
AcDbLine
 10
-531.613046109041
 20
5767.000000000001
 11
-531.613046109041
 21
5802.000000000001
  0
LINE
  5
1F5
100
AcDbEntity
  8
1
  6
CONTINUOUS
 62
           7
100
AcDbLine
 10
273.386953890959
 20
5762.000000000001
 11
-526.613046109041
 21
5762.000000000001
  0
LINE
  5
1F4
100
AcDbEntity
  8
1
  6
CONTINUOUS
 62
           7
100
AcDbLine
 10
273.386953890959
 20
5762.000000000001
 11
278.386953890959
 21
5767.000000000001
  0
LINE
  5
1F3
100
AcDbEntity
  8
1
  6
CONTINUOUS
 62
           7
100
AcDbLine
 10
-526.613046109041
 20
5762.000000000001
 11
-531.613046109041
 21
5767.000000000001
  0
LINE
  5
1F2
100
AcDbEntity
  8
1
  6
CONTINUOUS
 62
           7
100
AcDbLine
 10
-531.613046109041
 20
5802.000000000001
 11
278.386953890959
 21
5802.000000000001
  0
LINE
  5
1F1
100
AcDbEntity
  8
976
  6
CONTINUOUS
 62
           7
100
AcDbLine
 10
724.886953890961
 20
2165.3
 11
-502.613046109041
 21
2165.3
  0
LINE
  5
1F0
100
AcDbEntity
  8
1
  6
CONTINUOUS
 62
           7
100
AcDbLine
 10
759.975086176779
 20
2196.000000000001
 11
759.975086176779
 21
2660.503984566909
  0
LINE
  5
1EF
100
AcDbEntity
  8
1
  6
CONTINUOUS
 62
           7
100
AcDbLine
 10
434.386953890961
 20
2903.499999999997
 11
434.386953890961
 21
2827.499999999996
  0
LINE
  5
1EE
100
AcDbEntity
  8
1
  6
CONTINUOUS
 62
           7
100
AcDbLine
 10
359.88335069096
 20
2827.499999999996
 11
359.88335069096
 21
2903.499999999997
  0
LINE
  5
1ED
100
AcDbEntity
  8
1
  6
CONTINUOUS
 62
           7
100
AcDbLine
 10
371.88335069096
 20
2915.499999999996
 11
422.386953890961
 21
2915.499999999996
  0
LINE
  5
1EC
100
AcDbEntity
  8
1
  6
CONTINUOUS
 62
           7
100
AcDbLine
 10
422.386953890961
 20
2815.499999999996
 11
371.88335069096
 21
2815.499999999996
  0
LINE
  5
1EB
100
AcDbEntity
  8
7
  6
CONTINUOUS
 62
           7
100
AcDbLine
 10
144.003536290959
 20
3065.483396000001
 11
119.40954229096
 21
3047.395737200001
  0
LINE
  5
1EA
100
AcDbEntity
  8
7
  6
CONTINUOUS
 62
           7
100
AcDbLine
 10
112.386953890959
 20
2975.186819199999
 11
112.386953890959
 21
3008.231865248044
  0
LINE
  5
1E9
100
AcDbEntity
  8
7
  6
CONTINUOUS
 62
           7
100
AcDbLine
 10
362.386953890959
 20
2975.186819199999
 11
112.386953890959
 21
2975.186819199999
  0
LINE
  5
1E8
100
AcDbEntity
  8
7
  6
CONTINUOUS
 62
           7
100
AcDbLine
 10
358.78695389096
 20
3041.360000000002
 11
362.386953890959
 21
3008.231865248044
  0
LINE
  5
1E7
100
AcDbEntity
  8
7
  6
CONTINUOUS
 62
           7
100
AcDbLine
 10
117.19652629096
 20
3045.200000000002
 11
354.946953890958
 21
3045.200000000002
  0
LINE
  5
1E6
100
AcDbEntity
  8
7
  6
CONTINUOUS
 62
           7
100
AcDbLine
 10
327.770370290959
 20
3065.483396000001
 11
352.518194690958
 21
3045.634035200003
  0
LINE
  5
1E5
100
AcDbEntity
  8
7
  6
CONTINUOUS
 62
           7
100
AcDbLine
 10
148.866953890958
 20
3071.0
 11
322.906953890959
 21
3071.0
  0
LINE
  5
1E4
100
AcDbEntity
  8
2
  6
CONTINUOUS
 62
           7
100
AcDbLine
 10
359.88335069096
 20
2740.403984566909
 11
346.62932429096
 21
2708.603984566908
  0
LINE
  5
1E3
100
AcDbEntity
  8
2
  6
CONTINUOUS
 62
           7
100
AcDbLine
 10
359.88335069096
 20
2740.403984566909
 11
359.88335069096
 21
2961.3868192
  0
LINE
  5
1E2
100
AcDbEntity
  8
2
  6
CONTINUOUS
 62
           4
100
AcDbLine
 10
346.62932429096
 20
2708.603984566908
 11
125.144583490959
 21
2708.603984566908
  0
LINE
  5
1E1
100
AcDbEntity
  8
2
  6
CONTINUOUS
 62
           7
100
AcDbLine
 10
359.88335069096
 20
2961.3868192
 11
354.131603090959
 21
2975.186819199999
  0
LINE
  5
1E0
100
AcDbEntity
  8
2
  6
CONTINUOUS
 62
           4
100
AcDbLine
 10
130.326953890959
 20
2708.603984566908
 11
130.326953890959
 21
2704.503984566908
  0
LINE
  5
1DF
100
AcDbEntity
  8
2
  6
CONTINUOUS
 62
           7
100
AcDbLine
 10
111.890557090959
 20
2740.403984566909
 11
111.890557090959
 21
2961.3868192
  0
LINE
  5
1DE
100
AcDbEntity
  8
2
  6
CONTINUOUS
 62
           7
100
AcDbLine
 10
117.642304690959
 20
2975.186819199999
 11
111.890557090959
 21
2961.3868192
  0
LINE
  5
1DD
100
AcDbEntity
  8
2
  6
CONTINUOUS
 62
           7
100
AcDbLine
 10
125.144583490959
 20
2708.603984566908
 11
111.890557090959
 21
2740.403984566909
  0
LINE
  5
1DC
100
AcDbEntity
  8
1
  6
CONTINUOUS
 62
           7
100
AcDbLine
 10
362.386953890959
 20
3008.231865248044
 11
112.386953890959
 21
3008.231865248044
  0
LINE
  5
1DB
100
AcDbEntity
  8
7
  6
CONTINUOUS
 62
           7
100
AcDbLine
 10
112.386953890959
 20
3008.231865248044
 11
115.986953890959
 21
3041.133628400001
  0
LINE
  5
1DA
100
AcDbEntity
  8
7
  6
CONTINUOUS
 62
           7
100
AcDbLine
 10
362.386953890959
 20
3008.231865248044
 11
362.386953890959
 21
2975.186819199999
  0
LINE
  5
1D9
100
AcDbEntity
  8
2
  6
CONTINUOUS
 62
           4
100
AcDbLine
 10
341.446953890958
 20
2704.503984566908
 11
341.446953890958
 21
2708.603984566908
  0
LINE
  5
1D8
100
AcDbEntity
  8
1
  6
CONTINUOUS
 62
           2
100
AcDbLine
 10
-393.206078166215
 20
2593.0
 11
-393.206078166215
 21
2233.0
  0
LINE
  5
1D7
100
AcDbEntity
  8
1
  6
CONTINUOUS
 62
           2
100
AcDbLine
 10
-75.773846765629
 20
2593.0
 11
-393.206078166215
 21
2593.0
  0
LINE
  5
1D6
100
AcDbEntity
  8
1
  6
CONTINUOUS
 62
           2
100
AcDbLine
 10
-75.773846765629
 20
2233.0
 11
-75.773846765629
 21
2593.0
  0
LINE
  5
1D5
100
AcDbEntity
  8
1
  6
CONTINUOUS
 62
           2
100
AcDbLine
 10
-393.206078166215
 20
2233.0
 11
-75.773846765629
 21
2233.0
  0
LINE
  5
1D4
100
AcDbEntity
  8
976
  6
CONTINUOUS
 62
           7
100
AcDbLine
 10
-493.729928563354
 20
2165.5
 11
-493.729928563354
 21
2150.7
  0
LINE
  5
1D3
100
AcDbEntity
  8
976
  6
CONTINUOUS
 62
           7
100
AcDbLine
 10
-493.729928563354
 20
2698.503984566909
 11
-493.729928563354
 21
2660.503984566909
  0
LINE
  5
1D2
100
AcDbEntity
  8
1
  6
CONTINUOUS
 62
           7
100
AcDbLine
 10
-492.613046109041
 20
2165.3
 11
-492.613046109041
 21
2660.503984566909
  0
LINE
  5
1D1
100
AcDbEntity
  8
1
  6
CONTINUOUS
 62
           4
100
AcDbLine
 10
-512.613046109041
 20
2160.2
 11
-533.613046109039
 21
2160.2
  0
LINE
  5
1D0
100
AcDbEntity
  8
1
  6
CONTINUOUS
 62
           7
100
AcDbLine
 10
-512.613046109041
 20
2164.699999999999
 11
-533.613046109039
 21
2164.699999999999
  0
LINE
  5
1CF
100
AcDbEntity
  8
1
  6
CONTINUOUS
 62
           2
100
AcDbLine
 10
759.975086176779
 20
2593.0
 11
721.068669654522
 21
2593.0
  0
LINE
  5
1CE
100
AcDbEntity
  8
1
  6
CONTINUOUS
 62
           2
100
AcDbLine
 10
721.068669654522
 20
2593.0
 11
721.068669654522
 21
2233.0
  0
LINE
  5
1CD
100
AcDbEntity
  8
1
  6
CONTINUOUS
 62
           2
100
AcDbLine
 10
721.068669654522
 20
2233.0
 11
759.975086176779
 21
2233.0
  0
LINE
  5
1CC
100
AcDbEntity
  8
976
  6
CONTINUOUS
 62
           7
100
AcDbLine
 10
767.386953890959
 20
2698.503984566909
 11
-493.729928563354
 21
2698.503984566909
  0
LINE
  5
1CB
100
AcDbEntity
  8
976
  6
CONTINUOUS
 62
           7
100
AcDbLine
 10
174.364659314371
 20
2165.5
 11
174.364659314371
 21
2150.7
  0
LINE
  5
1CA
100
AcDbEntity
  8
976
  6
CONTINUOUS
 62
           7
100
AcDbLine
 10
174.364659314371
 20
2698.503984566909
 11
174.364659314371
 21
2660.503984566909
  0
LINE
  5
1C9
100
AcDbEntity
  8
976
  6
CONTINUOUS
 62
           7
100
AcDbLine
 10
735.975086176779
 20
2698.503984566909
 11
735.975086176779
 21
2660.503984566909
  0
LINE
  5
1C8
100
AcDbEntity
  8
1
  6
CONTINUOUS
 62
           4
100
AcDbLine
 10
-533.613046109039
 20
2665.80398456691
 11
-512.613046109041
 21
2665.80398456691
  0
LINE
  5
1C7
100
AcDbEntity
  8
1
  6
CONTINUOUS
 62
           7
100
AcDbLine
 10
-533.613046109039
 20
2701.30398456691
 11
-512.613046109041
 21
2701.30398456691
  0
LINE
  5
1C6
100
AcDbEntity
  8
1
  6
CONTINUOUS
 62
           7
100
AcDbLine
 10
-533.613046109039
 20
2661.30398456691
 11
-512.613046109041
 21
2661.30398456691
  0
LINE
  5
1C5
100
AcDbEntity
  8
976
  6
CONTINUOUS
 62
           7
100
AcDbLine
 10
769.975086176779
 20
2660.503984566908
 11
-502.613046109041
 21
2660.503984566908
  0
LINE
  5
1C4
100
AcDbEntity
  8
1
  6
CONTINUOUS
 62
           4
100
AcDbLine
 10
497.386953890959
 20
2698.503984566909
 11
497.386953890959
 21
2699.503984566909
  0
LINE
  5
1C3
100
AcDbEntity
  8
1
  6
CONTINUOUS
 62
           4
100
AcDbLine
 10
-22.613046109041
 20
2698.503984566909
 11
-22.613046109041
 21
2699.503984566909
  0
LINE
  5
1C2
100
AcDbEntity
  8
1
  6
CONTINUOUS
 62
           4
100
AcDbLine
 10
-22.613046109041
 20
2699.503984566909
 11
-17.613046109041
 21
2704.503984566909
  0
LINE
  5
1C1
100
AcDbEntity
  8
1
  6
CONTINUOUS
 62
           4
100
AcDbLine
 10
492.386953890959
 20
2704.503984566909
 11
-17.613046109041
 21
2704.503984566909
  0
LINE
  5
1C0
100
AcDbEntity
  8
1
  6
CONTINUOUS
 62
           4
100
AcDbLine
 10
492.386953890959
 20
2704.503984566909
 11
497.386953890959
 21
2699.503984566909
  0
LINE
  5
1BF
100
AcDbEntity
  8
976
  6
CONTINUOUS
 62
           7
100
AcDbLine
 10
767.386953890959
 20
2698.503984566909
 11
767.386953890959
 21
2660.503984566909
  0
LINE
  5
1BE
100
AcDbEntity
  8
1
  6
CONTINUOUS
 62
           7
100
AcDbLine
 10
-533.613046109039
 20
2150.5
 11
-533.613046109039
 21
2701.30398456691
  0
LINE
  5
1BD
100
AcDbEntity
  8
2
  6
CONTINUOUS
 62
           7
100
AcDbLine
 10
5262.496396800001
 20
2739.6
 11
5262.496396800001
 21
2961.386819200001
  0
LINE
  5
1BC
100
AcDbEntity
  8
7
  6
CONTINUOUS
 62
           7
100
AcDbLine
 10
5265.0
 20
3008.231865248044
 11
5265.0
 21
2975.1868192
  0
LINE
  5
1BB
100
AcDbEntity
  8
7
  6
CONTINUOUS
 62
           7
100
AcDbLine
 10
5015.0
 20
3008.231865248044
 11
5018.600000000006
 21
3041.133628400001
  0
LINE
  5
1BA
100
AcDbEntity
  8
1
  6
CONTINUOUS
 62
           7
100
AcDbLine
 10
5265.0
 20
3008.231865248044
 11
5015.0
 21
3008.231865248044
  0
LINE
  5
1B9
100
AcDbEntity
  8
2
  6
CONTINUOUS
 62
           7
100
AcDbLine
 10
5027.757629600001
 20
2707.799999999999
 11
5014.503603199999
 21
2739.6
  0
LINE
  5
1B8
100
AcDbEntity
  8
2
  6
CONTINUOUS
 62
           7
100
AcDbLine
 10
5014.503603199999
 20
2961.386819200001
 11
5014.503603199999
 21
2739.6
  0
LINE
  5
1B7
100
AcDbEntity
  8
2
  6
CONTINUOUS
 62
           7
100
AcDbLine
 10
5020.255350800002
 20
2975.1868192
 11
5014.503603199999
 21
2961.386819200001
  0
LINE
  5
1B6
100
AcDbEntity
  8
2
  6
CONTINUOUS
 62
           4
100
AcDbLine
 10
5032.940000000002
 20
2707.799999999999
 11
5032.940000000002
 21
2703.699999999999
  0
LINE
  5
1B5
100
AcDbEntity
  8
2
  6
CONTINUOUS
 62
           7
100
AcDbLine
 10
5262.496396800001
 20
2961.386819200001
 11
5256.744649200002
 21
2975.1868192
  0
LINE
  5
1B4
100
AcDbEntity
  8
2
  6
CONTINUOUS
 62
           4
100
AcDbLine
 10
5249.242370400003
 20
2707.799999999999
 11
5027.757629600001
 21
2707.799999999999
  0
LINE
  5
1B3
100
AcDbEntity
  8
2
  6
CONTINUOUS
 62
           7
100
AcDbLine
 10
5262.496396800001
 20
2739.6
 11
5249.242370400003
 21
2707.799999999999
  0
LINE
  5
1B2
100
AcDbEntity
  8
7
  6
CONTINUOUS
 62
           7
100
AcDbLine
 10
5140.000000000004
 20
3071.0
 11
5225.520000000004
 21
3071.0
  0
LINE
  5
1B1
100
AcDbEntity
  8
7
  6
CONTINUOUS
 62
           7
100
AcDbLine
 10
5230.383416400004
 20
3065.483396000001
 11
5255.131240800001
 21
3045.634035200002
  0
LINE
  5
1B0
100
AcDbEntity
  8
7
  6
CONTINUOUS
 62
           7
100
AcDbLine
 10
5019.809572400001
 20
3045.200000000002
 11
5257.560000000001
 21
3045.200000000002
  0
LINE
  5
1AF
100
AcDbEntity
  8
7
  6
CONTINUOUS
 62
           7
100
AcDbLine
 10
5261.400000000005
 20
3041.360000000002
 11
5265.0
 21
3008.231865248044
  0
LINE
  5
1AE
100
AcDbEntity
  8
7
  6
CONTINUOUS
 62
           7
100
AcDbLine
 10
5265.0
 20
2975.1868192
 11
5015.0
 21
2975.1868192
  0
LINE
  5
1AD
100
AcDbEntity
  8
7
  6
CONTINUOUS
 62
           7
100
AcDbLine
 10
5015.0
 20
2975.1868192
 11
5015.0
 21
3008.231865248044
  0
LINE
  5
1AC
100
AcDbEntity
  8
7
  6
CONTINUOUS
 62
           7
100
AcDbLine
 10
5140.000000000004
 20
3071.0
 11
5051.480000000003
 21
3071.0
  0
LINE
  5
1AB
100
AcDbEntity
  8
7
  6
CONTINUOUS
 62
           7
100
AcDbLine
 10
5046.616582400002
 20
3065.483396000001
 11
5022.022588400003
 21
3047.3957372
  0
LINE
  5
1AA
100
AcDbEntity
  8
1
  6
CONTINUOUS
 62
           7
100
AcDbLine
 10
5191.500000000004
 20
2815.5
 11
5088.500000000004
 21
2815.5
  0
LINE
  5
1A9
100
AcDbEntity
  8
1
  6
CONTINUOUS
 62
           7
100
AcDbLine
 10
5088.500000000004
 20
2915.5
 11
5191.500000000004
 21
2915.5
  0
LINE
  5
1A8
100
AcDbEntity
  8
1
  6
CONTINUOUS
 62
           7
100
AcDbLine
 10
5076.500000000004
 20
2827.5
 11
5076.500000000004
 21
2903.5
  0
LINE
  5
1A7
100
AcDbEntity
  8
1
  6
CONTINUOUS
 62
           7
100
AcDbLine
 10
5203.500000000004
 20
2903.5
 11
5203.500000000004
 21
2827.5
  0
LINE
  5
1A6
100
AcDbEntity
  8
2
  6
CONTINUOUS
 62
           4
100
AcDbLine
 10
5244.060000000001
 20
2703.699999999999
 11
5244.060000000001
 21
2707.799999999999
  0
LINE
  5
1A5
100
AcDbEntity
  8
1
  6
CONTINUOUS
 62
           7
100
AcDbLine
 10
5730.0
 20
2665.0
 11
5730.0
 21
2161.0
  0
LINE
  5
1A4
100
AcDbEntity
  8
976
  6
CONTINUOUS
 62
           7
100
AcDbLine
 10
5650.0
 20
2659.699999999999
 11
4464.788529667963
 21
2659.699999999999
  0
LINE
  5
1A3
100
AcDbEntity
  8
1
  6
CONTINUOUS
 62
           7
100
AcDbLine
 10
5730.0
 20
2165.5
 11
5690.0
 21
2165.5
  0
LINE
  5
1A2
100
AcDbEntity
  8
1
  6
CONTINUOUS
 62
           4
100
AcDbLine
 10
5695.5
 20
2665.0
 11
5730.0
 21
2665.0
  0
LINE
  5
1A1
100
AcDbEntity
  8
1
  6
CONTINUOUS
 62
           2
100
AcDbLine
 10
5275.51345600091
 20
2593.0
 11
4864.48654399909
 21
2593.0
  0
LINE
  5
1A0
100
AcDbEntity
  8
1
  6
CONTINUOUS
 62
           2
100
AcDbLine
 10
5275.51345600091
 20
2233.0
 11
5275.51345600091
 21
2593.0
  0
LINE
  5
19F
100
AcDbEntity
  8
1
  6
CONTINUOUS
 62
           2
100
AcDbLine
 10
4864.48654399909
 20
2233.0
 11
5275.51345600091
 21
2233.0
  0
LINE
  5
19E
100
AcDbEntity
  8
1
  6
CONTINUOUS
 62
           2
100
AcDbLine
 10
4864.48654399909
 20
2593.0
 11
4864.48654399909
 21
2233.0
  0
LINE
  5
19D
100
AcDbEntity
  8
976
  6
CONTINUOUS
 62
           7
100
AcDbLine
 10
5248.000159772892
 20
2128.300000000003
 11
5646.440677966104
 21
2128.300000000001
  0
LINE
  5
19C
100
AcDbEntity
  8
976
  6
CONTINUOUS
 62
           7
100
AcDbLine
 10
5065.22269195873
 20
2128.300000000003
 11
5065.222691958727
 21
2166.300000000003
  0
LINE
  5
19B
100
AcDbEntity
  8
976
  6
CONTINUOUS
 62
           7
100
AcDbLine
 10
5248.000159772892
 20
2128.300000000003
 11
5248.000159772892
 21
2166.300000000003
  0
LINE
  5
19A
100
AcDbEntity
  8
976
  6
CONTINUOUS
 62
           7
100
AcDbLine
 10
5562.000000000004
 20
2128.300000000003
 11
5562.0
 21
2166.300000000003
  0
LINE
  5
199
100
AcDbEntity
  8
976
  6
CONTINUOUS
 62
           7
100
AcDbLine
 10
5065.22269195873
 20
2697.699999999999
 11
4464.788529667963
 21
2697.699999999999
  0
LINE
  5
198
100
AcDbEntity
  8
976
  6
CONTINUOUS
 62
           7
100
AcDbLine
 10
5065.222691958727
 20
2659.699999999999
 11
5065.22269195873
 21
2697.699999999999
  0
LINE
  5
197
100
AcDbEntity
  8
976
  6
CONTINUOUS
 62
           7
100
AcDbLine
 10
5248.000159772892
 20
2659.699999999999
 11
5248.000159772892
 21
2697.699999999999
  0
LINE
  5
196
100
AcDbEntity
  8
976
  6
CONTINUOUS
 62
           7
100
AcDbLine
 10
5562.0
 20
2659.699999999999
 11
5562.000000000004
 21
2697.699999999999
  0
LINE
  5
195
100
AcDbEntity
  8
976
  6
CONTINUOUS
 62
           7
100
AcDbLine
 10
5650.0
 20
2659.699999999999
 11
5650.000000000004
 21
2692.699999999999
  0
LINE
  5
194
100
AcDbEntity
  8
1
  6
CONTINUOUS
 62
           4
100
AcDbLine
 10
5684.5
 20
2161.0
 11
5650.0
 21
2161.0
  0
LINE
  5
193
100
AcDbEntity
  8
1
  6
CONTINUOUS
 62
           7
100
AcDbLine
 10
5695.5
 20
2165.5
 11
5730.0
 21
2165.5
  0
LINE
  5
192
100
AcDbEntity
  8
1
  6
CONTINUOUS
 62
           4
100
AcDbLine
 10
5685.5
 20
2125.5
 11
5690.0
 21
2125.5
  0
LINE
  5
191
100
AcDbEntity
  8
1
  6
CONTINUOUS
 62
           4
100
AcDbLine
 10
5685.5
 20
2160.0
 11
5685.5
 21
2125.5
  0
LINE
  5
190
100
AcDbEntity
  8
1
  6
CONTINUOUS
 62
           4
100
AcDbLine
 10
5730.0
 20
2161.0
 11
5695.5
 21
2161.0
  0
LINE
  5
18F
100
AcDbEntity
  8
1
  6
CONTINUOUS
 62
           4
100
AcDbLine
 10
5694.5
 20
2125.5
 11
5694.5
 21
2160.0
  0
LINE
  5
18E
100
AcDbEntity
  8
1
  6
CONTINUOUS
 62
           4
100
AcDbLine
 10
5690.0
 20
2125.5
 11
5694.5
 21
2125.5
  0
LINE
  5
18D
100
AcDbEntity
  8
1
  6
CONTINUOUS
 62
           4
100
AcDbLine
 10
5650.0
 20
2665.0
 11
5684.5
 21
2665.0
  0
LINE
  5
18C
100
AcDbEntity
  8
1
  6
CONTINUOUS
 62
           4
100
AcDbLine
 10
5685.5
 20
2700.5
 11
5685.5
 21
2666.0
  0
LINE
  5
18B
100
AcDbEntity
  8
1
  6
CONTINUOUS
 62
           4
100
AcDbLine
 10
5690.0
 20
2700.5
 11
5685.5
 21
2700.5
  0
LINE
  5
18A
100
AcDbEntity
  8
1
  6
CONTINUOUS
 62
           4
100
AcDbLine
 10
5694.5
 20
2700.5
 11
5690.0
 21
2700.5
  0
LINE
  5
189
100
AcDbEntity
  8
1
  6
CONTINUOUS
 62
           4
100
AcDbLine
 10
5694.5
 20
2666.0
 11
5694.5
 21
2700.5
  0
LINE
  5
188
100
AcDbEntity
  8
1
  6
CONTINUOUS
 62
           7
100
AcDbLine
 10
5690.0
 20
2700.5
 11
5690.0
 21
2125.5
  0
LINE
  5
187
100
AcDbEntity
  8
1
  6
CONTINUOUS
 62
           4
100
AcDbLine
 10
5694.300000000003
 20
2165.5
 11
5694.300000000003
 21
2660.5
  0
LINE
  5
186
100
AcDbEntity
  8
1
  6
CONTINUOUS
 62
           4
100
AcDbLine
 10
5685.700000000001
 20
2660.5
 11
5685.700000000001
 21
2165.5
  0
LINE
  5
185
100
AcDbEntity
  8
1
  6
CONTINUOUS
 62
           7
100
AcDbLine
 10
5690.0
 20
2165.5
 11
5650.0
 21
2165.5
  0
LINE
  5
184
100
AcDbEntity
  8
1
  6
CONTINUOUS
 62
           7
100
AcDbLine
 10
5650.0
 20
2660.5
 11
5690.0
 21
2660.5
  0
LINE
  5
183
100
AcDbEntity
  8
1
  6
CONTINUOUS
 62
           7
100
AcDbLine
 10
5650.0
 20
2161.0
 11
5650.0
 21
2665.0
  0
LINE
  5
182
100
AcDbEntity
  8
1
  6
CONTINUOUS
 62
           7
100
AcDbLine
 10
5690.0
 20
2660.5
 11
5730.0
 21
2660.5
  0
LINE
  5
181
100
AcDbEntity
  8
1
  6
CONTINUOUS
 62
           7
100
AcDbLine
 10
4510.0
 20
2659.699999999999
 11
4510.0
 21
2166.300000000001
  0
LINE
  5
180
100
AcDbEntity
  8
1
  6
CONTINUOUS
 62
           7
100
AcDbLine
 10
5650.0
 20
2165.5
 11
5684.5
 21
2165.5
  0
LINE
  5
17F
100
AcDbEntity
  8
1
  6
CONTINUOUS
 62
           7
100
AcDbLine
 10
5684.5
 20
2660.5
 11
5650.0
 21
2660.5
  0
LINE
  5
17E
100
AcDbEntity
  8
1
  6
CONTINUOUS
 62
           7
100
AcDbLine
 10
5730.0
 20
2660.5
 11
5695.5
 21
2660.5
  0
LINE
  5
17D
100
AcDbEntity
  8
1
  6
CONTINUOUS
 62
           7
100
AcDbLine
 10
5650.0
 20
2133.300000000001
 11
5646.440677966104
 21
2128.300000000001
  0
LINE
  5
17C
100
AcDbEntity
  8
1
  6
CONTINUOUS
 62
           7
100
AcDbLine
 10
5650.000000000004
 20
2692.699999999999
 11
5646.440677966104
 21
2697.699999999999
  0
LINE
  5
17B
100
AcDbEntity
  8
976
  6
CONTINUOUS
 62
           7
100
AcDbLine
 10
4464.788529667963
 20
2128.300000000001
 11
4464.788529667963
 21
2166.300000000001
  0
LINE
  5
17A
100
AcDbEntity
  8
976
  6
CONTINUOUS
 62
           7
100
AcDbLine
 10
4464.788529667963
 20
2659.699999999999
 11
4464.788529667963
 21
2697.699999999999
  0
LINE
  5
179
100
AcDbEntity
  8
976
  6
CONTINUOUS
 62
           7
100
AcDbLine
 10
4464.788529667963
 20
2128.300000000001
 11
5065.22269195873
 21
2128.300000000003
  0
LINE
  5
178
100
AcDbEntity
  8
976
  6
CONTINUOUS
 62
           7
100
AcDbLine
 10
5650.0
 20
2166.300000000001
 11
5650.0
 21
2133.300000000001
  0
LINE
  5
177
100
AcDbEntity
  8
976
  6
CONTINUOUS
 62
           7
100
AcDbLine
 10
5650.0
 20
2166.300000000001
 11
4464.788529667963
 21
2166.300000000001
  0
LINE
  5
176
100
AcDbEntity
  8
976
  6
CONTINUOUS
 62
           7
100
AcDbLine
 10
5646.440677966104
 20
2697.699999999999
 11
5248.000159772892
 21
2697.699999999999
  0
LINE
  5
175
100
AcDbEntity
  8
1
  6
CONTINUOUS
 62
           4
100
AcDbLine
 10
4880.0
 20
2698.699999999999
 11
4885.0
 21
2703.699999999999
  0
LINE
  5
174
100
AcDbEntity
  8
1
  6
CONTINUOUS
 62
           4
100
AcDbLine
 10
5395.0
 20
2703.699999999999
 11
4885.0
 21
2703.699999999999
  0
LINE
  5
173
100
AcDbEntity
  8
1
  6
CONTINUOUS
 62
           4
100
AcDbLine
 10
5395.0
 20
2703.699999999999
 11
5400.0
 21
2698.699999999999
  0
LINE
  5
172
100
AcDbEntity
  8
1
  6
CONTINUOUS
 62
           4
100
AcDbLine
 10
5400.0
 20
2698.699999999999
 11
5400.0
 21
2697.699999999999
  0
LINE
  5
171
100
AcDbEntity
  8
1
  6
CONTINUOUS
 62
           4
100
AcDbLine
 10
4880.0
 20
2698.699999999999
 11
4880.0
 21
2697.699999999999
  0
LINE
  5
170
100
AcDbEntity
  8
0
  6
CONTINUOUS
 62
           7
100
AcDbLine
 10
4806.800000000003
 20
2128.300000000001
 11
4806.800000000003
 21
2081.0
  0
LINE
  5
16F
100
AcDbEntity
  8
0
  6
CONTINUOUS
 62
           7
100
AcDbLine
 10
5473.200000000004
 20
2081.0
 11
5473.200000000004
 21
2128.300000000001
  0
LINE
  5
16E
100
AcDbEntity
  8
1
  6
CONTINUOUS
 62
           4
100
AcDbLine
 10
4767.5
 20
2081.0
 11
5512.5
 21
2081.0
  0
LINE
  5
16D
100
AcDbEntity
  8
1
  6
CONTINUOUS
 62
           7
100
AcDbLine
 10
5512.5
 20
2075.0
 11
4767.5
 21
2075.0
  0
LINE
  5
16C
100
AcDbEntity
  8
1
  6
CONTINUOUS
 62
           4
100
AcDbLine
 10
4767.5
 20
2075.0
 11
4767.5
 21
2081.0
  0
LINE
  5
16B
100
AcDbEntity
  8
1
  6
CONTINUOUS
 62
           4
100
AcDbLine
 10
5512.5
 20
2081.0
 11
5512.5
 21
2075.0
  0
LINE
  5
16A
100
AcDbEntity
  8
1
  6
CONTINUOUS
 62
           2
100
AcDbLine
 10
4660.0
 20
1800.831132334582
 11
4660.0
 21
520.0
  0
LINE
  5
169
100
AcDbEntity
  8
1
  6
CONTINUOUS
 62
           7
100
AcDbLine
 10
4640.0
 20
1784.157226830841
 11
4640.0
 21
2000.0
  0
LINE
  5
168
100
AcDbEntity
  8
1
  6
CONTINUOUS
 62
           2
100
AcDbLine
 10
4620.0
 20
1737.982263269103
 11
4620.0
 21
1980.0
  0
LINE
  5
167
100
AcDbEntity
  8
1
  6
CONTINUOUS
 62
           2
100
AcDbLine
 10
4660.0
 20
1980.0
 11
4660.0
 21
1814.464669216339
  0
LINE
  5
166
100
AcDbEntity
  8
1
  6
CONTINUOUS
 62
           2
100
AcDbLine
 10
4620.0
 20
520.0
 11
4620.0
 21
1711.424910670464
  0
LINE
  5
165
100
AcDbEntity
  8
1
  6
CONTINUOUS
 62
           7
100
AcDbLine
 10
4640.0
 20
500.0
 11
4640.0
 21
1767.293273528173
  0
LINE
  5
164
100
AcDbEntity
  8
1
  6
CONTINUOUS
 62
           7
100
AcDbLine
 10
487.386953890961
 20
2000.0
 11
487.386953890961
 21
1763.744569986044
  0
LINE
  5
163
100
AcDbEntity
  8
1
  6
CONTINUOUS
 62
           7
100
AcDbLine
 10
1987.386953890961
 20
1763.744569986044
 11
-1512.61304610904
 21
1763.744569986044
  0
LINE
  5
162
100
AcDbEntity
  8
1
  6
CONTINUOUS
 62
           7
100
AcDbLine
 10
-1332.110737645648
 20
986.513526798368
 11
-187.613046109039
 21
986.513526798368
  0
LINE
  5
161
100
AcDbEntity
  8
___S__
  6
DOT_CENTER
 62
           3
100
AcDbLine
 10
-1337.61304610904
 20
1067.06326659646
 11
-1337.61304610904
 21
982.067556365335
  0
LINE
  5
160
100
AcDbEntity
  8
____
  6
CONTINUOUS
 62
           3
100
AcDbLine
 10
-1332.208993153919
 20
1060.459504816178
 11
-1332.208993153919
 21
1058.581574068056
  0
LINE
  5
15F
100
AcDbEntity
  8
____
  6
CONTINUOUS
 62
           3
100
AcDbLine
 10
-1342.525821522783
 20
1060.928987503209
 11
-1332.700270695294
 21
1060.928987503209
  0
LINE
  5
15E
100
AcDbEntity
  8
____
  6
CONTINUOUS
 62
           3
100
AcDbLine
 10
-1343.017099064158
 20
1058.581574068056
 11
-1343.017099064158
 21
1060.459504816178
  0
LINE
  5
15D
100
AcDbEntity
  8
____
  6
CONTINUOUS
 62
           3
100
AcDbLine
 10
-1332.110737645648
 20
1022.900889853722
 11
-1343.115354572424
 21
1022.900889853723
  0
LINE
  5
15C
100
AcDbEntity
  8
____
  6
CONTINUOUS
 62
           3
100
AcDbLine
 10
-1332.110737645646
 20
1058.581574068056
 11
-1332.110737645648
 21
1022.900889853722
  0
LINE
  5
15B
100
AcDbEntity
  8
____
  6
CONTINUOUS
 62
           3
100
AcDbLine
 10
-1343.115354572424
 20
1058.581574068056
 11
-1332.110737645646
 21
1058.581574068056
  0
LINE
  5
15A
100
AcDbEntity
  8
____
  6
CONTINUOUS
 62
           3
100
AcDbLine
 10
-1343.115354572424
 20
1022.900889853723
 11
-1343.115354572424
 21
1058.581574068056
  0
LINE
  5
159
100
AcDbEntity
  8
____
  6
CONTINUOUS
 62
           3
100
AcDbLine
 10
-1343.01709906416
 20
984.403309517206
 11
-1343.01709906416
 21
986.281240265329
  0
LINE
  5
158
100
AcDbEntity
  8
____
  6
CONTINUOUS
 62
           3
100
AcDbLine
 10
-1332.700270695297
 20
983.933826830174
 11
-1342.525821522786
 21
983.933826830174
  0
LINE
  5
157
100
AcDbEntity
  8
____
  6
CONTINUOUS
 62
           3
100
AcDbLine
 10
-1332.208993153922
 20
986.281240265329
 11
-1332.208993153922
 21
984.403309517206
  0
LINE
  5
156
100
AcDbEntity
  8
____
  6
CONTINUOUS
 62
           3
100
AcDbLine
 10
-1342.771460293472
 20
1022.900889853723
 11
-1342.771460293472
 21
1021.961924479661
  0
LINE
  5
155
100
AcDbEntity
  8
____
  6
CONTINUOUS
 62
           3
100
AcDbLine
 10
-1332.454631924607
 20
1022.900889853722
 11
-1342.771460293472
 21
1022.900889853723
  0
LINE
  5
154
100
AcDbEntity
  8
____
  6
CONTINUOUS
 62
           3
100
AcDbLine
 10
-1332.454631924607
 20
1021.961924479661
 11
-1332.454631924607
 21
1022.900889853722
  0
LINE
  5
153
100
AcDbEntity
  8
____
  6
CONTINUOUS
 62
           3
100
AcDbLine
 10
-1343.017099064158
 20
1060.459504816178
 11
-1332.208993153919
 21
1060.459504816178
  0
LINE
  5
152
100
AcDbEntity
  8
____
  6
CONTINUOUS
 62
           3
100
AcDbLine
 10
-1343.115354572424
 20
1021.961924479661
 11
-1332.110737645648
 21
1021.961924479661
  0
LINE
  5
151
100
AcDbEntity
  8
____
  6
CONTINUOUS
 62
           3
100
AcDbLine
 10
-1343.115354572424
 20
986.281240265329
 11
-1343.115354572424
 21
1021.961924479661
  0
LINE
  5
150
100
AcDbEntity
  8
____
  6
CONTINUOUS
 62
           3
100
AcDbLine
 10
-1332.110737645648
 20
986.281240265329
 11
-1343.115354572424
 21
986.281240265329
  0
LINE
  5
14F
100
AcDbEntity
  8
____
  6
CONTINUOUS
 62
           3
100
AcDbLine
 10
-1332.110737645648
 20
1021.961924479661
 11
-1332.110737645648
 21
986.281240265329
  0
LINE
  5
14E
100
AcDbEntity
  8
____
  6
CONTINUOUS
 62
           3
100
AcDbLine
 10
-1343.017099064158
 20
1060.459504816178
 11
-1342.525821522783
 21
1060.928987503209
  0
LINE
  5
14D
100
AcDbEntity
  8
____
  6
CONTINUOUS
 62
           3
100
AcDbLine
 10
-1332.700270695294
 20
1060.928987503209
 11
-1332.208993153919
 21
1060.459504816178
  0
LINE
  5
14C
100
AcDbEntity
  8
____
  6
CONTINUOUS
 62
           3
100
AcDbLine
 10
-1342.525821522786
 20
983.933826830174
 11
-1343.01709906416
 21
984.403309517206
  0
LINE
  5
14B
100
AcDbEntity
  8
____
  6
CONTINUOUS
 62
           3
100
AcDbLine
 10
-1332.208993153922
 20
984.403309517206
 11
-1332.700270695297
 21
983.933826830174
  0
LINE
  5
14A
100
AcDbEntity
  8
____
  6
CONTINUOUS
 62
           3
100
AcDbLine
 10
-1343.01709906416
 20
984.403309517206
 11
-1332.208993153922
 21
984.403309517206
  0
LINE
  5
149
100
AcDbEntity
  8
____
  6
CONTINUOUS
 62
           3
100
AcDbLine
 10
-1343.017099064135
 20
1538.392880207259
 11
-1332.208993153897
 21
1538.392880207259
  0
LINE
  5
148
100
AcDbEntity
  8
____
  6
CONTINUOUS
 62
           3
100
AcDbLine
 10
-1332.208993153897
 20
1538.392880207259
 11
-1332.700270695272
 21
1537.92339752023
  0
LINE
  5
147
100
AcDbEntity
  8
____
  6
CONTINUOUS
 62
           3
100
AcDbLine
 10
-1342.525821522761
 20
1537.92339752023
 11
-1343.017099064135
 21
1538.392880207259
  0
LINE
  5
146
100
AcDbEntity
  8
____
  6
CONTINUOUS
 62
           3
100
AcDbLine
 10
-1332.700270695272
 20
1614.918558193263
 11
-1332.208993153897
 21
1614.449075506231
  0
LINE
  5
145
100
AcDbEntity
  8
____
  6
CONTINUOUS
 62
           3
100
AcDbLine
 10
-1343.017099064133
 20
1614.449075506231
 11
-1342.52582152276
 21
1614.918558193263
  0
LINE
  5
144
100
AcDbEntity
  8
____
  6
CONTINUOUS
 62
           3
100
AcDbLine
 10
-1332.110737645631
 20
1575.951495169715
 11
-1332.110737645631
 21
1540.270810955382
  0
LINE
  5
143
100
AcDbEntity
  8
____
  6
CONTINUOUS
 62
           3
100
AcDbLine
 10
-1332.110737645631
 20
1540.270810955382
 11
-1343.115354572409
 21
1540.270810955382
  0
LINE
  5
142
100
AcDbEntity
  8
____
  6
CONTINUOUS
 62
           3
100
AcDbLine
 10
-1343.115354572409
 20
1540.270810955382
 11
-1343.115354572409
 21
1575.951495169715
  0
LINE
  5
141
100
AcDbEntity
  8
____
  6
CONTINUOUS
 62
           3
100
AcDbLine
 10
-1343.115354572409
 20
1575.951495169715
 11
-1332.110737645631
 21
1575.951495169715
  0
LINE
  5
140
100
AcDbEntity
  8
____
  6
CONTINUOUS
 62
           3
100
AcDbLine
 10
-1343.017099064133
 20
1614.449075506231
 11
-1332.208993153897
 21
1614.449075506231
  0
LINE
  5
13F
100
AcDbEntity
  8
____
  6
CONTINUOUS
 62
           3
100
AcDbLine
 10
-1332.454631924584
 20
1575.951495169715
 11
-1332.454631924584
 21
1576.890460543777
  0
LINE
  5
13E
100
AcDbEntity
  8
____
  6
CONTINUOUS
 62
           3
100
AcDbLine
 10
-1332.454631924584
 20
1576.890460543777
 11
-1342.771460293448
 21
1576.890460543777
  0
LINE
  5
13D
100
AcDbEntity
  8
____
  6
CONTINUOUS
 62
           3
100
AcDbLine
 10
-1342.771460293448
 20
1576.890460543777
 11
-1342.771460293448
 21
1575.951495169715
  0
LINE
  5
13C
100
AcDbEntity
  8
____
  6
CONTINUOUS
 62
           3
100
AcDbLine
 10
-1332.208993153897
 20
1540.270810955382
 11
-1332.208993153897
 21
1538.392880207259
  0
LINE
  5
13B
100
AcDbEntity
  8
____
  6
CONTINUOUS
 62
           3
100
AcDbLine
 10
-1332.700270695272
 20
1537.92339752023
 11
-1342.525821522761
 21
1537.92339752023
  0
LINE
  5
13A
100
AcDbEntity
  8
____
  6
CONTINUOUS
 62
           3
100
AcDbLine
 10
-1343.017099064135
 20
1538.392880207259
 11
-1343.017099064135
 21
1540.270810955382
  0
LINE
  5
139
100
AcDbEntity
  8
____
  6
CONTINUOUS
 62
           3
100
AcDbLine
 10
-1343.115354572409
 20
1576.890460543777
 11
-1343.115354572406
 21
1612.571144758109
  0
LINE
  5
138
100
AcDbEntity
  8
____
  6
CONTINUOUS
 62
           3
100
AcDbLine
 10
-1343.115354572406
 20
1612.571144758109
 11
-1332.110737645631
 21
1612.571144758108
  0
LINE
  5
137
100
AcDbEntity
  8
____
  6
CONTINUOUS
 62
           3
100
AcDbLine
 10
-1332.110737645631
 20
1612.571144758108
 11
-1332.110737645631
 21
1576.890460543777
  0
LINE
  5
136
100
AcDbEntity
  8
____
  6
CONTINUOUS
 62
           3
100
AcDbLine
 10
-1332.110737645631
 20
1576.890460543777
 11
-1343.115354572409
 21
1576.890460543777
  0
LINE
  5
135
100
AcDbEntity
  8
____
  6
CONTINUOUS
 62
           3
100
AcDbLine
 10
-1343.017099064133
 20
1612.571144758109
 11
-1343.017099064133
 21
1614.449075506231
  0
LINE
  5
134
100
AcDbEntity
  8
____
  6
CONTINUOUS
 62
           3
100
AcDbLine
 10
-1342.52582152276
 20
1614.918558193263
 11
-1332.700270695272
 21
1614.918558193263
  0
LINE
  5
133
100
AcDbEntity
  8
____
  6
CONTINUOUS
 62
           3
100
AcDbLine
 10
-1332.208993153897
 20
1614.449075506231
 11
-1332.208993153897
 21
1612.571144758108
  0
LINE
  5
132
100
AcDbEntity
  8
___S__
  6
DOT_CENTER
 62
           3
100
AcDbLine
 10
-1337.613046109015
 20
1621.052837286497
 11
-1337.613046109015
 21
1536.057127055389
  0
LINE
  5
131
100
AcDbEntity
  8
1
  6
CONTINUOUS
 62
           7
100
AcDbLine
 10
-1337.61304610904
 20
941.513526798366
 11
-187.613046109039
 21
941.513526798366
  0
LINE
  5
130
100
AcDbEntity
  8
1
  6
CONTINUOUS
 62
           7
100
AcDbLine
 10
-187.613046109039
 20
941.513526798366
 11
-187.613046109039
 21
1646.282992387802
  0
LINE
  5
12F
100
AcDbEntity
  8
1
  6
CONTINUOUS
 62
           7
100
AcDbLine
 10
-1337.61304610904
 20
941.513526798366
 11
-1337.61304610904
 21
1646.282992387802
  0
LINE
  5
12E
100
AcDbEntity
  8
1
  6
CONTINUOUS
 62
           7
100
AcDbLine
 10
-187.613046109039
 20
1646.282992387802
 11
-1337.61304610904
 21
1646.282992387802
  0
LINE
  5
12D
100
AcDbEntity
  8
1
  6
CONTINUOUS
 62
           3
100
AcDbLine
 10
-248.217249787164
 20
1294.32810932706
 11
-250.605195787146
 21
1267.070985327059
  0
LINE
  5
12C
100
AcDbEntity
  8
1
  6
CONTINUOUS
 62
           3
100
AcDbLine
 10
-250.605195787146
 20
1323.33071132706
 11
-248.217249787164
 21
1296.073587327061
  0
LINE
  5
12B
100
AcDbEntity
  8
1
  6
CONTINUOUS
 62
           3
100
AcDbLine
 10
-260.064331787165
 20
1294.32810932706
 11
-257.676385787155
 21
1267.070985327059
  0
LINE
  5
12A
100
AcDbEntity
  8
1
  6
CONTINUOUS
 62
           3
100
AcDbLine
 10
-257.676385787155
 20
1323.33071132706
 11
-260.064331787165
 21
1296.073587327061
  0
LINE
  5
129
100
AcDbEntity
  8
1
  6
DOT_CENTER
 62
           3
100
AcDbLine
 10
-209.140790787161
 20
1295.20084832705
 11
-299.138245787165
 21
1295.20084832705
  0
LINE
  5
128
100
AcDbEntity
  8
1
  6
DOT_CENTER
 62
           3
100
AcDbLine
 10
-254.140790787161
 20
1340.20084832705
 11
-254.140790787161
 21
1250.20227732705
  0
LINE
  5
127
100
AcDbEntity
  8
1
  6
CONTINUOUS
 62
           7
100
AcDbLine
 10
4190.0
 20
1620.0
 11
4370.0
 21
1620.0
  0
LINE
  5
126
100
AcDbEntity
  8
1
  6
CONTINUOUS
 62
           7
100
AcDbLine
 10
4370.0
 20
1620.0
 11
4370.0
 21
1733.000000000001
  0
LINE
  5
125
100
AcDbEntity
  8
1
  6
CONTINUOUS
 62
           7
100
AcDbLine
 10
4370.0
 20
1733.000000000001
 11
4190.0
 21
1733.0
  0
LINE
  5
124
100
AcDbEntity
  8
1
  6
CONTINUOUS
 62
           7
100
AcDbLine
 10
4190.0
 20
1733.0
 11
4190.0
 21
1620.0
  0
LINE
  5
123
100
AcDbEntity
  8
1
  6
CONTINUOUS
 62
           7
100
AcDbLine
 10
1903.386953890961
 20
4178.000000000002
 11
1903.386953890961
 21
3826.0
  0
LINE
  5
122
100
AcDbEntity
  8
1
  6
CONTINUOUS
 62
           7
100
AcDbLine
 10
571.386953890961
 20
4178.000000000002
 11
1903.386953890961
 21
4178.000000000002
  0
LINE
  5
121
100
AcDbEntity
  8
1
  6
CONTINUOUS
 62
           7
100
AcDbLine
 10
1853.386953890961
 20
4128.000000000002
 11
1853.386953890961
 21
3876.0
  0
LINE
  5
120
100
AcDbEntity
  8
1
  6
CONTINUOUS
 62
           7
100
AcDbLine
 10
621.386953890961
 20
4128.000000000002
 11
1853.386953890961
 21
4128.000000000002
  0
LINE
  5
11F
100
AcDbEntity
  8
1
  6
CONTINUOUS
 62
           7
100
AcDbLine
 10
621.386953890961
 20
3876.0
 11
621.386953890961
 21
4128.000000000002
  0
LINE
  5
11E
100
AcDbEntity
  8
1
  6
CONTINUOUS
 62
           7
100
AcDbLine
 10
1853.386953890961
 20
3876.0
 11
621.386953890961
 21
3876.0
  0
LINE
  5
11D
100
AcDbEntity
  8
1
  6
CONTINUOUS
 62
           7
100
AcDbLine
 10
571.386953890961
 20
3826.0
 11
571.386953890961
 21
4178.000000000002
  0
LINE
  5
11C
100
AcDbEntity
  8
1
  6
CONTINUOUS
 62
           7
100
AcDbLine
 10
1903.386953890961
 20
3826.0
 11
571.386953890961
 21
3826.0
  0
LINE
  5
11B
100
AcDbEntity
  8
1
  6
CONTINUOUS
 62
           7
100
AcDbLine
 10
749.886953890961
 20
2150.000000000001
 11
749.886953890961
 21
2155.683280999348
  0
LINE
  5
11A
100
AcDbEntity
  8
1
  6
CONTINUOUS
 62
           7
100
AcDbLine
 10
824.886953890961
 20
2150.0
 11
824.886953890961
 21
2155.683280999348
  0
LINE
  5
119
100
AcDbEntity
  8
1
  6
CONTINUOUS
 62
           7
100
AcDbLine
 10
849.886953890961
 20
2171.000000000001
 11
849.886953890961
 21
2150.000000000001
  0
LINE
  5
118
100
AcDbEntity
  8
1
  6
CONTINUOUS
 62
           7
100
AcDbLine
 10
742.386953890961
 20
2184.000000000001
 11
832.386953890961
 21
2184.000000000001
  0
LINE
  5
117
100
AcDbEntity
  8
1
  6
CONTINUOUS
 62
           7
100
AcDbLine
 10
832.386953890961
 20
2171.000000000001
 11
849.886953890961
 21
2171.000000000001
  0
LINE
  5
116
100
AcDbEntity
  8
1
  6
CONTINUOUS
 62
           7
100
AcDbLine
 10
742.386953890961
 20
2171.000000000001
 11
724.886953890961
 21
2171.000000000001
  0
LINE
  5
115
100
AcDbEntity
  8
1
  6
CONTINUOUS
 62
           7
100
AcDbLine
 10
724.886953890961
 20
2171.000000000001
 11
724.886953890961
 21
2150.000000000001
  0
LINE
  5
114
100
AcDbEntity
  8
1
  6
CONTINUOUS
 62
           7
100
AcDbLine
 10
742.386953890961
 20
2188.000000000001
 11
742.386953890961
 21
2171.000000000001
  0
LINE
  5
113
100
AcDbEntity
  8
1
  6
CONTINUOUS
 62
           7
100
AcDbLine
 10
824.386953890961
 20
2196.000000000001
 11
750.386953890961
 21
2196.000000000001
  0
LINE
  5
112
100
AcDbEntity
  8
1
  6
CONTINUOUS
 62
           7
100
AcDbLine
 10
832.386953890961
 20
2188.000000000001
 11
832.386953890961
 21
2171.000000000001
  0
LINE
  5
111
100
AcDbEntity
  8
1
  6
CONTINUOUS
 62
           7
100
AcDbLine
 10
772.386953890961
 20
2156.000000000001
 11
772.386953890961
 21
2150.000000000001
  0
LINE
  5
110
100
AcDbEntity
  8
1
  6
CONTINUOUS
 62
           7
100
AcDbLine
 10
802.386953890961
 20
2156.000000000001
 11
802.386953890961
 21
2150.000000000001
  0
LINE
  5
10F
100
AcDbEntity
  8
1
  6
DOT_CENTER
 62
           2
100
AcDbLine
 10
787.386953890961
 20
2202.686878034487
 11
787.386953890961
 21
2107.007003733832
  0
LINE
  5
10E
100
AcDbEntity
  8
1
  6
DOT_CENTER
 62
           2
100
AcDbLine
 10
-962.613046109039
 20
2202.686878034487
 11
-962.613046109039
 21
2107.007003733832
  0
LINE
  5
10D
100
AcDbEntity
  8
1
  6
CONTINUOUS
 62
           7
100
AcDbLine
 10
3875.000000000002
 20
2136.000000000001
 11
3875.000000000002
 21
2156.000000000001
  0
LINE
  5
10C
100
AcDbEntity
  8
1
  6
CONTINUOUS
 62
           7
100
AcDbLine
 10
3905.000000000002
 20
2136.000000000001
 11
3905.000000000002
 21
2156.000000000001
  0
LINE
  5
10B
100
AcDbEntity
  8
1
  6
CONTINUOUS
 62
           7
100
AcDbLine
 10
3845.000000000002
 20
2171.000000000001
 11
3845.000000000002
 21
2188.000000000001
  0
LINE
  5
10A
100
AcDbEntity
  8
1
  6
CONTINUOUS
 62
           7
100
AcDbLine
 10
3927.000000000002
 20
2196.000000000001
 11
3853.000000000002
 21
2196.000000000001
  0
LINE
  5
109
100
AcDbEntity
  8
1
  6
CONTINUOUS
 62
           7
100
AcDbLine
 10
3935.000000000002
 20
2171.000000000001
 11
3935.000000000002
 21
2188.000000000001
  0
LINE
  5
108
100
AcDbEntity
  8
1
  6
CONTINUOUS
 62
           7
100
AcDbLine
 10
3952.500000000002
 20
2136.000000000001
 11
3952.500000000002
 21
2171.000000000001
  0
LINE
  5
107
100
AcDbEntity
  8
1
  6
CONTINUOUS
 62
           7
100
AcDbLine
 10
3952.500000000002
 20
2171.000000000001
 11
3935.000000000002
 21
2171.000000000001
  0
LINE
  5
106
100
AcDbEntity
  8
1
  6
CONTINUOUS
 62
           7
100
AcDbLine
 10
3827.500000000002
 20
2136.000000000001
 11
3827.500000000002
 21
2171.000000000001
  0
LINE
  5
105
100
AcDbEntity
  8
1
  6
CONTINUOUS
 62
           7
100
AcDbLine
 10
3827.500000000002
 20
2171.000000000001
 11
3845.000000000002
 21
2171.000000000001
  0
LINE
  5
104
100
AcDbEntity
  8
1
  6
CONTINUOUS
 62
           7
100
AcDbLine
 10
3927.500000000002
 20
2155.683280999348
 11
3927.500000000002
 21
2136.000000000001
  0
LINE
  5
103
100
AcDbEntity
  8
1
  6
CONTINUOUS
 62
           7
100
AcDbLine
 10
3852.500000000002
 20
2155.683280999348
 11
3852.500000000002
 21
2136.000000000001
  0
LINE
  5
102
100
AcDbEntity
  8
1
  6
CONTINUOUS
 62
           7
100
AcDbLine
 10
3845.000000000002
 20
2184.000000000001
 11
3935.000000000002
 21
2184.000000000001
  0
LINE
  5
101
100
AcDbEntity
  8
1
  6
CONTINUOUS
 62
           7
100
AcDbLine
 10
4016.000000000002
 20
2136.000000000001
 11
4016.000000000002
 21
2050.000000000001
  0
LINE
  5
100
100
AcDbEntity
  8
1
  6
CONTINUOUS
 62
           7
100
AcDbLine
 10
3764.000000000002
 20
2136.000000000001
 11
4016.000000000002
 21
2136.000000000001
  0
LINE
  5
FF
100
AcDbEntity
  8
1
  6
CONTINUOUS
 62
           7
100
AcDbLine
 10
-947.613046109039
 20
2156.000000000001
 11
-947.613046109039
 21
2150.000000000001
  0
LINE
  5
FE
100
AcDbEntity
  8
1
  6
CONTINUOUS
 62
           7
100
AcDbLine
 10
-977.613046109039
 20
2156.000000000001
 11
-977.613046109039
 21
2150.000000000001
  0
LINE
  5
FD
100
AcDbEntity
  8
1
  6
CONTINUOUS
 62
           7
100
AcDbLine
 10
-917.613046109039
 20
2188.000000000001
 11
-917.613046109039
 21
2171.000000000001
  0
LINE
  5
FC
100
AcDbEntity
  8
1
  6
CONTINUOUS
 62
           7
100
AcDbLine
 10
-925.613046109039
 20
2196.000000000001
 11
-999.613046109039
 21
2196.000000000001
  0
LINE
  5
FB
100
AcDbEntity
  8
1
  6
CONTINUOUS
 62
           7
100
AcDbLine
 10
-1007.61304610904
 20
2188.000000000001
 11
-1007.61304610904
 21
2171.000000000001
  0
LINE
  5
FA
100
AcDbEntity
  8
1
  6
CONTINUOUS
 62
           7
100
AcDbLine
 10
-1025.11304610904
 20
2171.000000000001
 11
-1025.11304610904
 21
2150.000000000001
  0
LINE
  5
F9
100
AcDbEntity
  8
1
  6
CONTINUOUS
 62
           7
100
AcDbLine
 10
-1007.61304610904
 20
2171.000000000001
 11
-1025.11304610904
 21
2171.000000000001
  0
LINE
  5
F8
100
AcDbEntity
  8
1
  6
CONTINUOUS
 62
           7
100
AcDbLine
 10
-917.613046109039
 20
2171.000000000001
 11
-900.113046109039
 21
2171.000000000001
  0
LINE
  5
F7
100
AcDbEntity
  8
1
  6
CONTINUOUS
 62
           7
100
AcDbLine
 10
-1007.61304610904
 20
2184.000000000001
 11
-917.613046109039
 21
2184.000000000001
  0
LINE
  5
F6
100
AcDbEntity
  8
1
  6
CONTINUOUS
 62
           7
100
AcDbLine
 10
3764.000000000002
 20
2050.000000000001
 11
3764.000000000002
 21
2136.000000000001
  0
LINE
  5
F5
100
AcDbEntity
  8
1
  6
CONTINUOUS
 62
           7
100
AcDbLine
 10
-1178.61304610904
 20
4178.000000000002
 11
153.386953890961
 21
4178.000000000002
  0
LINE
  5
F4
100
AcDbEntity
  8
1
  6
CONTINUOUS
 62
           7
100
AcDbLine
 10
153.386953890961
 20
4178.000000000002
 11
153.386953890961
 21
3826.0
  0
LINE
  5
F3
100
AcDbEntity
  8
1
  6
CONTINUOUS
 62
           7
100
AcDbLine
 10
153.386953890961
 20
3826.0
 11
-1178.61304610904
 21
3826.0
  0
LINE
  5
F2
100
AcDbEntity
  8
1
  6
CONTINUOUS
 62
           7
100
AcDbLine
 10
-1178.61304610904
 20
3826.0
 11
-1178.61304610904
 21
4178.000000000002
  0
LINE
  5
F1
100
AcDbEntity
  8
1
  6
CONTINUOUS
 62
           7
100
AcDbLine
 10
-1128.61304610904
 20
4128.000000000002
 11
103.386953890961
 21
4128.000000000002
  0
LINE
  5
F0
100
AcDbEntity
  8
1
  6
CONTINUOUS
 62
           7
100
AcDbLine
 10
103.386953890961
 20
4128.000000000002
 11
103.386953890961
 21
3876.0
  0
LINE
  5
EF
100
AcDbEntity
  8
1
  6
CONTINUOUS
 62
           7
100
AcDbLine
 10
103.386953890961
 20
3876.0
 11
-1128.61304610904
 21
3876.0
  0
LINE
  5
EE
100
AcDbEntity
  8
1
  6
CONTINUOUS
 62
           7
100
AcDbLine
 10
-1128.61304610904
 20
3876.0
 11
-1128.61304610904
 21
4128.000000000002
  0
LINE
  5
ED
100
AcDbEntity
  8
1
  6
CONTINUOUS
 62
           7
100
AcDbLine
 10
-900.113046109039
 20
2171.000000000001
 11
-900.113046109039
 21
2150.000000000001
  0
LINE
  5
EC
100
AcDbEntity
  8
1
  6
CONTINUOUS
 62
           7
100
AcDbLine
 10
-925.113046109039
 20
2150.0
 11
-925.113046109039
 21
2155.683280999348
  0
LINE
  5
EB
100
AcDbEntity
  8
1
  6
CONTINUOUS
 62
           7
100
AcDbLine
 10
-1000.11304610904
 20
2150.000000000001
 11
-1000.11304610904
 21
2155.683280999348
  0
LINE
  5
EA
100
AcDbEntity
  8
1
  6
CONTINUOUS
 62
           2
100
AcDbLine
 10
-500.613046109039
 20
5732.0
 11
-1242.61304610904
 21
5732.0
  0
LINE
  5
E9
100
AcDbEntity
  8
1
  6
DOT_CENTER
 62
           2
100
AcDbLine
 10
787.386953890961
 20
4091.522751331574
 11
787.386953890961
 21
3899.63577763022
  0
LINE
  5
E8
100
AcDbEntity
  8
1
  6
DOT_CENTER
 62
           2
100
AcDbLine
 10
-962.613046109039
 20
4111.056766986354
 11
-962.613046109039
 21
3899.63577763022
  0
LINE
  5
E7
100
AcDbEntity
  8
1
  6
CONTINUOUS
 62
           7
100
AcDbLine
 10
-27.613046109039
 20
475.000000000001
 11
-27.613046109039
 21
540.0
  0
LINE
  5
E6
100
AcDbEntity
  8
1
  6
CONTINUOUS
 62
           7
100
AcDbLine
 10
-1497.61304610904
 20
475.000000000001
 11
-1497.61304610904
 21
540.0
  0
LINE
  5
E5
100
AcDbEntity
  8
1
  6
CONTINUOUS
 62
           7
100
AcDbLine
 10
-1512.61304610904
 20
475.000000000001
 11
1987.386953890961
 21
475.000000000001
  0
LINE
  5
E4
100
AcDbEntity
  8
1
  6
CONTINUOUS
 62
           2
100
AcDbLine
 10
-282.613046109039
 20
4772.0
 11
-282.613046109039
 21
4797.433523174084
  0
LINE
  5
E3
100
AcDbEntity
  8
1
  6
CONTINUOUS
 62
           7
100
AcDbLine
 10
-900.113046109042
 20
3987.0
 11
-920.186639237847
 21
3987.0
  0
LINE
  5
E2
100
AcDbEntity
  8
1
  6
CONTINUOUS
 62
           7
100
AcDbLine
 10
-977.613046109039
 20
3939.5
 11
-977.613046109039
 21
3959.573593128805
  0
LINE
  5
E1
100
AcDbEntity
  8
1
  6
CONTINUOUS
 62
           7
100
AcDbLine
 10
-1025.11304610904
 20
4017.0
 11
-1005.039452980233
 21
4017.0
  0
LINE
  5
E0
100
AcDbEntity
  8
1
  6
CONTINUOUS
 62
           7
100
AcDbLine
 10
-900.113046109042
 20
4017.0
 11
-900.113046109042
 21
3987.0
  0
LINE
  5
DF
100
AcDbEntity
  8
1
  6
CONTINUOUS
 62
           7
100
AcDbLine
 10
-947.613046109039
 20
3939.5
 11
-977.613046109039
 21
3939.5
  0
LINE
  5
DE
100
AcDbEntity
  8
1
  6
CONTINUOUS
 62
           7
100
AcDbLine
 10
-1025.11304610904
 20
3987.0
 11
-1025.11304610904
 21
4017.0
  0
LINE
  5
DD
100
AcDbEntity
  8
1
  6
CONTINUOUS
 62
           7
100
AcDbLine
 10
-920.186639237847
 20
4017.0
 11
-900.113046109042
 21
4017.0
  0
LINE
  5
DC
100
AcDbEntity
  8
1
  6
CONTINUOUS
 62
           7
100
AcDbLine
 10
-947.613046109039
 20
3959.573593128805
 11
-947.613046109039
 21
3939.5
  0
LINE
  5
DB
100
AcDbEntity
  8
1
  6
CONTINUOUS
 62
           7
100
AcDbLine
 10
-1005.039452980233
 20
3987.0
 11
-1025.11304610904
 21
3987.0
  0
LINE
  5
DA
100
AcDbEntity
  8
1
  6
CONTINUOUS
 62
           7
100
AcDbLine
 10
-947.613046109039
 20
4064.5
 11
-947.613046109039
 21
4044.42640687119
  0
LINE
  5
D9
100
AcDbEntity
  8
1
  6
CONTINUOUS
 62
           7
100
AcDbLine
 10
-977.613046109039
 20
4064.5
 11
-947.613046109039
 21
4064.5
  0
LINE
  5
D8
100
AcDbEntity
  8
1
  6
CONTINUOUS
 62
           7
100
AcDbLine
 10
-977.613046109039
 20
4044.42640687119
 11
-977.613046109039
 21
4064.5
  0
LINE
  5
D7
100
AcDbEntity
  8
1
  6
DOT_CENTER
 62
           2
100
AcDbLine
 10
-1195.525970133878
 20
4002.0
 11
190.311623787905
 21
4002.0
  0
LINE
  5
D6
100
AcDbEntity
  8
1
  6
DOT_CENTER
 62
           2
100
AcDbLine
 10
556.474029866122
 20
4002.0
 11
1942.311623787904
 21
4002.0
  0
LINE
  5
D5
100
AcDbEntity
  8
1
  6
CONTINUOUS
 62
           7
100
AcDbLine
 10
772.386953890961
 20
4044.42640687119
 11
772.386953890961
 21
4064.5
  0
LINE
  5
D4
100
AcDbEntity
  8
1
  6
CONTINUOUS
 62
           7
100
AcDbLine
 10
772.386953890961
 20
4064.5
 11
802.386953890961
 21
4064.5
  0
LINE
  5
D3
100
AcDbEntity
  8
1
  6
CONTINUOUS
 62
           7
100
AcDbLine
 10
802.386953890961
 20
4064.5
 11
802.386953890961
 21
4044.42640687119
  0
LINE
  5
D2
100
AcDbEntity
  8
1
  6
CONTINUOUS
 62
           7
100
AcDbLine
 10
744.960547019767
 20
3987.0
 11
724.886953890961
 21
3987.0
  0
LINE
  5
D1
100
AcDbEntity
  8
1
  6
CONTINUOUS
 62
           7
100
AcDbLine
 10
802.386953890961
 20
3959.573593128805
 11
802.386953890961
 21
3939.5
  0
LINE
  5
D0
100
AcDbEntity
  8
1
  6
CONTINUOUS
 62
           7
100
AcDbLine
 10
829.813360762153
 20
4017.0
 11
849.88695389096
 21
4017.0
  0
LINE
  5
CF
100
AcDbEntity
  8
1
  6
CONTINUOUS
 62
           7
100
AcDbLine
 10
724.886953890961
 20
3987.0
 11
724.886953890961
 21
4017.0
  0
LINE
  5
CE
100
AcDbEntity
  8
1
  6
CONTINUOUS
 62
           7
100
AcDbLine
 10
802.386953890961
 20
3939.5
 11
772.386953890961
 21
3939.5
  0
LINE
  5
CD
100
AcDbEntity
  8
1
  6
CONTINUOUS
 62
           7
100
AcDbLine
 10
849.88695389096
 20
4017.0
 11
849.88695389096
 21
3987.0
  0
LINE
  5
CC
100
AcDbEntity
  8
1
  6
CONTINUOUS
 62
           7
100
AcDbLine
 10
724.886953890961
 20
4017.0
 11
744.960547019767
 21
4017.0
  0
LINE
  5
CB
100
AcDbEntity
  8
1
  6
CONTINUOUS
 62
           7
100
AcDbLine
 10
772.386953890961
 20
3939.5
 11
772.386953890961
 21
3959.573593128805
  0
LINE
  5
CA
100
AcDbEntity
  8
1
  6
CONTINUOUS
 62
           7
100
AcDbLine
 10
849.88695389096
 20
3987.0
 11
829.813360762153
 21
3987.0
  0
LINE
  5
C9
100
AcDbEntity
  8
1
  6
CONTINUOUS
 62
           7
100
AcDbLine
 10
-27.613046109039
 20
540.0
 11
-1497.61304610904
 21
540.0
  0
LINE
  5
C8
100
AcDbEntity
  8
1
  6
CONTINUOUS
 62
           7
100
AcDbLine
 10
-12.613046109039
 20
1763.744569986044
 11
-12.613046109039
 21
500.0
  0
LINE
  5
C7
100
AcDbEntity
  8
1
  6
CONTINUOUS
 62
           7
100
AcDbLine
 10
-27.613046109039
 20
500.0
 11
2.386953890961
 21
500.0
  0
LINE
  5
C6
100
AcDbEntity
  8
1
  6
CONTINUOUS
 62
           7
100
AcDbLine
 10
-1738.502449416819
 20
0.0
 11
2267.669919018552
 21
0.0
  0
LINE
  5
C5
100
AcDbEntity
  8
1
  6
CONTINUOUS
 62
           7
100
AcDbLine
 10
737.386953890961
 20
5752.0
 11
737.386953890961
 21
5363.201997013002
  0
LINE
  5
C4
100
AcDbEntity
  8
1
  6
CONTINUOUS
 62
           2
100
AcDbLine
 10
757.386953890961
 20
5077.596934910889
 11
757.386953890961
 21
4772.0
  0
LINE
  5
C3
100
AcDbEntity
  8
1
  6
CONTINUOUS
 62
           7
100
AcDbLine
 10
560.315517880606
 20
4752.0
 11
2037.386953890961
 21
4752.0
  0
LINE
  5
C2
100
AcDbEntity
  8
1
  6
CONTINUOUS
 62
           7
100
AcDbLine
 10
487.386953890961
 20
4702.834057971562
 11
487.386953890961
 21
3802.0
  0
LINE
  5
C1
100
AcDbEntity
  8
1
  6
CONTINUOUS
 62
           2
100
AcDbLine
 10
507.38695389096
 20
4714.667142178083
 11
507.38695389096
 21
3802.0
  0
LINE
  5
C0
100
AcDbEntity
  8
1
  6
CONTINUOUS
 62
           2
100
AcDbLine
 10
-198.444529264028
 20
4732.0
 11
-1492.61304610904
 21
4732.0
  0
LINE
  5
BF
100
AcDbEntity
  8
1
  6
CONTINUOUS
 62
           7
100
AcDbLine
 10
-1562.61304610904
 20
3752.0
 11
2037.386953890961
 21
3752.0
  0
LINE
  5
BE
100
AcDbEntity
  8
1
  6
CONTINUOUS
 62
           7
100
AcDbLine
 10
-1562.61304610904
 20
5752.0
 11
-1562.61304610904
 21
3752.0
  0
LINE
  5
BD
100
AcDbEntity
  8
1
  6
CONTINUOUS
 62
           7
100
AcDbLine
 10
-1562.61304610904
 20
4752.0
 11
-227.223686410077
 21
4752.0
  0
LINE
  5
BC
100
AcDbEntity
  8
1
  6
CONTINUOUS
 62
           2
100
AcDbLine
 10
467.386953890961
 20
3802.0
 11
467.386953890961
 21
4692.102051443364
  0
LINE
  5
BB
100
AcDbEntity
  8
1
  6
CONTINUOUS
 62
           7
100
AcDbLine
 10
-1562.61304610904
 20
3802.0
 11
2037.386953890961
 21
3802.0
  0
LINE
  5
BA
100
AcDbEntity
  8
1
  6
CONTINUOUS
 62
           2
100
AcDbLine
 10
-1492.61304610904
 20
4732.0
 11
-1492.61304610904
 21
3802.0
  0
LINE
  5
B9
100
AcDbEntity
  8
1
  6
CONTINUOUS
 62
           7
100
AcDbLine
 10
-1512.61304610904
 20
3802.0
 11
-1512.61304610904
 21
4752.0
  0
LINE
  5
B8
100
AcDbEntity
  8
1
  6
CONTINUOUS
 62
           7
100
AcDbLine
 10
1987.386953890961
 20
3802.0
 11
1987.386953890961
 21
4752.0
  0
LINE
  5
B7
100
AcDbEntity
  8
1
  6
CONTINUOUS
 62
           7
100
AcDbLine
 10
737.386953890961
 20
4752.0
 11
737.386953890961
 21
5002.835271328308
  0
LINE
  5
B6
100
AcDbEntity
  8
1
  6
CONTINUOUS
 62
           2
100
AcDbLine
 10
757.386953890961
 20
5732.0
 11
757.386953890961
 21
5286.403065089107
  0
LINE
  5
B5
100
AcDbEntity
  8
1
  6
CONTINUOUS
 62
           2
100
AcDbLine
 10
-1542.61304610904
 20
4772.0
 11
-1282.61304610904
 21
4772.0
  0
LINE
  5
B4
100
AcDbEntity
  8
1
  6
CONTINUOUS
 62
           2
100
AcDbLine
 10
-1542.61304610904
 20
4772.0
 11
-1542.61304610904
 21
5732.0
  0
LINE
  5
B3
100
AcDbEntity
  8
1
  6
CONTINUOUS
 62
           7
100
AcDbLine
 10
2037.386953890961
 20
5752.0
 11
237.386953890961
 21
5752.0
  0
LINE
  5
B2
100
AcDbEntity
  8
1
  6
CONTINUOUS
 62
           2
100
AcDbLine
 10
757.386953890961
 20
4772.0
 11
1717.386953890961
 21
4772.0
  0
LINE
  5
B1
100
AcDbEntity
  8
1
  6
CONTINUOUS
 62
           7
100
AcDbLine
 10
2037.386953890961
 20
0.0
 11
2037.386953890961
 21
2150.0
  0
LINE
  5
B0
100
AcDbEntity
  8
1
  6
CONTINUOUS
 62
           7
100
AcDbLine
 10
2037.386953890961
 20
2150.0
 11
-1562.61304610904
 21
2150.0
  0
LINE
  5
AF
100
AcDbEntity
  8
1
  6
CONTINUOUS
 62
           7
100
AcDbLine
 10
-1562.61304610904
 20
2150.0
 11
-1562.61304610904
 21
0.0
  0
LINE
  5
AE
100
AcDbEntity
  8
1
  6
CONTINUOUS
 62
           7
100
AcDbLine
 10
2037.386953890961
 20
2000.0
 11
-1562.61304610904
 21
2000.0
  0
LINE
  5
AD
100
AcDbEntity
  8
1
  6
CONTINUOUS
 62
           7
100
AcDbLine
 10
-1512.61304610904
 20
0.0
 11
-1512.61304610904
 21
2000.0
  0
LINE
  5
AC
100
AcDbEntity
  8
1
  6
CONTINUOUS
 62
           7
100
AcDbLine
 10
1987.386953890961
 20
0.0
 11
1987.386953890961
 21
2000.0
  0
LINE
  5
AB
100
AcDbEntity
  8
1
  6
CONTINUOUS
 62
           7
100
AcDbLine
 10
1987.386953890961
 20
1900.0
 11
-1512.61304610904
 21
1900.0
  0
LINE
  5
AA
100
AcDbEntity
  8
1
  6
CONTINUOUS
 62
           7
100
AcDbLine
 10
1987.386953890961
 20
50.0
 11
-1512.61304610904
 21
50.0
  0
LINE
  5
A9
100
AcDbEntity
  8
1
  6
CONTINUOUS
 62
           7
100
AcDbLine
 10
-1512.61304610904
 20
400.0
 11
1987.386953890961
 21
400.0
  0
LINE
  5
A8
100
AcDbEntity
  8
1
  6
CONTINUOUS
 62
           7
100
AcDbLine
 10
1972.386953890961
 20
540.0
 11
1972.386953890961
 21
475.000000000001
  0
LINE
  5
A7
100
AcDbEntity
  8
1
  6
CONTINUOUS
 62
           7
100
AcDbLine
 10
2.386953890961
 20
540.0
 11
2.386953890961
 21
475.000000000001
  0
LINE
  5
A6
100
AcDbEntity
  8
1
  6
CONTINUOUS
 62
           7
100
AcDbLine
 10
-1512.61304610904
 20
800.0
 11
1987.386953890961
 21
800.0
  0
LINE
  5
A5
100
AcDbEntity
  8
1
  6
CONTINUOUS
 62
           7
100
AcDbLine
 10
1972.386953890961
 20
500.0
 11
1987.386953890961
 21
500.0
  0
LINE
  5
A4
100
AcDbEntity
  8
1
  6
CONTINUOUS
 62
           7
100
AcDbLine
 10
-1512.61304610904
 20
500.0
 11
-1497.61304610904
 21
500.0
  0
LINE
  5
A3
100
AcDbEntity
  8
1
  6
DOT_CENTER
 62
           2
100
AcDbLine
 10
5140.0
 20
1887.309178624823
 11
5140.0
 21
3148.695202158872
  0
LINE
  5
A2
100
AcDbEntity
  8
1
  6
DOT_CENTER
 62
           2
100
AcDbLine
 10
-710.984249782269
 20
2413.0
 11
937.203519026488
 21
2413.0
  0
LINE
  5
A1
100
AcDbEntity
  8
1
  6
CONTINUOUS
 62
           7
100
AcDbLine
 10
1972.386953890961
 20
540.0
 11
2.386953890961
 21
540.0
  0
LINE
  5
A0
100
AcDbEntity
  8
1
  6
DOT_CENTER
 62
           2
100
AcDbLine
 10
237.386953890961
 20
-110.11895551696
 11
237.386953890961
 21
3204.543537887942
  0
LINE
  5
9F
100
AcDbEntity
  8
1
  6
DOT_CENTER
 62
           2
100
AcDbLine
 10
-679.079758452413
 20
5252.0
 11
993.43438081383
 21
5252.0
  0
LINE
  5
9E
100
AcDbEntity
  8
1
  6
DOT_CENTER
 62
           2
100
AcDbLine
 10
237.386953890961
 20
5916.216232355005
 11
237.386953890961
 21
3625.38252552206
  0
LINE
  5
9D
100
AcDbEntity
  8
1
  6
CONTINUOUS
 62
           7
100
AcDbLine
 10
2037.386953890961
 20
3752.0
 11
2037.386953890961
 21
5752.0
  0
LINE
  5
9C
100
AcDbEntity
  8
1
  6
CONTINUOUS
 62
           2
100
AcDbLine
 10
2017.386953890961
 20
5732.0
 11
2017.386953890961
 21
4772.0
  0
LINE
  5
9B
100
AcDbEntity
  8
1
  6
CONTINUOUS
 62
           2
100
AcDbLine
 10
757.386953890961
 20
5732.0
 11
1717.386953890961
 21
5732.0
  0
LINE
  5
9A
100
AcDbEntity
  8
1
  6
CONTINUOUS
 62
           2
100
AcDbLine
 10
1967.386953890961
 20
4732.0
 11
1967.386953890961
 21
3802.0
  0
LINE
  5
99
100
AcDbEntity
  8
1
  6
CONTINUOUS
 62
           7
100
AcDbLine
 10
-492.613046109039
 20
5752.0
 11
-1562.61304610904
 21
5752.0
  0
LINE
  5
98
100
AcDbEntity
  8
1
  6
CONTINUOUS
 62
           2
100
AcDbLine
 10
1967.386953890961
 20
4732.0
 11
533.614719907799
 21
4732.0
  0
LINE
  5
97
100
AcDbEntity
  8
1
  6
CONTINUOUS
 62
           2
100
AcDbLine
 10
1991.386953890961
 20
4752.0
 11
1991.386953890961
 21
3802.0
  0
LINE
  5
96
100
AcDbEntity
  8
1
  6
CONTINUOUS
 62
           7
100
AcDbLine
 10
1737.386953890961
 20
5752.0
 11
1737.386953890961
 21
4752.0
  0
LINE
  5
95
100
AcDbEntity
  8
1
  6
CONTINUOUS
 62
           2
100
AcDbLine
 10
1757.386953890961
 20
5732.0
 11
1757.386953890961
 21
4772.0
  0
LINE
  5
94
100
AcDbEntity
  8
1
  6
CONTINUOUS
 62
           2
100
AcDbLine
 10
1757.386953890961
 20
5732.0
 11
2017.386953890961
 21
5732.0
  0
LINE
  5
93
100
AcDbEntity
  8
1
  6
CONTINUOUS
 62
           2
100
AcDbLine
 10
1757.386953890961
 20
4772.0
 11
2017.386953890961
 21
4772.0
  0
LINE
  5
92
100
AcDbEntity
  8
1
  6
CONTINUOUS
 62
           2
100
AcDbLine
 10
1717.386953890961
 20
5732.0
 11
1717.386953890961
 21
4772.0
  0
LINE
  5
91
100
AcDbEntity
  8
1
  6
CONTINUOUS
 62
           2
100
AcDbLine
 10
-1516.61304610904
 20
4752.0
 11
-1516.61304610904
 21
3802.0
  0
LINE
  5
90
100
AcDbEntity
  8
1
  6
CONTINUOUS
 62
           7
100
AcDbLine
 10
-1262.61304610904
 20
5752.0
 11
-1262.61304610904
 21
4752.0
  0
LINE
  5
8F
100
AcDbEntity
  8
1
  6
CONTINUOUS
 62
           2
100
AcDbLine
 10
-1282.61304610904
 20
5732.0
 11
-1282.61304610904
 21
4772.0
  0
LINE
  5
8E
100
AcDbEntity
  8
1
  6
CONTINUOUS
 62
           2
100
AcDbLine
 10
-1242.61304610904
 20
5732.0
 11
-1242.61304610904
 21
4772.0
  0
LINE
  5
8D
100
AcDbEntity
  8
1
  6
CONTINUOUS
 62
           2
100
AcDbLine
 10
-1282.61304610904
 20
5732.0
 11
-1542.61304610904
 21
5732.0
  0
LINE
  5
8C
100
AcDbEntity
  8
1
  6
CONTINUOUS
 62
           2
100
AcDbLine
 10
-1242.61304610904
 20
4772.0
 11
-282.613046109039
 21
4772.0
  0
LINE
  5
8B
100
AcDbEntity
  8
1
  6
CONTINUOUS
 62
           7
100
AcDbLine
 10
237.386953890961
 20
5752.0
 11
237.386953890961
 21
5762.0
  0
LINE
  5
8A
100
AcDbEntity
  8
1
  6
CONTINUOUS
 62
           7
100
AcDbLine
 10
-12.613046109039
 20
475.000000000001
 11
-12.613046109039
 21
400.0
  0
LINE
  5
89
100
AcDbEntity
  8
1
  6
CONTINUOUS
 62
           7
100
AcDbLine
 10
4640.000000000002
 20
2075.0
 11
5640.0
 21
2075.0
  0
LINE
  5
88
100
AcDbEntity
  8
1
  6
CONTINUOUS
 62
           7
100
AcDbLine
 10
3880.000000000002
 20
1862.0
 11
3880.000000000002
 21
1950.0
  0
LINE
  5
87
100
AcDbEntity
  8
1
  6
CONTINUOUS
 62
           7
100
AcDbLine
 10
3690.000000000002
 20
1862.0
 11
3880.000000000002
 21
1862.0
  0
LINE
  5
86
100
AcDbEntity
  8
1
  6
CONTINUOUS
 62
           7
100
AcDbLine
 10
3690.000000000002
 20
1950.0
 11
3690.000000000002
 21
1862.0
  0
LINE
  5
85
100
AcDbEntity
  8
1
  6
CONTINUOUS
 62
           7
100
AcDbLine
 10
3880.000000000002
 20
1950.0
 11
3690.000000000002
 21
1950.0
  0
LINE
  5
84
100
AcDbEntity
  8
1
  6
CONTINUOUS
 62
           7
100
AcDbLine
 10
4370.000000000002
 20
1330.0
 11
4190.000000000002
 21
1330.0
  0
LINE
  5
83
100
AcDbEntity
  8
1
  6
CONTINUOUS
 62
           7
100
AcDbLine
 10
4190.000000000002
 20
1570.0
 11
4370.000000000002
 21
1570.0
  0
LINE
  5
82
100
AcDbEntity
  8
1
  6
CONTINUOUS
 62
           7
100
AcDbLine
 10
4190.000000000002
 20
1330.0
 11
4190.000000000002
 21
1570.0
  0
LINE
  5
81
100
AcDbEntity
  8
1
  6
CONTINUOUS
 62
           7
100
AcDbLine
 10
4370.000000000002
 20
1570.0
 11
4370.000000000002
 21
1330.0
  0
LINE
  5
80
100
AcDbEntity
  8
1
  6
CONTINUOUS
 62
           7
100
AcDbLine
 10
6140.0
 20
0.0
 11
3140.000000000001
 21
0.0
  0
LINE
  5
7F
100
AcDbEntity
  8
1
  6
CONTINUOUS
 62
           2
100
AcDbLine
 10
5620.0
 20
1980.0
 11
4660.000000000002
 21
1980.0
  0
LINE
  5
7E
100
AcDbEntity
  8
1
  6
CONTINUOUS
 62
           2
100
AcDbLine
 10
5620.0
 20
520.0
 11
5620.0
 21
1980.0
  0
LINE
  5
7D
100
AcDbEntity
  8
1
  6
CONTINUOUS
 62
           2
100
AcDbLine
 10
4660.000000000002
 20
520.0
 11
5620.0
 21
520.0
  0
LINE
  5
7C
100
AcDbEntity
  8
1
  6
CONTINUOUS
 62
           2
100
AcDbLine
 10
4160.000000000002
 20
520.0
 11
4620.000000000002
 21
520.0
  0
LINE
  5
7B
100
AcDbEntity
  8
1
  6
CONTINUOUS
 62
           2
100
AcDbLine
 10
4160.000000000002
 20
1980.0
 11
4160.000000000002
 21
520.0
  0
LINE
  5
7A
100
AcDbEntity
  8
1
  6
CONTINUOUS
 62
           2
100
AcDbLine
 10
4620.000000000002
 20
1980.0
 11
4160.000000000002
 21
1980.0
  0
LINE
  5
79
100
AcDbEntity
  8
1
  6
CONTINUOUS
 62
           7
100
AcDbLine
 10
4640.000000000002
 20
2000.0
 11
4640.000000000002
 21
2075.0
  0
LINE
  5
78
100
AcDbEntity
  8
1
  6
CONTINUOUS
 62
           2
100
AcDbLine
 10
5619.433325304563
 20
20.0
 11
5619.433325304562
 21
479.385061529882
  0
LINE
  5
77
100
AcDbEntity
  8
1
  6
CONTINUOUS
 62
           2
100
AcDbLine
 10
4160.000000000002
 20
20.0
 11
5619.433325304563
 21
20.0
  0
LINE
  5
76
100
AcDbEntity
  8
1
  6
CONTINUOUS
 62
           2
100
AcDbLine
 10
4160.000000000002
 20
479.385061529882
 11
4160.000000000002
 21
20.0
  0
LINE
  5
75
100
AcDbEntity
  8
1
  6
CONTINUOUS
 62
           2
100
AcDbLine
 10
5619.433325304562
 20
479.385061529882
 11
4160.000000000002
 21
479.385061529882
  0
LINE
  5
74
100
AcDbEntity
  8
1
  6
CONTINUOUS
 62
           7
100
AcDbLine
 10
4140.000000000002
 20
500.0
 11
5640.0
 21
500.0
  0
LINE
  5
73
100
AcDbEntity
  8
1
  6
CONTINUOUS
 62
           7
100
AcDbLine
 10
4140.000000000001
 20
0.0
 11
4140.000000000002
 21
2000.0
  0
LINE
  5
72
100
AcDbEntity
  8
1
  6
CONTINUOUS
 62
           2
100
AcDbLine
 10
3660.000000000002
 20
1980.0
 11
3660.000000000002
 21
1670.0
  0
LINE
  5
71
100
AcDbEntity
  8
1
  6
CONTINUOUS
 62
           2
100
AcDbLine
 10
4120.000000000002
 20
1980.0
 11
3660.000000000002
 21
1980.0
  0
LINE
  5
70
100
AcDbEntity
  8
1
  6
CONTINUOUS
 62
           2
100
AcDbLine
 10
4120.000000000002
 20
20.0
 11
4120.000000000002
 21
1330.0
  0
LINE
  5
6F
100
AcDbEntity
  8
1
  6
CONTINUOUS
 62
           2
100
AcDbLine
 10
3660.000000000002
 20
20.0
 11
4120.000000000002
 21
20.0
  0
LINE
  5
6E
100
AcDbEntity
  8
1
  6
CONTINUOUS
 62
           7
100
AcDbLine
 10
3640.000000000001
 20
0.0
 11
3640.000000000002
 21
2050.0
  0
LINE
  5
6D
100
AcDbEntity
  8
1
  6
CONTINUOUS
 62
           7
100
AcDbLine
 10
5640.0
 20
0.0
 11
5640.0
 21
2075.0
  0
LINE
  5
6C
100
AcDbEntity
  8
1
  6
CONTINUOUS
 62
           7
100
AcDbLine
 10
5640.0
 20
2000.0
 11
3640.000000000002
 21
2000.0
  0
LINE
  5
6B
100
AcDbEntity
  8
1
  6
CONTINUOUS
 62
           2
100
AcDbLine
 10
3640.000000000002
 20
2004.0
 11
4640.000000000002
 21
2004.0
  0
LINE
  5
6A
100
AcDbEntity
  8
1
  6
CONTINUOUS
 62
           7
100
AcDbLine
 10
3640.000000000002
 20
2050.0
 11
5640.0
 21
2050.0
  0
LINE
  5
69
100
AcDbEntity
  8
1
  6
DOT_CENTER
 62
           2
100
AcDbLine
 10
4865.0
 20
600.0
 11
5015.0
 21
600.0
  0
LINE
  5
68
100
AcDbEntity
  8
1
  6
DOT_CENTER
 62
           2
100
AcDbLine
 10
4940.0
 20
675.0
 11
4940.0
 21
525.0
  0
LINE
  5
67
100
AcDbEntity
  8
1
  6
DOT_CENTER
 62
           2
100
AcDbLine
 10
3890.000000000002
 20
2213.047564257508
 11
3890.000000000002
 21
1965.225537771773
  0
LINE
  5
66
100
AcDbEntity
  8
1
  6
CONTINUOUS
 62
           2
100
AcDbLine
 10
4120.000000000002
 20
1670.0
 11
4120.000000000002
 21
1980.0
  0
LINE
  5
65
100
AcDbEntity
  8
1
  6
CONTINUOUS
 62
           2
100
AcDbLine
 10
3660.000000000002
 20
1330.0
 11
3660.000000000002
 21
20.0
  0
LINE
  5
64
100
AcDbEntity
  8
1
  6
CONTINUOUS
 62
           7
100
AcDbLine
 10
3640.000000000002
 20
2150.0
 11
3690.000000000002
 21
2150.0
  0
LINE
  5
63
100
AcDbEntity
  8
1
  6
CONTINUOUS
 62
           7
100
AcDbLine
 10
3690.000000000002
 20
2120.0
 11
3690.000000000002
 21
2150.0
  0
LINE
  5
62
100
AcDbEntity
  8
1
  6
CONTINUOUS
 62
           7
100
AcDbLine
 10
3640.000000000002
 20
2050.0
 11
3640.000000000002
 21
2150.0
  0
LINE
  5
61
100
AcDbEntity
  8
1
  6
DOT_CENTER
 62
           2
100
AcDbLine
 10
5809.999999999998
 20
2413.0
 11
4402.601091397199
 21
2413.0
  0
LINE
  5
60
100
AcDbEntity
  8
1
  6
CONTINUOUS
 62
           4
100
AcDbLine
 10
2037.386953890961
 20
3752.000000000002
 11
2042.386953890961
 21
3752.000000000002
  0
LINE
  5
5F
100
AcDbEntity
  8
1
  6
CONTINUOUS
 62
           4
100
AcDbLine
 10
2042.386953890961
 20
3752.000000000002
 11
2042.386953890961
 21
4252.000000000002
  0
LINE
  5
5E
100
AcDbEntity
  8
1
  6
CONTINUOUS
 62
           4
100
AcDbLine
 10
2042.386953890961
 20
4252.000000000002
 11
2037.386953890961
 21
4252.000000000002
  0
LINE
  5
5D
100
AcDbEntity
  8
1
  6
CONTINUOUS
 62
           7
100
AcDbLine
 10
2037.386953890961
 20
3752.000000000002
 11
2037.386953890961
 21
4252.000000000002
  0
LINE
  5
5C
100
AcDbEntity
  8
1
  6
CONTINUOUS
 62
           2
100
AcDbLine
 10
3882.5
 20
1094.499999999994
 11
3902.573593128806
 21
1094.499999999994
  0
LINE
  5
5B
100
AcDbEntity
  8
1
  6
CONTINUOUS
 62
           2
100
AcDbLine
 10
3882.314185654645
 20
1064.499999999994
 11
3882.314185654645
 21
1094.499999999994
  0
LINE
  5
5A
100
AcDbEntity
  8
1
  6
CONTINUOUS
 62
           2
100
AcDbLine
 10
3955.000000000002
 20
1141.999999999994
 11
3955.000000000002
 21
1161.999999999994
  0
LINE
  5
59
100
AcDbEntity
  8
1
  6
CONTINUOUS
 62
           2
100
AcDbLine
 10
3935.000000000002
 20
1141.999999999994
 11
3935.000000000002
 21
1161.999999999994
  0
LINE
  5
58
100
AcDbEntity
  8
1
  6
CONTINUOUS
 62
           2
100
AcDbLine
 10
3902.573593128806
 20
1064.499999999994
 11
3882.5
 21
1064.499999999994
  0
LINE
  5
57
100
AcDbEntity
  8
1
  6
CONTINUOUS
 62
           2
100
AcDbLine
 10
3930.000000000002
 20
1121.926406871187
 11
3930.000000000002
 21
1141.999999999994
  0
LINE
  5
56
100
AcDbEntity
  8
1
  6
CONTINUOUS
 62
           2
100
AcDbLine
 10
3930.000000000002
 20
1141.999999999994
 11
3960.000000000002
 21
1141.999999999994
  0
LINE
  5
55
100
AcDbEntity
  8
1
  6
CONTINUOUS
 62
           2
100
AcDbLine
 10
3960.000000000002
 20
1141.999999999994
 11
3960.000000000002
 21
1121.926406871187
  0
LINE
  5
54
100
AcDbEntity
  8
1
  6
CONTINUOUS
 62
           2
100
AcDbLine
 10
3960.000000000002
 20
1016.999999999994
 11
3930.000000000002
 21
1016.999999999994
  0
LINE
  5
53
100
AcDbEntity
  8
1
  6
CONTINUOUS
 62
           2
100
AcDbLine
 10
3960.000000000002
 20
1037.073593128801
 11
3960.000000000002
 21
1016.999999999994
  0
LINE
  5
52
100
AcDbEntity
  8
1
  6
CONTINUOUS
 62
           2
100
AcDbLine
 10
3930.000000000002
 20
1016.999999999994
 11
3930.000000000002
 21
1037.073593128801
  0
LINE
  5
51
100
AcDbEntity
  8
1
  6
CONTINUOUS
 62
           7
100
AcDbLine
 10
4070.000000000002
 20
1329.999999999997
 11
4140.000000000001
 21
1329.999999999997
  0
LINE
  5
50
100
AcDbEntity
  8
1
  6
CONTINUOUS
 62
           7
100
AcDbLine
 10
4070.000000000002
 20
1669.999999999992
 11
4140.000000000001
 21
1669.999999999992
  0
LINE
  5
4F
100
AcDbEntity
  8
1
  6
CONTINUOUS
 62
           7
100
AcDbLine
 10
3640.000000000002
 20
1329.999999999997
 11
3715.000000000002
 21
1329.999999999997
  0
LINE
  5
4E
100
AcDbEntity
  8
1
  6
CONTINUOUS
 62
           7
100
AcDbLine
 10
3640.000000000002
 20
1669.999999999992
 11
3820.000000000002
 21
1669.999999999992
  0
LINE
  5
4D
100
AcDbEntity
  8
1
  6
CONTINUOUS
 62
           4
100
AcDbLine
 10
2042.386953890961
 20
1330.000000000001
 11
2037.386953890961
 21
1329.999999999997
  0
LINE
  5
4C
100
AcDbEntity
  8
1
  6
CONTINUOUS
 62
           4
100
AcDbLine
 10
2037.386953890961
 20
1670.000000000008
 11
2042.386953890961
 21
1670.000000000008
  0
LINE
  5
4B
100
AcDbEntity
  8
1
  6
CONTINUOUS
 62
           4
100
AcDbLine
 10
2042.386953890961
 20
1670.000000000008
 11
2042.386953890961
 21
1330.000000000001
  0
LINE
  5
4A
100
AcDbEntity
  8
1
  6
CONTINUOUS
 62
           2
100
AcDbLine
 10
2195.38695389096
 20
1107.249999999984
 11
2195.38695389096
 21
1116.499999999984
  0
LINE
  5
49
100
AcDbEntity
  8
1
  6
CONTINUOUS
 62
           2
100
AcDbLine
 10
2195.38695389096
 20
1046.749999999984
 11
2195.38695389096
 21
1042.499999999984
  0
LINE
  5
48
100
AcDbEntity
  8
1
  6
CONTINUOUS
 62
           2
100
AcDbLine
 10
2195.38695389096
 20
1046.749999999984
 11
2195.38695389096
 21
1107.249999999984
  0
LINE
  5
47
100
AcDbEntity
  8
1
  6
CONTINUOUS
 62
           2
100
AcDbLine
 10
2122.38695389096
 20
1107.249999999984
 11
2122.38695389096
 21
1141.999999999984
  0
LINE
  5
46
100
AcDbEntity
  8
1
  6
CONTINUOUS
 62
           2
100
AcDbLine
 10
2122.38695389096
 20
1046.749999999984
 11
2122.38695389096
 21
1016.999999999984
  0
LINE
  5
45
100
AcDbEntity
  8
1
  6
CONTINUOUS
 62
           2
100
AcDbLine
 10
2178.38695389096
 20
1046.749999999984
 11
2178.38695389096
 21
1034.499999999984
  0
LINE
  5
44
100
AcDbEntity
  8
1
  6
CONTINUOUS
 62
           2
100
AcDbLine
 10
2178.38695389096
 20
1107.249999999984
 11
2178.38695389096
 21
1124.499999999984
  0
LINE
  5
43
100
AcDbEntity
  8
1
  6
CONTINUOUS
 62
           2
100
AcDbLine
 10
2178.38695389096
 20
1107.249999999984
 11
2178.38695389096
 21
1046.749999999984
  0
LINE
  5
42
100
AcDbEntity
  8
1
  6
CONTINUOUS
 62
           2
100
AcDbLine
 10
2122.38695389096
 20
1107.249999999984
 11
2122.38695389096
 21
1046.749999999984
  0
LINE
  5
41
100
AcDbEntity
  8
1
  6
CONTINUOUS
 62
           2
100
AcDbLine
 10
2152.38695389096
 20
1141.999999999984
 11
2152.38695389096
 21
1161.999999999984
  0
LINE
  5
40
100
AcDbEntity
  8
1
  6
CONTINUOUS
 62
           2
100
AcDbLine
 10
2132.38695389096
 20
1141.999999999984
 11
2132.38695389096
 21
1161.999999999984
  0
LINE
  5
3F
100
AcDbEntity
  8
1
  6
CONTINUOUS
 62
           2
100
AcDbLine
 10
2122.38695389096
 20
1094.499999999984
 11
2155.38695389096
 21
1094.499999999984
  0
LINE
  5
3E
100
AcDbEntity
  8
1
  6
CONTINUOUS
 62
           2
100
AcDbLine
 10
2122.38695389096
 20
1064.499999999984
 11
2155.38695389096
 21
1064.499999999984
  0
LINE
  5
3D
100
AcDbEntity
  8
1
  6
CONTINUOUS
 62
           2
100
AcDbLine
 10
2170.38695389096
 20
1124.499999999984
 11
2187.38695389096
 21
1124.499999999984
  0
LINE
  5
3C
100
AcDbEntity
  8
1
  6
CONTINUOUS
 62
           2
100
AcDbLine
 10
2170.38695389096
 20
1034.499999999984
 11
2187.38695389096
 21
1034.499999999984
  0
LINE
  5
3B
100
AcDbEntity
  8
1
  6
CONTINUOUS
 62
           2
100
AcDbLine
 10
2122.38695389096
 20
1016.999999999984
 11
2170.38695389096
 21
1016.999999999984
  0
LINE
  5
3A
100
AcDbEntity
  8
1
  6
CONTINUOUS
 62
           2
100
AcDbLine
 10
2170.38695389096
 20
1016.999999999984
 11
2170.38695389096
 21
1034.499999999984
  0
LINE
  5
39
100
AcDbEntity
  8
1
  6
CONTINUOUS
 62
           2
100
AcDbLine
 10
2122.38695389096
 20
1141.999999999984
 11
2170.38695389096
 21
1141.999999999984
  0
LINE
  5
38
100
AcDbEntity
  8
1
  6
CONTINUOUS
 62
           2
100
AcDbLine
 10
2170.38695389096
 20
1141.999999999984
 11
2170.38695389096
 21
1124.499999999984
  0
LINE
  5
37
100
AcDbEntity
  8
1
  6
CONTINUOUS
 62
           2
100
AcDbLine
 10
2155.070234890311
 20
1041.999999999984
 11
2122.38695389096
 21
1041.999999999984
  0
LINE
  5
36
100
AcDbEntity
  8
1
  6
CONTINUOUS
 62
           2
100
AcDbLine
 10
2155.070234890311
 20
1116.999999999984
 11
2122.38695389096
 21
1116.999999999984
  0
LINE
  5
35
100
AcDbEntity
  8
1
  6
CONTINUOUS
 62
           4
100
AcDbLine
 10
3735.000000000002
 20
1430.000000000003
 11
3715.000000000002
 21
1430.000000000003
  0
LINE
  5
34
100
AcDbEntity
  8
1
  6
CONTINUOUS
 62
           4
100
AcDbLine
 10
3715.000000000002
 20
1430.000000000003
 11
3715.000000000002
 21
1119.435182228534
  0
LINE
  5
33
100
AcDbEntity
  8
1
  6
CONTINUOUS
 62
           4
100
AcDbLine
 10
3765.000000000002
 20
1069.435182228534
 11
3882.314185654645
 21
1069.435182228534
  0
LINE
  5
32
100
AcDbEntity
  8
1
  6
CONTINUOUS
 62
           4
100
AcDbLine
 10
3882.314185654645
 20
1069.435182228534
 11
3882.314185654645
 21
1089.435182228534
  0
LINE
  5
31
100
AcDbEntity
  8
1
  6
CONTINUOUS
 62
           4
100
AcDbLine
 10
3882.314185654645
 20
1089.435182228534
 11
3765.000000000002
 21
1089.435182228534
  0
LINE
  5
30
100
AcDbEntity
  8
1
  6
CONTINUOUS
 62
           4
100
AcDbLine
 10
3735.000000000002
 20
1119.435182228534
 11
3735.000000000002
 21
1430.000000000003
  0
LINE
  5
2F
100
AcDbEntity
  8
1
  6
CONTINUOUS
 62
           7
100
AcDbLine
 10
3735.000000000002
 20
1329.999999999997
 11
3820.000000000002
 21
1329.999999999997
  0
POINT
  5
2E
100
AcDbEntity
  8
0
 62
           3
100
AcDbPoint
 10
4473.399996721733
 20
1365.000000000117
  0
ENDSEC
  0
SECTION
  2
OBJECTS
  0
DICTIONARY
  5
19
100
AcDbDictionary
  3
ACAD_GROUP
350
1A
  3
ACAD_MLINESTYLE
350
1B
  0
DICTIONARY
  5
1A
102
{ACAD_REACTORS
330
19
102
}
100
AcDbDictionary
  0
DICTIONARY
  5
1B
102
{ACAD_REACTORS
330
19
102
}
100
AcDbDictionary
  3
STANDARD
350
1C
  0
MLINESTYLE
  5
1C
102
{ACAD_REACTORS
330
1B
102
}
100
AcDbMlineStyle
  2
STANDARD
 70
           0
  3

 62
           0
 51
90.0
 52
90.0
 71
           2
 49
0.5
 62
         256
  6
BYLAYER
 49
-0.5
 62
         256
  6
BYLAYER
  0
ENDSEC
  0
EOF
