  0
SECTION
  2
HEADER
  9
$ACADVER
  1
AC1014
  9
$ACADMAINTVER
 70
           0
  9
$DWGCODEPAGE
  3
DOS932
  9
$INSBASE
 10
0.0
 20
0.0
 30
0.0
  9
$EXTMIN
 10
1.000000000000E+20
 20
1.000000000000E+20
 30
1.000000000000E+20
  9
$EXTMAX
 10
-1.000000000000E+20
 20
-1.000000000000E+20
 30
-1.000000000000E+20
  9
$LIMMIN
 10
0.0
 20
0.0
  9
$LIMMAX
 10
0.0
 20
0.0
  9
$ORTHOMODE
 70
           0
  9
$REGENMODE
 70
           1
  9
$FILLMODE
 70
           1
  9
$QTEXTMODE
 70
           0
  9
$MIRRTEXT
 70
           1
  9
$DRAGMODE
 70
           2
  9
$LTSCALE
 40
1.0
  9
$OSMODE
 70
           0
  9
$ATTMODE
 70
           1
  9
$TEXTSIZE
 40
0.2
  9
$TRACEWID
 40
0.05
  9
$TEXTSTYLE
  7
STANDARD
  9
$CLAYER
  8
0
  9
$CELTYPE
  6
CONTINUOUS
  9
$CECOLOR
 62
         256
  9
$CELTSCALE
 40
1.0
  9
$DELOBJ
 70
           1
  9
$DISPSILH
 70
           0
  9
$DIMSCALE
 40
1.0
  9
$DIMASZ
 40
0.18
  9
$DIMEXO
 40
0.0625
  9
$DIMDLI
 40
0.38
  9
$DIMRND
 40
0.0
  9
$DIMDLE
 40
0.0
  9
$DIMEXE
 40
0.18
  9
$DIMTP
 40
0.0
  9
$DIMTM
 40
0.0
  9
$DIMTXT
 40
0.18
  9
$DIMCEN
 40
0.09
  9
$DIMTSZ
 40
0.0
  9
$DIMTOL
 70
           0
  9
$DIMLIM
 70
           0
  9
$DIMTIH
 70
           1
  9
$DIMTOH
 70
           1
  9
$DIMSE1
 70
           0
  9
$DIMSE2
 70
           0
  9
$DIMTAD
 70
           0
  9
$DIMZIN
 70
           0
  9
$DIMBLK
  1

  9
$DIMASO
 70
           1
  9
$DIMSHO
 70
           1
  9
$DIMPOST
  1

  9
$DIMAPOST
  1

  9
$DIMALT
 70
           0
  9
$DIMALTD
 70
           2
  9
$DIMALTF
 40
25.4
  9
$DIMLFAC
 40
1.0
  9
$DIMTOFL
 70
           0
  9
$DIMTVP
 40
0.0
  9
$DIMTIX
 70
           0
  9
$DIMSOXD
 70
           0
  9
$DIMSAH
 70
           0
  9
$DIMBLK1
  1

  9
$DIMBLK2
  1

  9
$DIMSTYLE
  2
STANDARD
  9
$DIMCLRD
 70
           0
  9
$DIMCLRE
 70
           0
  9
$DIMCLRT
 70
           0
  9
$DIMTFAC
 40
1.0
  9
$DIMGAP
 40
0.09
  9
$DIMJUST
 70
           0
  9
$DIMSD1
 70
           0
  9
$DIMSD2
 70
           0
  9
$DIMTOLJ
 70
           1
  9
$DIMTZIN
 70
           0
  9
$DIMALTZ
 70
           0
  9
$DIMALTTZ
 70
           0
  9
$DIMFIT
 70
           3
  9
$DIMUPT
 70
           0
  9
$DIMUNIT
 70
           2
  9
$DIMDEC
 70
           4
  9
$DIMTDEC
 70
           4
  9
$DIMALTU
 70
           2
  9
$DIMALTTD
 70
           2
  9
$DIMTXSTY
  7
STANDARD
  9
$DIMAUNIT
 70
           0
  9
$LUNITS
 70
           2
  9
$LUPREC
 70
           4
  9
$SKETCHINC
 40
0.1
  9
$FILLETRAD
 40
0.0
  9
$AUNITS
 70
           0
  9
$AUPREC
 70
           0
  9
$MENU
  1
acad
  9
$ELEVATION
 40
0.0
  9
$PELEVATION
 40
0.0
  9
$THICKNESS
 40
0.0
  9
$LIMCHECK
 70
           0
  9
$BLIPMODE
 70
           1
  9
$CHAMFERA
 40
0.0
  9
$CHAMFERB
 40
0.0
  9
$CHAMFERC
 40
0.0
  9
$CHAMFERD
 40
0.0
  9
$SKPOLY
 70
           0
  9
$TDCREATE
 40
0.000000000
  9
$TDUPDATE
 40
0.000000000
  9
$TDINDWG
 40
0.0000000000
  9
$TDUSRTIMER
 40
0.0000000000
  9
$USRTIMER
 70
           1
  9
$ANGBASE
 50
0.0
  9
$ANGDIR
 70
           0
  9
$PDMODE
 70
           0
  9
$PDSIZE
 40
0.0
  9
$PLINEWID
 40
0.0
  9
$COORDS
 70
           0
  9
$SPLFRAME
 70
           0
  9
$SPLINETYPE
 70
           6
  9
$SPLINESEGS
 70
           8
  9
$ATTDIA
 70
           0
  9
$ATTREQ
 70
           1
  9
$HANDLING
 70
           1
  9
$HANDSEED
  5
4B0
  9
$SURFTAB1
 70
           6
  9
$SURFTAB2
 70
           6
  9
$SURFTYPE
 70
           6
  9
$SURFU
 70
           6
  9
$SURFV
 70
           6
  9
$UCSNAME
  2

  9
$UCSORG
 10
0.0
 20
0.0
 30
0.0
  9
$UCSXDIR
 10
1.0
 20
0.0
 30
0.0
  9
$UCSYDIR
 10
0.0
 20
1.0
 30
0.0
  9
$PUCSNAME
  2

  9
$PUCSORG
 10
0.0
 20
0.0
 30
0.0
  9
$PUCSXDIR
 10
1.0
 20
0.0
 30
0.0
  9
$PUCSYDIR
 10
0.0
 20
1.0
 30
0.0
  9
$USERI1
 70
           0
  9
$USERI2
 70
           0
  9
$USERI3
 70
           0
  9
$USERI4
 70
           0
  9
$USERI5
 70
           0
  9
$USERR1
 40
0.0
  9
$USERR2
 40
0.0
  9
$USERR3
 40
0.0
  9
$USERR4
 40
0.0
  9
$USERR5
 40
0.0
  9
$WORLDVIEW
 70
           1
  9
$SHADEDGE
 70
           3
  9
$SHADEDIF
 70
          70
  9
$TILEMODE
 70
           1
  9
$MAXACTVP
 70
          16
  9
$PINSBASE
 10
0.0
 20
0.0
 30
0.0
  9
$PLIMCHECK
 70
           0
  9
$PEXTMIN
 10
1.000000000000E+20
 20
1.000000000000E+20
 30
1.000000000000E+20
  9
$PEXTMAX
 10
-1.000000000000E+20
 20
-1.000000000000E+20
 30
-1.000000000000E+20
  9
$PLIMMIN
 10
0.0
 20
0.0
  9
$PLIMMAX
 10
12.0
 20
9.0
  9
$UNITMODE
 70
           0
  9
$VISRETAIN
 70
           0
  9
$PLINEGEN
 70
           1
  9
$PSLTSCALE
 70
           0
  9
$TREEDEPTH
 70
        3020
  9
$PICKSTYLE
 70
           1
  9
$CMLSTYLE
  2
STANDARD
  9
$CMLJUST
 70
           0
  9
$CMLSCALE
 40
1.0
  9
$PROXYGRAPHICS
 70
           0
  9
$MEASUREMENT
 70
           0
  0
ENDSEC
  0
SECTION
  2
CLASSES
  0
CLASS
  1
LWPOLYLINE
  2
AcDbPolyline
  3
"AutoCAD"
 90
        0
280
           0
281
           1
  0
CLASS
  1
IMAGE
  2
AcDbRasterImage
  3
ISM
 90
      127
280
           0
281
           1
  0
CLASS
  1
OLE2FRAME
  2
AcDbOle2Frame
  3
""
 90
        0
280
           0
281
           1
  0
CLASS
  1
HATCH
  2
AcDbHatch
  3
"ACAD_SEDONA"
 90
        0
280
           0
281
           1
  0
CLASS
  1
DICTIONARYVAR
  2
AcDbDictionaryVar
  3
"AutoCAD"
 90
        0
280
           0
281
           0
  0
CLASS
  1
RASTERVARIABLES
  2
AcDbRasterVariables
  3
ISM
 90
        0
280
           0
281
           0
  0
CLASS
  1
IMAGEDEF
  2
AcDbRasterImageDef
  3
ISM
 90
        0
280
           0
281
           0
  0
CLASS
  1
IMAGEDEF_REACTOR
  2
AcDbRasterImageDefReactor
  3
ISM
 90
        1
280
           0
281
           0
  0
CLASS
  1
IDBUFFER
  2
AcDbIdBuffer
  3
"Acad"
 90
        0
280
           0
281
           0
  0
CLASS
  1
SPATIAL_FILTER
  2
AcDbSpatialFilter
  3
"Acad"
 90
        0
280
           0
281
           0
  0
CLASS
  1
XRECORD
  2
AcDbXrecord
  3
"<Built In>"
 90
        0
280
           0
281
           0
  0
CLASS
  1
SORTENTSTABLE
  2
AcDbSortentsTable
  3
"AutoCAD"
 90
        0
280
           0
281
           0
  0
CLASS
  1
LAYER_INDEX
  2
AcDbLayerIndex
  3
"Acad"
 90
        0
280
           0
281
           0
  0
CLASS
  1
SPATIAL_INDEX
  2
AcDbSpatialIndex
  3
"Acad"
 90
        0
280
           0
281
           0
  0
CLASS
  1
OBJECT_PTR
  2
CAseDLPNTableRecord
  3
"ASE-LPNTableRecord"
 90
        1
280
           0
281
           0
  0
CLASS
  1
LAYOUT
  2
AcDbLayout
  3
"AutoCAD 2000"
 90
        1
280
           0
281
           0
  0
CLASS
  1
PLOTSETTINGS
  2
AcDbPlotSettings
  3
"AutoCAD 2000"
 90
        1
280
           0
281
           0
  0
CLASS
  1
ACDBDICTIONARYWDFLT
  2
AcDbDictionaryWithDefault
  3
"AutoCAD 2000"
 90
        1
280
           0
281
           0
  0
CLASS
  1
ACDBPLACEHOLDER
  2
AcDbPlaceHolder
  3
"AutoCAD 2000"
 90
        1
280
           0
281
           0
  0
CLASS
  1
VBA_PROJECT
  2
AcDbVbaProject
  3
"acadvba"
 90
        1
280
           0
281
           0
  0
CLASS
  1
WIPEOUT
  2
AcDbWipeout
  3
WipeOut|AutoCAD Express Tool|expresstools@autodesk.com
 90
      127
280
           0
281
           1
  0
CLASS
  1
WIPEOUTVARIABLES
  2
AcDbWipeoutVariables
  3
WipeOut|AutoCAD Express Tool|expresstools@autodesk.com
 90
        0
280
           0
281
           0
  0
CLASS
  1
RTEXT
  2
RText
  3
RText|AutoCAD Express Tool|expresstools@autodesk.com
 90
        0
280
           0
281
           1
  0
CLASS
  1
ARCALIGNEDTEXT
  2
AcDbArcAlignedText
  3
ATEXT|AutoCAD Express Tool|expresstools@autodesk.com
 90
        0
280
           0
281
           1
  0
ENDSEC
  0
SECTION
  2
TABLES
  0
TABLE
  2
VPORT
  5
7
100
AcDbSymbolTable
 70
           1
  0
VPORT
  5
15
100
AcDbSymbolTableRecord
100
AcDbViewportTableRecord
  2
*ACTIVE
 70
           0
 10
0.0
 20
0.0
 11
1.0
 21
1.0
 12
6.591288
 22
4.579184
 13
0.0
 23
0.0
 14
1.0
 24
1.0
 15
0.0
 25
0.0
 16
0.0
 26
0.0
 36
1.0
 17
0.0
 27
0.0
 37
0.0
 40
9.158369
 41
0.688564
 42
50.0
 43
0.0
 44
0.0
 50
0.0
 51
0.0
 71
           0
 72
         100
 73
           1
 74
           1
 75
           0
 76
           0
 77
           0
 78
           0
  0
ENDTAB
  0
TABLE
  2
LTYPE
  5
4
100
AcDbSymbolTable
 70
          10
  0
LTYPE
  5
11
100
AcDbSymbolTableRecord
100
AcDbLinetypeTableRecord
  2
BYBLOCK
 70
          64
  3

 72
          65
 73
           0
 40
0.0
  0
LTYPE
  5
12
100
AcDbSymbolTableRecord
100
AcDbLinetypeTableRecord
  2
BYLAYER
 70
          64
  3

 72
          65
 73
           0
 40
0.0
  0
LTYPE
  5
13
100
AcDbSymbolTableRecord
100
AcDbLinetypeTableRecord
  2
CONTINUOUS
 70
          64
  3
Solid line
 72
          65
 73
           0
 40
0.0
  0
LTYPE
  5
1D
100
AcDbSymbolTableRecord
100
AcDbLinetypeTableRecord
  2
DASHED
 70
          64
  3
Dashed
 72
          65
 73
           2
 40
15.0
 49
12.0
 74
           0
 49
-3.0
 74
           0
  0
LTYPE
  5
1E
100
AcDbSymbolTableRecord
100
AcDbLinetypeTableRecord
  2
DOTTED
 70
          64
  3
Dotted
 72
          65
 73
           2
 40
3.5
 49
0.5
 74
           0
 49
-3.0
 74
           0
  0
LTYPE
  5
1F
100
AcDbSymbolTableRecord
100
AcDbLinetypeTableRecord
  2
DOT_CENTER
 70
          64
  3
Dot_Center
 72
          65
 73
           4
 40
2.0
 49
1.25
 74
           0
 49
-0.25
 74
           0
 49
0.25
 74
           0
 49
-0.25
 74
           0
  0
LTYPE
  5
20
100
AcDbSymbolTableRecord
100
AcDbLinetypeTableRecord
  2
LONG_DASHED
 70
          64
  3
Long_Dashed
 72
          65
 73
           2
 40
2.0
 49
1.5
 74
           0
 49
-0.5
 74
           0
  0
LTYPE
  5
21
100
AcDbSymbolTableRecord
100
AcDbLinetypeTableRecord
  2
DASH_CENTER
 70
          64
  3
Dash_Center
 72
          65
 73
           4
 40
36.0
 49
24.0
 74
           0
 49
-3.0
 74
           0
 49
6.0
 74
           0
 49
-3.0
 74
           0
  0
LTYPE
  5
22
100
AcDbSymbolTableRecord
100
AcDbLinetypeTableRecord
  2
PHANTOM
 70
          64
  3
Phantom
 72
          65
 73
           6
 40
2.5
 49
1.25
 74
           0
 49
-0.25
 74
           0
 49
0.25
 74
           0
 49
-0.25
 74
           0
 49
0.25
 74
           0
 49
-0.25
 74
           0
  0
LTYPE
  5
23
100
AcDbSymbolTableRecord
100
AcDbLinetypeTableRecord
  2
CENTER_DASH_DASH
 70
          64
  3
Center_Dash_Dash
 72
          65
 73
           6
 40
22.0
 49
12.0
 74
           0
 49
-3.0
 74
           0
 49
0.5
 74
           0
 49
-3.0
 74
           0
 49
0.5
 74
           0
 49
-3.0
 74
           0
  0
ENDTAB
  0
TABLE
  2
LAYER
  5
2
100
AcDbSymbolTable
 70
           7
  0
LAYER
  5
14
100
AcDbSymbolTableRecord
100
AcDbLayerTableRecord
  2
0
 70
           0
 62
           7
  6
CONTINUOUS
  0
LAYER
  5
24
100
AcDbSymbolTableRecord
100
AcDbLayerTableRecord
  2
___S__
 70
           0
 62
           7
  6
CONTINUOUS
  0
LAYER
  5
25
100
AcDbSymbolTableRecord
100
AcDbLayerTableRecord
  2
FORMAT
 70
           0
 62
           7
  6
CONTINUOUS
  0
LAYER
  5
26
100
AcDbSymbolTableRecord
100
AcDbLayerTableRecord
  2
1
 70
           0
 62
           7
  6
CONTINUOUS
  0
LAYER
  5
27
100
AcDbSymbolTableRecord
100
AcDbLayerTableRecord
  2
2
 70
           0
 62
           7
  6
CONTINUOUS
  0
LAYER
  5
28
100
AcDbSymbolTableRecord
100
AcDbLayerTableRecord
  2
7
 70
           0
 62
           7
  6
CONTINUOUS
  0
LAYER
  5
29
100
AcDbSymbolTableRecord
100
AcDbLayerTableRecord
  2
____
 70
           0
 62
           7
  6
CONTINUOUS
  0
ENDTAB
  0
TABLE
  2
STYLE
  5
3
100
AcDbSymbolTable
 70
           1
  0
STYLE
  5
17
100
AcDbSymbolTableRecord
100
AcDbTextStyleTableRecord
  2
STANDARD
 70
           0
 40
0.0
 41
1.0
 50
0.0
 71
           0
 42
0.0
  3
txt
  4

  0
ENDTAB
  0
TABLE
  2
VIEW
  5
5
100
AcDbSymbolTable
 70
           0
  0
ENDTAB
  0
TABLE
  2
UCS
  5
6
100
AcDbSymbolTable
 70
           0
  0
ENDTAB
  0
TABLE
  2
APPID
  5
8
100
AcDbSymbolTable
 70
           1
  0
APPID
  5
16
100
AcDbSymbolTableRecord
100
AcDbRegAppTableRecord
  2
ACAD
 70
           0
  0
ENDTAB
  0
TABLE
  2
DIMSTYLE
  5
9
100
AcDbSymbolTable
 70
           1
  0
DIMSTYLE
105
18
100
AcDbSymbolTableRecord
100
AcDbDimStyleTableRecord
  2
STANDARD
 70
           0
  3

  4

  5

  6

  7

 40
1.0
 41
0.18
 42
0.0625
 43
0.38
 44
0.18
 45
0.0
 46
0.0
 47
0.0
 48
0.0
 71
           0
 72
           0
 73
           1
 74
           1
 75
           0
 76
           0
 77
           0
 78
           0
140
0.18
141
0.09
142
0.0
143
25.4
144
1.0
145
0.0
146
1.0
147
0.09
170
           0
171
           2
172
           0
173
           0
174
           0
175
           0
176
           0
177
           0
178
           0
270
           2
271
           4
272
           4
273
           2
274
           2
275
           0
280
           0
281
           0
282
           0
283
           1
284
           0
285
           0
286
           0
287
           0
288
           0
340
17
  0
ENDTAB
  0
TABLE
  2
BLOCK_RECORD
  5
1
100
AcDbSymbolTable
 70
           0
  0
BLOCK_RECORD
  5
A
100
AcDbSymbolTableRecord
100
AcDbBlockTableRecord
  2
*MODEL_SPACE
  0
BLOCK_RECORD
  5
B
100
AcDbSymbolTableRecord
100
AcDbBlockTableRecord
  2
*PAPER_SPACE
  0
ENDTAB
  0
ENDSEC
  0
SECTION
  2
BLOCKS
  0
BLOCK
  5
D
100
AcDbEntity
  8
0
100
AcDbBlockBegin
  2
*MODEL_SPACE
 70
           0
 10
0.0
 20
0.0
 30
0.0
  3
*MODEL_SPACE
  1

  0
ENDBLK
  5
E
100
AcDbEntity
  8
0
100
AcDbBlockEnd
  0
BLOCK
  5
F
100
AcDbEntity
 67
           1
  8
0
100
AcDbBlockBegin
  2
*PAPER_SPACE
 70
           0
 10
0.0
 20
0.0
 30
0.0
  3
*PAPER_SPACE
  1

  0
ENDBLK
  5
10
100
AcDbEntity
 67
           1
  8
0
100
AcDbBlockEnd
  0
ENDSEC
  0
SECTION
  2
ENTITIES
  0
HATCH
  5
4AE
100
AcDbEntity
  8
0
  6
CONTINUOUS
 62
           3
100
AcDbHatch
 10
0.0
 20
0.0
 30
0.0
210
0.0
220
0.0
230
1.0
  2
USER
 70
           0
 71
           1
 91
        1
 92
        1
 93
        8
 72
           1
 10
4012.3141856546431
 20
1069.4351822285339
 11
4012.3141856546431
 21
1089.4351822285339
 72
           1
 10
3895.0
 20
1069.4351822285339
 11
4012.3141856546431
 21
1069.4351822285339
 72
           2
 10
3895.0
 20
1119.4351822285339
 40
50.0
 50
180.0
 51
-90.0
 73
           1
 72
           1
 10
3845.0
 20
1430.000000000003
 11
3845.0
 21
1119.4351822285339
 72
           1
 10
3865.0
 20
1430.000000000003
 11
3845.0
 21
1430.000000000003
 72
           1
 10
3865.0
 20
1119.4351822285339
 11
3865.0
 21
1430.000000000003
 72
           2
 10
3895.0
 20
1119.4351822285339
 40
30.0
 50
180.0
 51
-90.0
 73
           1
 72
           1
 10
4012.3141856546431
 20
1089.4351822285339
 11
3895.0
 21
1089.4351822285339
 97
        8
330
79
330
7A
330
486
330
7B
330
7C
330
77
330
487
330
78
 75
           1
 76
           0
 52
45.0
 41
10.0
 77
           0
 78
           1
 53
45.0
 43
0.0
 44
0.0
 45
-7.0710678118654746
 46
7.0710678118654755
 79
           0
 98
        1
 10
0.0
 20
0.0
  0
ARC
  5
4AD
100
AcDbEntity
  8
1
  6
CONTINUOUS
 62
           4
100
AcDbCircle
 10
595.616528426403
 20
5396.499999999997
 40
12.0
100
AcDbArc
 50
90.0
 51
120.430594205701
  0
ARC
  5
4AC
100
AcDbEntity
  8
1
  6
CONTINUOUS
 62
           4
100
AcDbCircle
 10
595.616528426403
 20
5305.499999999997
 40
12.000000000002
100
AcDbArc
 50
-120.430594205701
 51
-90.0
  0
ARC
  5
4AB
100
AcDbEntity
  8
1
  6
CONTINUOUS
 62
           7
100
AcDbCircle
 10
622.532792262553
 20
5299.499999999997
 40
12.0
100
AcDbArc
 50
180.0
 51
-90.0
  0
ARC
  5
4AA
100
AcDbEntity
  8
1
  6
CONTINUOUS
 62
           7
100
AcDbCircle
 10
622.532792262553
 20
5402.499999999997
 40
12.0
100
AcDbArc
 50
90.0
 51
180.0
  0
ARC
  5
4A9
100
AcDbEntity
  8
1
  6
CONTINUOUS
 62
           7
100
AcDbCircle
 10
662.707825664356
 20
5299.499999999997
 40
12.0
100
AcDbArc
 50
-90.0
 51
0.0
  0
ARC
  5
4A8
100
AcDbEntity
  8
1
  6
CONTINUOUS
 62
           7
100
AcDbCircle
 10
662.707825664356
 20
5402.499999999997
 40
12.0
100
AcDbArc
 50
0.0
 51
90.0
  0
ARC
  5
4A7
100
AcDbEntity
  8
1
  6
CONTINUOUS
 62
           7
100
AcDbCircle
 10
662.707825664356
 20
2804.299999999998
 40
12.0
100
AcDbArc
 50
0.0
 51
90.0
  0
ARC
  5
4A6
100
AcDbEntity
  8
1
  6
CONTINUOUS
 62
           7
100
AcDbCircle
 10
662.707825664356
 20
2728.299999999998
 40
12.0
100
AcDbArc
 50
-90.0
 51
0.0
  0
ARC
  5
4A5
100
AcDbEntity
  8
1
  6
CONTINUOUS
 62
           7
100
AcDbCircle
 10
612.204222464357
 20
2804.299999999998
 40
12.0
100
AcDbArc
 50
90.000000000009
 51
180.0
  0
ARC
  5
4A4
100
AcDbEntity
  8
1
  6
CONTINUOUS
 62
           7
100
AcDbCircle
 10
612.204222464357
 20
2728.299999999998
 40
12.0
100
AcDbArc
 50
180.0
 51
-90.000000000008
  0
ARC
  5
4A3
100
AcDbEntity
  8
1
  6
CONTINUOUS
 62
           7
100
AcDbCircle
 10
5258.499999999996
 20
2728.299999999999
 40
12.0
100
AcDbArc
 50
180.0
 51
-90.0
  0
ARC
  5
4A2
100
AcDbEntity
  8
1
  6
CONTINUOUS
 62
           7
100
AcDbCircle
 10
5258.499999999996
 20
2804.299999999999
 40
12.0
100
AcDbArc
 50
90.0
 51
180.0
  0
ARC
  5
4A1
100
AcDbEntity
  8
1
  6
CONTINUOUS
 62
           7
100
AcDbCircle
 10
5361.499999999996
 20
2728.299999999999
 40
12.0
100
AcDbArc
 50
-90.0
 51
0.0
  0
ARC
  5
4A0
100
AcDbEntity
  8
1
  6
CONTINUOUS
 62
           7
100
AcDbCircle
 10
5361.499999999996
 20
2804.299999999999
 40
12.0
100
AcDbArc
 50
0.0
 51
90.0
  0
ARC
  5
49F
100
AcDbEntity
  8
1
  6
CONTINUOUS
 62
           4
100
AcDbCircle
 10
5825.499999999996
 20
2610.500000000003
 40
1.0
100
AcDbArc
 50
180.0
 51
-90.0
  0
ARC
  5
49E
100
AcDbEntity
  8
1
  6
CONTINUOUS
 62
           4
100
AcDbCircle
 10
5814.499999999996
 20
2610.500000000003
 40
1.0
100
AcDbArc
 50
-90.0
 51
0.0
  0
ARC
  5
49D
100
AcDbEntity
  8
1
  6
CONTINUOUS
 62
           4
100
AcDbCircle
 10
5825.499999999996
 20
2159.500000000001
 40
1.0
100
AcDbArc
 50
90.0
 51
180.0
  0
ARC
  5
49C
100
AcDbEntity
  8
1
  6
CONTINUOUS
 62
           4
100
AcDbCircle
 10
5814.499999999996
 20
2159.500000000001
 40
1.0
100
AcDbArc
 50
0.0
 51
90.0
  0
ARC
  5
49B
100
AcDbEntity
  8
1
  6
CONTINUOUS
 62
           3
100
AcDbCircle
 10
5019.899996810931
 20
1641.000000000002
 40
288.0
100
AcDbArc
 50
90.0
 51
180.0
  0
ARC
  5
49A
100
AcDbEntity
  8
1
  6
CONTINUOUS
 62
           3
100
AcDbCircle
 10
5019.899998122324
 20
1641.000000000003
 40
280.0
100
AcDbArc
 50
90.0
 51
180.0
  0
ARC
  5
499
100
AcDbEntity
  8
1
  6
CONTINUOUS
 62
           3
100
AcDbCircle
 10
5168.163567691041
 20
1932.193746580042
 40
0.5
100
AcDbArc
 50
90.0
 51
180.0
  0
ARC
  5
498
100
AcDbEntity
  8
1
  6
CONTINUOUS
 62
           3
100
AcDbCircle
 10
5168.163567691041
 20
1917.806253419963
 40
0.5
100
AcDbArc
 50
180.0
 51
-90.0
  0
ARC
  5
497
100
AcDbEntity
  8
1
  6
CONTINUOUS
 62
           7
100
AcDbCircle
 10
814.70782566436
 20
2188.000000000001
 40
8.0
100
AcDbArc
 50
0.0
 51
90.0
  0
ARC
  5
496
100
AcDbEntity
  8
1
  6
CONTINUOUS
 62
           7
100
AcDbCircle
 10
740.70782566436
 20
2188.000000000001
 40
8.0
100
AcDbArc
 50
90.0
 51
180.0
  0
ARC
  5
495
100
AcDbEntity
  8
1
  6
CONTINUOUS
 62
           7
100
AcDbCircle
 10
777.70782566436
 20
2156.000000000001
 40
15.0
100
AcDbArc
 50
147.769047364498
 51
180.0
  0
ARC
  5
494
100
AcDbEntity
  8
1
  6
CONTINUOUS
 62
           7
100
AcDbCircle
 10
777.70782566436
 20
2156.000000000001
 40
15.0
100
AcDbArc
 50
32.230952635501
 51
147.769047364498
  0
ARC
  5
493
100
AcDbEntity
  8
1
  6
CONTINUOUS
 62
           7
100
AcDbCircle
 10
777.70782566436
 20
2156.000000000001
 40
15.0
100
AcDbArc
 50
0.0
 51
32.230952635501
  0
ARC
  5
492
100
AcDbEntity
  8
1
  6
CONTINUOUS
 62
           7
100
AcDbCircle
 10
-722.29217433564
 20
2156.000000000001
 40
15.0
100
AcDbArc
 50
0.0
 51
32.230952635501
  0
ARC
  5
491
100
AcDbEntity
  8
1
  6
CONTINUOUS
 62
           7
100
AcDbCircle
 10
-722.29217433564
 20
2156.000000000001
 40
15.0
100
AcDbArc
 50
32.230952635501
 51
147.769047364499
  0
ARC
  5
490
100
AcDbEntity
  8
1
  6
CONTINUOUS
 62
           7
100
AcDbCircle
 10
4020.000000000002
 20
2156.000000000001
 40
15.0
100
AcDbArc
 50
0.0
 51
180.0
  0
ARC
  5
48F
100
AcDbEntity
  8
1
  6
CONTINUOUS
 62
           7
100
AcDbCircle
 10
4057.000000000002
 20
2188.000000000001
 40
8.0
100
AcDbArc
 50
0.0
 51
90.0
  0
ARC
  5
48E
100
AcDbEntity
  8
1
  6
CONTINUOUS
 62
           7
100
AcDbCircle
 10
3983.000000000002
 20
2188.000000000001
 40
8.0
100
AcDbArc
 50
90.0
 51
180.0
  0
ARC
  5
48D
100
AcDbEntity
  8
1
  6
CONTINUOUS
 62
           7
100
AcDbCircle
 10
-722.29217433564
 20
2156.000000000001
 40
15.0
100
AcDbArc
 50
147.769047364499
 51
180.0
  0
ARC
  5
48C
100
AcDbEntity
  8
1
  6
CONTINUOUS
 62
           7
100
AcDbCircle
 10
-759.29217433564
 20
2188.000000000001
 40
8.0
100
AcDbArc
 50
90.0
 51
180.0
  0
ARC
  5
48B
100
AcDbEntity
  8
1
  6
CONTINUOUS
 62
           7
100
AcDbCircle
 10
-685.29217433564
 20
2188.000000000001
 40
8.0
100
AcDbArc
 50
0.0
 51
90.0
  0
ARC
  5
48A
100
AcDbEntity
  8
1
  6
CONTINUOUS
 62
           2
100
AcDbCircle
 10
2145.70782566436
 20
1079.499999999984
 40
15.0
100
AcDbArc
 50
-90.0
 51
90.0
  0
ARC
  5
489
100
AcDbEntity
  8
1
  6
CONTINUOUS
 62
           2
100
AcDbCircle
 10
2177.70782566436
 20
1042.499999999984
 40
8.0
100
AcDbArc
 50
-90.0
 51
0.0
  0
ARC
  5
488
100
AcDbEntity
  8
1
  6
CONTINUOUS
 62
           2
100
AcDbCircle
 10
2177.70782566436
 20
1116.499999999984
 40
8.0
100
AcDbArc
 50
0.0
 51
90.0
  0
ARC
  5
487
100
AcDbEntity
  8
1
  6
CONTINUOUS
 62
           4
100
AcDbCircle
 10
3895.0
 20
1119.435182228534
 40
30.0
100
AcDbArc
 50
180.0
 51
-90.0
  0
ARC
  5
486
100
AcDbEntity
  8
1
  6
CONTINUOUS
 62
           4
100
AcDbCircle
 10
3895.0
 20
1119.435182228534
 40
50.0
100
AcDbArc
 50
180.0
 51
-90.0
  0
SPLINE
  5
485
100
AcDbEntity
  8
0
  6
CONTINUOUS
 62
           3
100
AcDbSpline
210
0.0
220
0.0
230
1.0
 70
           0
 71
           3
 72
           8
 73
           5
 74
           7
 42
0.00000000001
 43
0.00000000001
 44
0.00000000001
 40
0.0
 40
0.0
 40
0.0
 40
0.5558562714156164
 40
1.5343210643712728
 40
2.938507268293332
 40
2.938507268293332
 40
2.938507268293332
 10
4685.8999967216741
 20
1359.99999940405
 30
0.0
 10
4685.9684298091433
 20
1359.999553710679
 30
0.0
 10
4686.9432526000237
 20
1359.993204851216
 30
0.0
 10
4687.8985309047421
 20
1359.765309021866
 30
0.0
 10
4688.7867481555013
 20
1359.553411603069
 30
0.0
 11
4685.8999967216741
 21
1359.99999940405
 31
0.0
 11
4686.0396116244046
 21
1359.9990901153001
 31
0.0
 11
4686.3215901576596
 21
1359.997253635792
 31
0.0
 11
4686.8859111712864
 21
1359.9708199944794
 31
0.0
 11
4687.3355493274366
 21
1359.8996166396932
 31
0.0
 11
4687.9798398231042
 21
1359.7459115716233
 31
0.0
 11
4688.7867481555013
 21
1359.553411603069
 31
0.0
  0
SPLINE
  5
484
100
AcDbEntity
  8
0
  6
CONTINUOUS
 62
           3
100
AcDbSpline
210
0.0
220
0.0
230
1.0
 70
           0
 71
           3
 72
           8
 73
           5
 74
           7
 42
0.00000000001
 43
0.00000000001
 44
0.00000000001
 40
0.0
 40
0.0
 40
0.0
 40
0.5558558490687705
 40
1.5343195422049032
 40
2.938503745663879
 40
2.938503745663879
 40
2.938503745663879
 10
4685.8999967216741
 20
1355.0000041723231
 30
0.0
 10
4685.8315636362913
 20
1355.0004498783039
 30
0.0
 10
4684.8567416872402
 20
1355.0067989106701
 30
0.0
 10
4683.901462916263
 20
1355.234686929231
 30
0.0
 10
4683.0132452878433
 20
1355.446577072245
 30
0.0
 11
4685.8999967216741
 21
1355.0000041723231
 31
0.0
 11
4685.7603818762454
 21
1355.000913486324
 31
0.0
 11
4685.4784035107277
 21
1355.0027500163649
 31
0.0
 11
4684.9140828960144
 21
1355.0291829422206
 31
0.0
 11
4684.4644446988514
 21
1355.1003839311766
 31
0.0
 11
4683.8201539548054
 21
1355.2540837154709
 31
0.0
 11
4683.0132452878433
 21
1355.446577072245
 31
0.0
  0
SPLINE
  5
483
100
AcDbEntity
  8
0
  6
CONTINUOUS
 62
           3
100
AcDbSpline
210
0.0
220
0.0
230
1.0
 70
           0
 71
           3
 72
           8
 73
           5
 74
           7
 42
0.00000000001
 43
0.00000000001
 44
0.00000000001
 40
0.0
 40
0.0
 40
0.0
 40
0.2779452695527716
 40
0.7862805426563726
 40
1.5429573556195622
 40
1.5429573556195622
 40
1.5429573556195622
 10
4690.2301237560032
 20
1355.0000041724229
 30
0.0
 10
4690.1959072124737
 20
1355.0004498771909
 30
0.0
 10
4689.7084969152711
 20
1355.0067988847461
 30
0.0
 10
4689.2308572149823
 20
1355.2346869284679
 30
0.0
 10
4688.7867481553621
 20
1355.446577072225
 30
0.0
 11
4690.2301237560032
 21
1355.0000041724229
 31
0.0
 11
4690.1613872230628
 21
1355.0008995346452
 31
0.0
 11
4690.0236107113024
 21
1355.0026942117772
 31
0.0
 11
4689.7392914141319
 21
1355.0286664762193
 31
0.0
 11
4689.516561114684
 21
1355.0983739236081
 31
0.0
 11
4689.1912559250031
 21
1355.2535812131921
 31
0.0
 11
4688.7867481553621
 21
1355.446577072225
 31
0.0
  0
SPLINE
  5
482
100
AcDbEntity
  8
0
  6
CONTINUOUS
 62
           3
100
AcDbSpline
210
0.0
220
0.0
230
1.0
 70
           0
 71
           3
 72
           8
 73
           5
 74
           7
 42
0.00000000001
 43
0.00000000001
 44
0.00000000001
 40
0.0
 40
0.0
 40
0.0
 40
0.6787700534940075
 40
1.1891668948831617
 40
1.5431123743463648
 40
1.5431123743463648
 40
1.5431123743463648
 10
4683.0132452878433
 20
1355.446577072245
 30
0.0
 10
4682.6438214744021
 20
1355.2624483716079
 30
0.0
 10
4682.1676820506218
 20
1355.0251303367861
 30
0.0
 10
4681.6793238525843
 20
1355.0046045512629
 30
0.0
 10
4681.5698696873451
 20
1355.0000041724229
 30
0.0
 11
4683.0132452878433
 21
1355.446577072245
 31
0.0
 11
4682.6682329736359
 21
1355.2746155830089
 31
0.0
 11
4682.3720436578988
 21
1355.1269885165748
 31
0.0
 11
4682.1466781919462
 21
1355.0475647466105
 31
0.0
 11
4681.8793050086424
 21
1355.0130097962949
 31
0.0
 11
4681.7019556002888
 21
1355.0055557678111
 31
0.0
 11
4681.5698696873451
 21
1355.0000041724229
 31
0.0
  0
SPLINE
  5
481
100
AcDbEntity
  8
0
  6
CONTINUOUS
 62
           3
100
AcDbSpline
210
0.0
220
0.0
230
1.0
 70
           0
 71
           3
 72
           8
 73
           5
 74
           7
 42
0.00000000001
 43
0.00000000001
 44
0.00000000001
 40
0.0
 40
0.0
 40
0.0
 40
0.353946033494668
 40
0.8643414136598189
 40
1.5431068114000444
 40
1.5431068114000444
 40
1.5431068114000444
 10
4681.5698696873451
 20
1359.99999940405
 30
0.0
 10
4681.6793238424216
 20
1359.995393507832
 30
0.0
 10
4682.1676816710433
 20
1359.974843118742
 30
0.0
 10
4682.6438213484453
 20
1359.7375336343559
 30
0.0
 10
4683.0132452879698
 20
1359.5534116030231
 30
0.0
 11
4681.5698696873451
 21
1359.99999940405
 31
0.0
 11
4681.7019556855803
 21
1359.9944411463562
 31
0.0
 11
4681.879305370132
 21
1359.9869781657112
 31
0.0
 11
4682.1466781413865
 21
1359.9524131949274
 31
0.0
 11
4682.3720438533273
 21
1359.872988376515
 31
0.0
 11
4682.6682329595469
 21
1359.7253668120625
 31
0.0
 11
4683.0132452879698
 21
1359.5534116030231
 31
0.0
  0
SPLINE
  5
480
100
AcDbEntity
  8
0
  6
CONTINUOUS
 62
           3
100
AcDbSpline
210
0.0
220
0.0
230
1.0
 70
           0
 71
           3
 72
           8
 73
           5
 74
           7
 42
0.00000000001
 43
0.00000000001
 44
0.00000000001
 40
0.0
 40
0.0
 40
0.0
 40
0.6415450374769964
 40
1.1579303686102529
 40
1.5357381749059968
 40
1.5357381749059968
 40
1.5357381749059968
 10
4681.5698696873451
 20
1355.0000041724229
 30
0.0
 10
4681.1795237086117
 20
1355.057633693878
 30
0.0
 10
4680.6908846293591
 20
1355.1297749168859
 30
0.0
 10
4680.2210119621132
 20
1355.393522448258
 30
0.0
 10
4680.1264938539716
 20
1355.446577072225
 30
0.0
 11
4681.5698696873451
 21
1355.0000041724229
 31
0.0
 11
4681.2094282457028
 21
1355.0532186768014
 31
0.0
 11
4680.9087958782429
 21
1355.0976031470273
 31
0.0
 11
4680.6775260473187
 21
1355.159809697964
 31
0.0
 11
4680.4195390523128
 21
1355.2820858110567
 31
0.0
 11
4680.2470142076272
 21
1355.3789269449492
 31
0.0
 11
4680.1264938539716
 21
1355.446577072225
 31
0.0
  0
SPLINE
  5
47F
100
AcDbEntity
  8
0
  6
CONTINUOUS
 62
           3
100
AcDbSpline
210
0.0
220
0.0
230
1.0
 70
           0
 71
           3
 72
           8
 73
           5
 74
           7
 42
0.00000000001
 43
0.00000000001
 44
0.00000000001
 40
0.0
 40
0.0
 40
0.0
 40
0.3778155284983234
 40
0.8942062233974563
 40
1.5357514174676201
 40
1.5357514174676201
 40
1.5357514174676201
 10
4680.1264938539716
 20
1359.5534116030231
 30
0.0
 10
4680.2210118970333
 20
1359.6064716909079
 30
0.0
 10
4680.6908817949006
 20
1359.870245011376
 30
0.0
 10
4681.1795227343027
 20
1359.9423771862009
 30
0.0
 10
4681.5698696873451
 20
1359.99999940405
 30
0.0
 11
4680.1264938539716
 21
1359.5534116030231
 31
0.0
 11
4680.2470141544045
 21
1359.6210687140301
 31
0.0
 11
4680.4195389695851
 21
1359.7179198712815
 31
0.0
 11
4680.6775244143264
 21
1359.8402057052383
 31
0.0
 11
4680.9087950979238
 21
1359.9024129269205
 31
0.0
 11
4681.209427563469
 21
1359.9467916758433
 31
0.0
 11
4681.5698696873451
 21
1359.99999940405
 31
0.0
  0
SPLINE
  5
47E
100
AcDbEntity
  8
0
  6
CONTINUOUS
 62
           3
100
AcDbSpline
210
0.0
220
0.0
230
1.0
 70
           0
 71
           3
 72
           8
 73
           5
 74
           7
 42
0.00000000001
 43
0.00000000001
 44
0.00000000001
 40
0.0
 40
0.0
 40
0.0
 40
0.2779464854660759
 40
0.7862840844024386
 40
1.5429642659222422
 40
1.5429642659222422
 40
1.5429642659222422
 10
4690.2301237559632
 20
1359.999999403924
 30
0.0
 10
4690.2643403053626
 20
1359.9995537086779
 30
0.0
 10
4690.7517530244522
 20
1359.993204804445
 30
0.0
 10
4691.2293915039991
 20
1359.7653090204819
 30
0.0
 10
4691.6734995893639
 20
1359.5534116030231
 30
0.0
 11
4690.2301237559632
 21
1359.999999403924
 31
0.0
 11
4690.2988605017454
 21
1359.9991040580467
 31
0.0
 11
4690.436637640295
 21
1359.9973094109068
 31
0.0
 11
4690.7209580094705
 21
1359.9713364170632
 31
0.0
 11
4690.9436883486851
 21
1359.9016266484559
 31
0.0
 11
4691.2689927365118
 21
1359.7464140731108
 31
0.0
 11
4691.6734995893639
 21
1359.5534116030231
 31
0.0
  0
SPLINE
  5
47D
100
AcDbEntity
  8
0
  6
CONTINUOUS
 62
           3
100
AcDbSpline
210
0.0
220
0.0
230
1.0
 70
           0
 71
           3
 72
           8
 73
           5
 74
           7
 42
0.00000000001
 43
0.00000000001
 44
0.00000000001
 40
0.0
 40
0.0
 40
0.0
 40
1.2475591451559962
 40
2.2257037084933433
 40
2.9354142011742588
 40
2.9354142011742588
 40
2.9354142011742588
 10
4685.8999967216741
 20
1364.999994635675
 30
0.0
 10
4685.1443416651709
 20
1364.9458933000949
 30
0.0
 10
4684.166903851652
 20
1364.87591336586
 30
0.0
 10
4683.2266018489536
 20
1364.6130630433679
 30
0.0
 10
4683.0132452878433
 20
1364.55342173586
 30
0.0
 11
4685.8999967216741
 21
1364.999994635675
 31
0.0
 11
4685.1962862228356
 21
1364.9496122852609
 31
0.0
 11
4684.5964648393274
 21
1364.9066679051787
 31
0.0
 11
4684.1380633113722
 21
1364.8455202926366
 31
0.0
 11
4683.6219807028574
 21
1364.7235865336474
 31
0.0
 11
4683.2721074221517
 21
1364.6257835890606
 31
0.0
 11
4683.0132452878433
 21
1364.55342173586
 31
0.0
  0
SPLINE
  5
47C
100
AcDbEntity
  8
0
  6
CONTINUOUS
 62
           3
100
AcDbSpline
210
0.0
220
0.0
230
1.0
 70
           0
 71
           3
 72
           8
 73
           5
 74
           7
 42
0.00000000001
 43
0.00000000001
 44
0.00000000001
 40
0.0
 40
0.0
 40
0.0
 40
1.2321288292605366
 40
2.2113508927679724
 40
2.9387184667233637
 40
2.9387184667233637
 40
2.9387184667233637
 10
4688.7867481555013
 20
1364.55342173586
 30
0.0
 10
4688.0674885010521
 20
1364.7336190184319
 30
0.0
 10
4687.1156260260923
 20
1364.9720906611999
 30
0.0
 10
4686.1387194651552
 20
1364.9945149114569
 30
0.0
 10
4685.8999967216741
 20
1364.999994635675
 30
0.0
 11
4688.7867481555013
 21
1364.55342173586
 31
0.0
 11
4688.1147128338653
 21
1364.7217878300826
 31
0.0
 11
4687.5371261778564
 21
1364.866491547607
 31
0.0
 11
4687.080866547004
 21
1364.9489075788554
 31
0.0
 11
4686.5550879579732
 21
1364.9849574454151
 31
0.0
 11
4686.1831309024901
 21
1364.993495476001
 31
0.0
 11
4685.8999967216741
 21
1364.999994635675
 31
0.0
  0
SPLINE
  5
47B
100
AcDbEntity
  8
0
  6
CONTINUOUS
 62
           3
100
AcDbSpline
210
0.0
220
0.0
230
1.0
 70
           0
 71
           3
 72
           8
 73
           5
 74
           7
 42
0.00000000001
 43
0.00000000001
 44
0.00000000001
 40
0.0
 40
0.0
 40
0.0
 40
0.7273681394906273
 40
1.7065914567882281
 40
2.9387223240343445
 40
2.9387223240343445
 40
2.9387223240343445
 10
4685.8999967216741
 20
1359.99999940405
 30
0.0
 10
4686.138719501032
 20
1360.0054789431181
 30
0.0
 10
4687.1156271469808
 20
1360.027902457243
 30
0.0
 10
4688.0674888562426
 20
1360.2663830805129
 30
0.0
 10
4688.7867481553621
 20
1360.4465872051239
 30
0.0
 11
4685.8999967216741
 21
1359.99999940405
 31
0.0
 11
4686.1831310149719
 21
1360.0064983457351
 31
0.0
 11
4686.5550883361511
 21
1360.0150360926543
 31
0.0
 11
4687.0808673755109
 21
1360.0510866331756
 31
0.0
 11
4687.5371268719309
 21
1360.1335055255627
 31
0.0
 11
4688.1147131849448
 21
1360.2782147229282
 31
0.0
 11
4688.7867481553621
 21
1360.4465872051239
 31
0.0
  0
SPLINE
  5
47A
100
AcDbEntity
  8
0
  6
CONTINUOUS
 62
           3
100
AcDbSpline
210
0.0
220
0.0
230
1.0
 70
           0
 71
           3
 72
           8
 73
           5
 74
           7
 42
0.00000000001
 43
0.00000000001
 44
0.00000000001
 40
0.0
 40
0.0
 40
0.0
 40
0.7097126556365796
 40
1.6878594213856855
 40
2.9354211178788185
 40
2.9354211178788185
 40
2.9354211178788185
 10
4683.0132452878433
 20
1360.4465872050259
 30
0.0
 10
4683.2266017037618
 20
1360.38694036993
 30
0.0
 10
4684.1668989125828
 20
1360.1240668476221
 30
0.0
 10
4685.1443400642529
 20
1360.0540946716189
 30
0.0
 10
4685.8999967216741
 20
1359.99999940405
 30
0.0
 11
4683.0132452878433
 21
1360.4465872050259
 31
0.0
 11
4683.2721068549235
 21
1360.3742187546177
 31
0.0
 11
4683.6219787243263
 21
1360.2764070735843
 31
0.0
 11
4684.1380594916318
 21
1360.1544641207834
 31
0.0
 11
4684.5964614170334
 21
1360.093315714304
 31
0.0
 11
4685.196284566804
 21
1360.050376115398
 31
0.0
 11
4685.8999967216741
 21
1359.99999940405
 31
0.0
  0
SPLINE
  5
479
100
AcDbEntity
  8
0
  6
CONTINUOUS
 62
           3
100
AcDbSpline
210
0.0
220
0.0
230
1.0
 70
           0
 71
           3
 72
           8
 73
           5
 74
           7
 42
0.00000000001
 43
0.00000000001
 44
0.00000000001
 40
0.0
 40
0.0
 40
0.0
 40
0.2779452695527626
 40
0.7862805426557556
 40
1.5429573555005023
 40
1.5429573555005023
 40
1.5429573555005023
 10
4690.2301237560032
 20
1364.999994635675
 30
0.0
 10
4690.1959072124737
 20
1364.999548930906
 30
0.0
 10
4689.7084969152711
 20
1364.993199923354
 30
0.0
 10
4689.2308572149823
 20
1364.765311879635
 30
0.0
 10
4688.7867481555013
 20
1364.55342173586
 30
0.0
 11
4690.2301237560032
 21
1364.999994635675
 31
0.0
 11
4690.1613872230637
 21
1364.9990992734522
 31
0.0
 11
4690.0236107113024
 21
1364.9973045963211
 31
0.0
 11
4689.7392914141283
 21
1364.9713323318786
 31
0.0
 11
4689.5165611146667
 21
1364.9016248844846
 31
0.0
 11
4689.1912559250331
 21
1364.7464175949035
 31
0.0
 11
4688.7867481555013
 21
1364.55342173586
 31
0.0
  0
SPLINE
  5
478
100
AcDbEntity
  8
0
  6
CONTINUOUS
 62
           3
100
AcDbSpline
210
0.0
220
0.0
230
1.0
 70
           0
 71
           3
 72
           8
 73
           5
 74
           7
 42
0.00000000001
 43
0.00000000001
 44
0.00000000001
 40
0.0
 40
0.0
 40
0.0
 40
0.2779464854693898
 40
0.78628408440572
 40
1.5429642659457916
 40
1.5429642659457916
 40
1.5429642659457916
 10
4690.2301237559632
 20
1359.999999403924
 30
0.0
 10
4690.2643403053626
 20
1360.000445099427
 30
0.0
 10
4690.7517530244522
 20
1360.0067940036549
 30
0.0
 10
4691.2293915039991
 20
1360.234689787618
 30
0.0
 10
4691.6734995893639
 20
1360.4465872051239
 30
0.0
 11
4690.2301237559632
 21
1359.999999403924
 31
0.0
 11
4690.2988605017463
 21
1360.0008947499937
 31
0.0
 11
4690.4366376402959
 21
1360.0026893971965
 31
0.0
 11
4690.7209580094705
 21
1360.0286623910372
 31
0.0
 11
4690.9436883486824
 21
1360.0983721596426
 31
0.0
 11
4691.2689927365109
 21
1360.2535847350007
 31
0.0
 11
4691.6734995893639
 21
1360.4465872051239
 31
0.0
  0
SPLINE
  5
477
100
AcDbEntity
  8
0
  6
CONTINUOUS
 62
           3
100
AcDbSpline
210
0.0
220
0.0
230
1.0
 70
           0
 71
           3
 72
           8
 73
           5
 74
           7
 42
0.00000000001
 43
0.00000000001
 44
0.00000000001
 40
0.0
 40
0.0
 40
0.0
 40
0.2779462752374703
 40
0.7862820883292029
 40
1.5429577306148341
 40
1.5429577306148341
 40
1.5429577306148341
 10
4681.5698696873451
 20
1364.999994635675
 30
0.0
 10
4681.5356531390316
 20
1364.9995489277919
 30
0.0
 10
4681.0482408408443
 20
1364.993199850665
 30
0.0
 10
4680.5706021281812
 20
1364.7653118774849
 30
0.0
 10
4680.1264938539716
 20
1364.5534217359179
 30
0.0
 11
4681.5698696873451
 21
1364.999994635675
 31
0.0
 11
4681.5011329028039
 21
1364.9990992640408
 31
0.0
 11
4681.363355645808
 21
1364.9973045649037
 31
0.0
 11
4681.0790356162606
 21
1364.9713322408625
 31
0.0
 11
4680.8563051375477
 21
1364.9016246972164
 31
0.0
 11
4680.5310008119704
 21
1364.7464175470261
 31
0.0
 11
4680.1264938539716
 21
1364.5534217359179
 31
0.0
  0
SPLINE
  5
476
100
AcDbEntity
  8
0
  6
CONTINUOUS
 62
           3
100
AcDbSpline
210
0.0
220
0.0
230
1.0
 70
           0
 71
           3
 72
           8
 73
           5
 74
           7
 42
0.00000000001
 43
0.00000000001
 44
0.00000000001
 40
0.0
 40
0.0
 40
0.0
 40
0.277945479746182
 40
0.78628253869008
 40
1.5429638907222571
 40
1.5429638907222571
 40
1.5429638907222571
 10
4681.5698696873451
 20
1359.99999940405
 30
0.0
 10
4681.6040862319223
 20
1360.0004450963081
 30
0.0
 10
4682.09149695003
 20
1360.0067939309649
 30
0.0
 10
4682.5691364171953
 20
1360.23468978547
 30
0.0
 10
4683.0132452878433
 20
1360.4465872050259
 30
0.0
 11
4681.5698696873451
 21
1359.99999940405
 31
0.0
 11
4681.6386061814947
 21
1360.0008947406104
 31
0.0
 11
4681.7763825747916
 21
1360.0026893657757
 31
0.0
 11
4682.0607022116073
 21
1360.02866230002
 31
0.0
 11
4682.2834323715761
 21
1360.0983719723749
 31
0.0
 11
4682.6087376234527
 21
1360.2535846870851
 31
0.0
 11
4683.0132452878433
 21
1360.4465872050259
 31
0.0
  0
SPLINE
  5
475
100
AcDbEntity
  8
0
  6
CONTINUOUS
 62
           3
100
AcDbSpline
210
0.0
220
0.0
230
1.0
 70
           0
 71
           3
 72
           8
 73
           5
 74
           7
 42
0.00000000001
 43
0.00000000001
 44
0.00000000001
 40
0.0
 40
0.0
 40
0.0
 40
1.2475604207866644
 40
2.2257060852955828
 40
2.9354176594305246
 40
2.9354176594305246
 40
2.9354176594305246
 10
4685.8999967216741
 20
1377.599999308668
 30
0.0
 10
4685.144340864721
 20
1377.5459010071079
 30
0.0
 10
4684.1669013821602
 20
1377.475924952008
 30
0.0
 10
4683.2266017763623
 20
1377.213063029574
 30
0.0
 10
4683.0132452878433
 20
1377.153418958269
 30
0.0
 11
4685.8999967216741
 21
1377.599999308668
 31
0.0
 11
4685.1962853948316
 21
1377.5496197778007
 31
0.0
 11
4684.5964631282077
 21
1377.506677788318
 31
0.0
 11
4684.1380614015352
 21
1377.4455297788086
 31
0.0
 11
4683.6219797136127
 21
1377.3235914228999
 31
0.0
 11
4683.2721071385449
 21
1377.2257841100791
 31
0.0
 11
4683.0132452878433
 21
1377.153418958269
 31
0.0
  0
SPLINE
  5
474
100
AcDbEntity
  8
0
  6
CONTINUOUS
 62
           3
100
AcDbSpline
210
0.0
220
0.0
230
1.0
 70
           0
 71
           3
 72
           8
 73
           5
 74
           7
 42
0.00000000001
 43
0.00000000001
 44
0.00000000001
 40
0.0
 40
0.0
 40
0.0
 40
1.2321298483015568
 40
2.2113525386980433
 40
2.9387203954175862
 40
2.9387203954175862
 40
2.9387203954175862
 10
4688.7867481555013
 20
1377.153418958269
 30
0.0
 10
4688.0674886786437
 20
1377.3336196618179
 30
0.0
 10
4687.115626586532
 20
1377.5720957948349
 30
0.0
 10
4686.1387194830913
 20
1377.594519677024
 30
0.0
 10
4685.8999967216741
 20
1377.599999308668
 30
0.0
 11
4688.7867481555013
 21
1377.153418958269
 31
0.0
 11
4688.1147130094168
 21
1377.3217882464469
 31
0.0
 11
4687.5371265248787
 21
1377.4664947038818
 31
0.0
 11
4687.0808669612516
 21
1377.5489121656972
 31
0.0
 11
4686.5550881470599
 21
1377.5849623692357
 31
0.0
 11
4686.1831309587287
 21
1377.5935002579879
 31
0.0
 11
4685.8999967216741
 21
1377.599999308668
 31
0.0
  0
SPLINE
  5
473
100
AcDbEntity
  8
0
  6
CONTINUOUS
 62
           3
100
AcDbSpline
210
0.0
220
0.0
230
1.0
 70
           0
 71
           3
 72
           8
 73
           5
 74
           7
 42
0.00000000001
 43
0.00000000001
 44
0.00000000001
 40
0.0
 40
0.0
 40
0.0
 40
0.7273675739554827
 40
1.7065896374626464
 40
2.9387184666013253
 40
2.9387184666013253
 40
2.9387184666013253
 10
4685.8999967216741
 20
1372.600004077043
 30
0.0
 10
4686.1387194651552
 20
1372.605483801266
 30
0.0
 10
4687.1156260260923
 20
1372.627908051521
 30
0.0
 10
4688.0674885010521
 20
1372.8663796942869
 30
0.0
 10
4688.7867481553621
 20
1373.0465769769139
 30
0.0
 11
4685.8999967216741
 21
1372.600004077043
 31
0.0
 11
4686.1831309024892
 21
1372.6065032367205
 31
0.0
 11
4686.5550879579732
 21
1372.6150412673069
 31
0.0
 11
4687.0808665470095
 21
1372.6510911338669
 31
0.0
 11
4687.5371261778801
 21
1372.7335071651189
 31
0.0
 11
4688.1147128338362
 21
1372.8782108826517
 31
0.0
 11
4688.7867481553621
 21
1373.0465769769139
 31
0.0
  0
SPLINE
  5
472
100
AcDbEntity
  8
0
  6
CONTINUOUS
 62
           3
100
AcDbSpline
210
0.0
220
0.0
230
1.0
 70
           0
 71
           3
 72
           8
 73
           5
 74
           7
 42
0.00000000001
 43
0.00000000001
 44
0.00000000001
 40
0.0
 40
0.0
 40
0.0
 40
0.7097104926819869
 40
1.6878550560193442
 40
2.935414201175381
 40
2.935414201175381
 40
2.935414201175381
 10
4683.0132452878433
 20
1373.046576976863
 30
0.0
 10
4683.2266018489536
 20
1372.9869356693509
 30
0.0
 10
4684.166903851652
 20
1372.7240853468591
 30
0.0
 10
4685.1443416651709
 20
1372.654105412623
 30
0.0
 10
4685.8999967216741
 20
1372.600004077043
 30
0.0
 11
4683.0132452878433
 21
1373.046576976863
 31
0.0
 11
4683.2721074221517
 21
1372.974215123659
 31
0.0
 11
4683.6219807028574
 21
1372.8764121790714
 31
0.0
 11
4684.1380633113731
 21
1372.7544784200825
 31
0.0
 11
4684.5964648393274
 21
1372.69333080754
 31
0.0
 11
4685.1962862228356
 21
1372.6503864274571
 31
0.0
 11
4685.8999967216741
 21
1372.600004077043
 31
0.0
  0
SPLINE
  5
471
100
AcDbEntity
  8
0
  6
CONTINUOUS
 62
           3
100
AcDbSpline
210
0.0
220
0.0
230
1.0
 70
           0
 71
           3
 72
           8
 73
           5
 74
           7
 42
0.00000000001
 43
0.00000000001
 44
0.00000000001
 40
0.0
 40
0.0
 40
0.0
 40
0.2779453746517642
 40
0.7862815406662453
 40
1.5429606230908171
 40
1.5429606230908171
 40
1.5429606230908171
 10
4690.2301237560032
 20
1377.599999308668
 30
0.0
 10
4690.1959072119498
 20
1377.599553610153
 30
0.0
 10
4689.7084967042902
 20
1377.593204689048
 30
0.0
 10
4689.2308571205731
 20
1377.3653127399391
 30
0.0
 10
4688.7867481555013
 20
1377.153418958269
 30
0.0
 11
4690.2301237560032
 21
1377.599999308668
 31
0.0
 11
4690.1613872424568
 21
1377.5991039592752
 31
0.0
 11
4690.0236107899254
 21
1377.5973093081263
 31
0.0
 11
4689.7392913229305
 21
1377.5713367087828
 31
0.0
 11
4689.516561093219
 21
1377.5016281489086
 31
0.0
 11
4689.1912558724671
 21
1377.3464181467639
 31
0.0
 11
4688.7867481555013
 21
1377.153418958269
 31
0.0
  0
SPLINE
  5
470
100
AcDbEntity
  8
0
  6
CONTINUOUS
 62
           3
100
AcDbSpline
210
0.0
220
0.0
230
1.0
 70
           0
 71
           3
 72
           8
 73
           5
 74
           7
 42
0.00000000001
 43
0.00000000001
 44
0.00000000001
 40
0.0
 40
0.0
 40
0.0
 40
0.2779462752402252
 40
0.786282088328608
 40
1.5429577306523952
 40
1.5429577306523952
 40
1.5429577306523952
 10
4690.2301237560032
 20
1372.600004077043
 30
0.0
 10
4690.2643403043221
 20
1372.6004497849301
 30
0.0
 10
4690.751752602504
 20
1372.606798862053
 30
0.0
 10
4691.2293913151643
 20
1372.834686835236
 30
0.0
 10
4691.6734995893639
 20
1373.0465769769139
 30
0.0
 11
4690.2301237560032
 21
1372.600004077043
 31
0.0
 11
4690.298860540548
 21
1372.6008994486801
 31
0.0
 11
4690.4366377975457
 21
1372.6026941478169
 31
0.0
 11
4690.7209578270867
 21
1372.6286664718557
 31
0.0
 11
4690.9436883057924
 21
1372.6983740154994
 31
0.0
 11
4691.2689926313715
 21
1372.8535811657214
 31
0.0
 11
4691.6734995893639
 21
1373.0465769769139
 31
0.0
  0
SPLINE
  5
46F
100
AcDbEntity
  8
0
  6
CONTINUOUS
 62
           3
100
AcDbSpline
210
0.0
220
0.0
230
1.0
 70
           0
 71
           3
 72
           8
 73
           5
 74
           7
 42
0.00000000001
 43
0.00000000001
 44
0.00000000001
 40
0.0
 40
0.0
 40
0.0
 40
0.2779463803328149
 40
0.7862830863400729
 40
1.5429609982608656
 40
1.5429609982608656
 40
1.5429609982608656
 10
4681.5698696873451
 20
1377.599999308668
 30
0.0
 10
4681.5356531385041
 20
1377.59955360704
 30
0.0
 10
4681.0482406298743
 20
1377.59320461636
 30
0.0
 10
4680.5706020337611
 20
1377.3653127377891
 30
0.0
 10
4680.1264938539716
 20
1377.1534189582071
 30
0.0
 11
4681.5698696873451
 21
1377.599999308668
 31
0.0
 11
4681.5011329221961
 21
1377.5991039498645
 31
0.0
 11
4681.3633557244348
 21
1377.5973092767103
 31
0.0
 11
4681.0790355250738
 21
1377.5713366177683
 31
0.0
 11
4680.8563051161109
 21
1377.5016279616425
 31
0.0
 11
4680.5310007594016
 21
1377.3464180988569
 31
0.0
 11
4680.1264938539716
 21
1377.1534189582071
 31
0.0
  0
SPLINE
  5
46E
100
AcDbEntity
  8
0
  6
CONTINUOUS
 62
           3
100
AcDbSpline
210
0.0
220
0.0
230
1.0
 70
           0
 71
           3
 72
           8
 73
           5
 74
           7
 42
0.00000000001
 43
0.00000000001
 44
0.00000000001
 40
0.0
 40
0.0
 40
0.0
 40
0.2779452695546081
 40
0.7862805426573268
 40
1.5429573554981952
 40
1.5429573554981952
 40
1.5429573554981952
 10
4681.5698696873451
 20
1372.600004077043
 30
0.0
 10
4681.6040862308728
 20
1372.6004497818119
 30
0.0
 10
4682.0914965280826
 20
1372.606798789368
 30
0.0
 10
4682.5691362283633
 20
1372.8346868330859
 30
0.0
 10
4683.0132452878433
 20
1373.046576976863
 30
0.0
 11
4681.5698696873451
 21
1372.600004077043
 31
0.0
 11
4681.6386062202837
 21
1372.6008994392662
 31
0.0
 11
4681.7763827320478
 21
1372.6026941163984
 31
0.0
 11
4682.0607020292246
 21
1372.6286663808428
 31
0.0
 11
4682.2834323286843
 21
1372.6983738282372
 31
0.0
 11
4682.6087375183142
 21
1372.8535811178181
 31
0.0
 11
4683.0132452878433
 21
1373.046576976863
 31
0.0
  0
SPLINE
  5
46D
100
AcDbEntity
  8
0
  6
CONTINUOUS
 62
           3
100
AcDbSpline
210
0.0
220
0.0
230
1.0
 70
           0
 71
           3
 72
           8
 73
           5
 74
           7
 42
0.00000000001
 43
0.00000000001
 44
0.00000000001
 40
0.0
 40
0.0
 40
0.0
 40
1.2475616964931251
 40
2.2257084622422534
 40
2.9354211178794145
 40
2.9354211178794145
 40
2.9354211178794145
 10
4685.8999967216741
 20
1372.600004077043
 30
0.0
 10
4685.1443400642529
 20
1372.545908809474
 30
0.0
 10
4684.1668989125828
 20
1372.4759366334711
 30
0.0
 10
4683.2266017037618
 20
1372.2130631111629
 30
0.0
 10
4683.0132452878433
 20
1372.1534162760649
 30
0.0
 11
4685.8999967216741
 21
1372.600004077043
 31
0.0
 11
4685.196284566804
 21
1372.5496273656952
 31
0.0
 11
4684.5964614170325
 21
1372.5066877667891
 31
0.0
 11
4684.1380594916318
 21
1372.44553936031
 31
0.0
 11
4683.6219787243272
 21
1372.3235964075088
 31
0.0
 11
4683.2721068549235
 21
1372.225784726475
 31
0.0
 11
4683.0132452878433
 21
1372.1534162760649
 31
0.0
  0
SPLINE
  5
46C
100
AcDbEntity
  8
0
  6
CONTINUOUS
 62
           3
100
AcDbSpline
210
0.0
220
0.0
230
1.0
 70
           0
 71
           3
 72
           8
 73
           5
 74
           7
 42
0.00000000001
 43
0.00000000001
 44
0.00000000001
 40
0.0
 40
0.0
 40
0.0
 40
1.2321308673577784
 40
2.2113541846551348
 40
2.938722324145806
 40
2.938722324145806
 40
2.938722324145806
 10
4688.7867481555013
 20
1372.1534162760649
 30
0.0
 10
4688.0674888562426
 20
1372.3336204005809
 30
0.0
 10
4687.1156271469808
 20
1372.572101023849
 30
0.0
 10
4686.138719501032
 20
1372.5945245379719
 30
0.0
 10
4685.8999967216741
 20
1372.600004077043
 30
0.0
 11
4688.7867481555013
 21
1372.1534162760649
 31
0.0
 11
4688.1147131849739
 21
1372.3217887581905
 31
0.0
 11
4687.5371268719091
 21
1372.4664979555355
 31
0.0
 11
4687.0808673755055
 21
1372.5489168479176
 31
0.0
 11
4686.555088336152
 21
1372.5849673884363
 31
0.0
 11
4686.1831310149728
 21
1372.5935051353558
 31
0.0
 11
4685.8999967216741
 21
1372.600004077043
 31
0.0
  0
SPLINE
  5
46B
100
AcDbEntity
  8
0
  6
CONTINUOUS
 62
           3
100
AcDbSpline
210
0.0
220
0.0
230
1.0
 70
           0
 71
           3
 72
           8
 73
           5
 74
           7
 42
0.00000000001
 43
0.00000000001
 44
0.00000000001
 40
0.0
 40
0.0
 40
0.0
 40
0.727368139490695
 40
1.7065914567881852
 40
2.938722324029329
 40
2.938722324029329
 40
2.938722324029329
 10
4685.8999967216741
 20
1367.5999939442579
 30
0.0
 10
4686.138719501032
 20
1367.605473483329
 30
0.0
 10
4687.1156271469808
 20
1367.6278969974539
 30
0.0
 10
4688.0674888562426
 20
1367.8663776207229
 30
0.0
 10
4688.7867481553621
 20
1368.0465817453139
 30
0.0
 11
4685.8999967216741
 21
1367.5999939442579
 31
0.0
 11
4686.1831310149719
 21
1367.606492885945
 31
0.0
 11
4686.555088336152
 21
1367.6150306328655
 31
0.0
 11
4687.0808673755118
 21
1367.6510811733865
 31
0.0
 11
4687.5371268719318
 21
1367.7335000657736
 31
0.0
 11
4688.1147131849448
 21
1367.8782092631332
 31
0.0
 11
4688.7867481553621
 21
1368.0465817453139
 31
0.0
  0
SPLINE
  5
46A
100
AcDbEntity
  8
0
  6
CONTINUOUS
 62
           3
100
AcDbSpline
210
0.0
220
0.0
230
1.0
 70
           0
 71
           3
 72
           8
 73
           5
 74
           7
 42
0.00000000001
 43
0.00000000001
 44
0.00000000001
 40
0.0
 40
0.0
 40
0.0
 40
0.7097107189137895
 40
1.6878556121190571
 40
2.9354150974118007
 40
2.9354150974118007
 40
2.9354150974118007
 10
4683.0132452878433
 20
1368.0465817452371
 30
0.0
 10
4683.2266018694936
 20
1367.986940602696
 30
0.0
 10
4684.1669045504623
 20
1367.724090842954
 30
0.0
 10
4685.1443418916833
 20
1367.6541020998679
 30
0.0
 10
4685.8999967216741
 20
1367.5999939442579
 30
0.0
 11
4683.0132452878433
 21
1368.0465817452371
 31
0.0
 11
4683.2721075077989
 21
1367.9742200752137
 31
0.0
 11
4683.6219810043649
 21
1367.876417350225
 31
0.0
 11
4684.1380638628552
 21
1367.7544828668429
 31
0.0
 11
4684.5964653461278
 21
1367.6933324312381
 31
0.0
 11
4685.1962864627922
 21
1367.6503826438079
 31
0.0
 11
4685.8999967216741
 21
1367.5999939442579
 31
0.0
  0
SPLINE
  5
469
100
AcDbEntity
  8
0
  6
CONTINUOUS
 62
           3
100
AcDbSpline
210
0.0
220
0.0
230
1.0
 70
           0
 71
           3
 72
           8
 73
           5
 74
           7
 42
0.00000000001
 43
0.00000000001
 44
0.00000000001
 40
0.0
 40
0.0
 40
0.0
 40
0.2779454797516311
 40
0.7862825386953611
 40
1.5429638907275987
 40
1.5429638907275987
 40
1.5429638907275987
 10
4690.2301237560032
 20
1372.600004077043
 30
0.0
 10
4690.1959072114232
 20
1372.599558384785
 30
0.0
 10
4689.7084964933101
 20
1372.5932095501289
 30
0.0
 10
4689.2308570261521
 20
1372.365313695622
 30
0.0
 10
4688.7867481555013
 20
1372.1534162760649
 30
0.0
 11
4690.2301237560032
 21
1372.600004077043
 31
0.0
 11
4690.16138726185
 21
1372.5991087404827
 31
0.0
 11
4690.0236108685503
 21
1372.5973141153177
 31
0.0
 11
4689.7392912317346
 21
1372.5713411810734
 31
0.0
 11
4689.5165610717668
 21
1372.5016315087182
 31
0.0
 11
4689.1912558198928
 21
1372.3464187940071
 31
0.0
 11
4688.7867481555013
 21
1372.1534162760649
 31
0.0
  0
SPLINE
  5
468
100
AcDbEntity
  8
0
  6
CONTINUOUS
 62
           3
100
AcDbSpline
210
0.0
220
0.0
230
1.0
 70
           0
 71
           3
 72
           8
 73
           5
 74
           7
 42
0.00000000001
 43
0.00000000001
 44
0.00000000001
 40
0.0
 40
0.0
 40
0.0
 40
0.2779464854277688
 40
0.7862840843632251
 40
1.542964265895072
 40
1.542964265895072
 40
1.542964265895072
 10
4690.2301237560032
 20
1367.5999939442579
 30
0.0
 10
4690.2643403053626
 20
1367.600439639637
 30
0.0
 10
4690.7517530244522
 20
1367.6067885438661
 30
0.0
 10
4691.2293915039991
 20
1367.834684327825
 30
0.0
 10
4691.6734995893639
 20
1368.0465817453139
 30
0.0
 11
4690.2301237560032
 21
1367.5999939442579
 31
0.0
 11
4690.2988605017517
 21
1367.6008892902346
 31
0.0
 11
4690.4366376402795
 21
1367.6026839374065
 31
0.0
 11
4690.7209580094668
 21
1367.6286569312479
 31
0.0
 11
4690.9436883486833
 21
1367.6983666998526
 31
0.0
 11
4691.2689927365118
 21
1367.8535792752041
 31
0.0
 11
4691.6734995893639
 21
1368.0465817453139
 31
0.0
  0
SPLINE
  5
467
100
AcDbEntity
  8
0
  6
CONTINUOUS
 62
           3
100
AcDbSpline
210
0.0
220
0.0
230
1.0
 70
           0
 71
           3
 72
           8
 73
           5
 74
           7
 42
0.00000000001
 43
0.00000000001
 44
0.00000000001
 40
0.0
 40
0.0
 40
0.0
 40
0.2779464854376731
 40
0.786284084377664
 40
1.5429642658580276
 40
1.5429642658580276
 40
1.5429642658580276
 10
4681.5698696873451
 20
1372.600004077043
 30
0.0
 10
4681.5356531379812
 20
1372.5995583816709
 30
0.0
 10
4681.0482404188806
 20
1372.593209477443
 30
0.0
 10
4680.5706019393401
 20
1372.3653136934749
 30
0.0
 10
4680.1264938539716
 20
1372.1534162761111
 30
0.0
 11
4681.5698696873451
 21
1372.600004077043
 31
0.0
 11
4681.501132941592
 21
1372.5991087310717
 31
0.0
 11
4681.3633558030569
 21
1372.5973140839019
 31
0.0
 11
4681.0790354338651
 21
1372.5713410900591
 31
0.0
 11
4680.8563050946432
 21
1372.5016313214487
 31
0.0
 11
4680.5310007068238
 21
1372.3464187461277
 31
0.0
 11
4680.1264938539716
 21
1372.1534162761111
 31
0.0
  0
SPLINE
  5
466
100
AcDbEntity
  8
0
  6
CONTINUOUS
 62
           3
100
AcDbSpline
210
0.0
220
0.0
230
1.0
 70
           0
 71
           3
 72
           8
 73
           5
 74
           7
 42
0.00000000001
 43
0.00000000001
 44
0.00000000001
 40
0.0
 40
0.0
 40
0.0
 40
0.2779454797462013
 40
0.7862825386896926
 40
1.5429638907219188
 40
1.5429638907219188
 40
1.5429638907219188
 10
4681.5698696873451
 20
1367.5999939442579
 30
0.0
 10
4681.6040862319223
 20
1367.6004396365149
 30
0.0
 10
4682.09149695003
 20
1367.606788471177
 30
0.0
 10
4682.5691364171953
 20
1367.83468432568
 30
0.0
 10
4683.0132452878433
 20
1368.0465817452371
 30
0.0
 11
4681.5698696873451
 21
1367.5999939442579
 31
0.0
 11
4681.6386061814956
 21
1367.6008892808181
 31
0.0
 11
4681.7763825747916
 21
1367.6026839059843
 31
0.0
 11
4682.0607022116073
 21
1367.6286568402309
 31
0.0
 11
4682.2834323715761
 21
1367.6983665125858
 31
0.0
 11
4682.6087376234527
 21
1367.8535792272958
 31
0.0
 11
4683.0132452878433
 21
1368.0465817452371
 31
0.0
  0
SPLINE
  5
465
100
AcDbEntity
  8
0
  6
CONTINUOUS
 62
           3
100
AcDbSpline
210
0.0
220
0.0
230
1.0
 70
           0
 71
           3
 72
           8
 73
           5
 74
           7
 42
0.00000000001
 43
0.00000000001
 44
0.00000000001
 40
0.0
 40
0.0
 40
0.0
 40
0.4813884775056154
 40
1.3325655942397803
 40
2.5594910572539988
 40
2.5594910572539988
 40
2.5594910572539988
 10
4683.3999967775526
 20
1384.1999992729029
 30
0.0
 10
4683.459261584394
 20
1384.200444971555
 30
0.0
 10
4684.3034817008302
 20
1384.2067938958301
 30
0.0
 10
4685.1307775679597
 20
1384.434685841728
 30
0.0
 10
4685.8999967216741
 20
1384.6465796232969
 30
0.0
 11
4683.3999967775526
 21
1384.1999992729029
 31
0.0
 11
4683.5206888783669
 21
1384.2009069331109
 31
0.0
 11
4683.7642355671287
 21
1384.2027385164311
 31
0.0
 11
4684.2533839007083
 21
1384.2291158106448
 31
0.0
 11
4684.6423366340423
 21
1384.3001369344879
 31
0.0
 11
4685.2009721229088
 21
1384.4540220603101
 31
0.0
 11
4685.8999967216741
 21
1384.6465796232969
 31
0.0
  0
SPLINE
  5
464
100
AcDbEntity
  8
0
  6
CONTINUOUS
 62
           3
100
AcDbSpline
210
0.0
220
0.0
230
1.0
 70
           0
 71
           3
 72
           8
 73
           5
 74
           7
 42
0.00000000001
 43
0.00000000001
 44
0.00000000001
 40
0.0
 40
0.0
 40
0.0
 40
0.4813883392837595
 40
1.3325653926426191
 40
2.5594910488304343
 40
2.5594910488304343
 40
2.5594910488304343
 10
4688.3999966657611
 20
1384.1999992729029
 30
0.0
 10
4688.459261471944
 20
1384.2004449713111
 30
0.0
 10
4689.3034813132908
 20
1384.206793890067
 30
0.0
 10
4690.130777332779
 20
1384.434685841557
 30
0.0
 10
4690.8999966098636
 20
1384.646579623304
 30
0.0
 11
4688.3999966657611
 21
1384.1999992729029
 31
0.0
 11
4688.5206887308796
 21
1384.2009069323517
 31
0.0
 11
4688.7642353138735
 21
1384.2027385138817
 31
0.0
 11
4689.253383550742
 21
1384.2291158030628
 31
0.0
 11
4689.6423362625137
 21
1384.3001369182352
 31
0.0
 11
4690.2009718844838
 21
1384.4540220561635
 31
0.0
 11
4690.8999966098636
 21
1384.646579623304
 31
0.0
  0
SPLINE
  5
463
100
AcDbEntity
  8
0
  6
CONTINUOUS
 62
           3
100
AcDbSpline
210
0.0
220
0.0
230
1.0
 70
           0
 71
           3
 72
           8
 73
           5
 74
           7
 42
0.00000000001
 43
0.00000000001
 44
0.00000000001
 40
0.0
 40
0.0
 40
0.0
 40
0.0169507227475378
 40
0.1476151553695217
 40
0.4465803504010637
 40
0.4465803504010637
 40
0.4465803504010637
 10
4680.8999968334319
 20
1384.1999992729029
 30
0.0
 10
4680.8999968334319
 20
1384.2056076981839
 30
0.0
 10
4680.8999968334319
 20
1384.228292293117
 30
0.0
 10
4680.8999968334319
 20
1384.4669365634279
 30
0.0
 10
4680.899996833472
 20
1384.646579623304
 30
0.0
 11
4680.8999968334319
 21
1384.1999992729029
 31
0.0
 11
4680.8999968334319
 21
1384.2048568127332
 31
0.0
 11
4680.8999968334319
 21
1384.2082125816621
 31
0.0
 11
4680.8999968334319
 21
1384.2414172487597
 31
0.0
 11
4680.8999968334319
 21
1384.3008718271426
 31
0.0
 11
4680.8999968334419
 21
1384.4703311443254
 31
0.0
 11
4680.899996833472
 21
1384.646579623304
 31
0.0
  0
SPLINE
  5
462
100
AcDbEntity
  8
0
  6
CONTINUOUS
 62
           3
100
AcDbSpline
210
0.0
220
0.0
230
1.0
 70
           0
 71
           3
 72
           8
 73
           5
 74
           7
 42
0.00000000001
 43
0.00000000001
 44
0.00000000001
 40
0.0
 40
0.0
 40
0.0
 40
0.298965195031542
 40
0.4296296276535259
 40
0.4465803504010637
 40
0.4465803504010637
 40
0.4465803504010637
 10
4690.8999966098636
 20
1384.646579623304
 30
0.0
 10
4690.8999966099109
 20
1384.4669365634279
 30
0.0
 10
4690.8999966099109
 20
1384.228292293117
 30
0.0
 10
4690.8999966099109
 20
1384.2056076981839
 30
0.0
 10
4690.8999966099109
 20
1384.1999992729029
 30
0.0
 11
4690.8999966098636
 21
1384.646579623304
 31
0.0
 11
4690.8999966098991
 21
1384.4703311443257
 31
0.0
 11
4690.8999966099109
 21
1384.3008718271426
 31
0.0
 11
4690.8999966099109
 21
1384.2414172487597
 31
0.0
 11
4690.8999966099109
 21
1384.2082125816621
 31
0.0
 11
4690.8999966099109
 21
1384.2048568127334
 31
0.0
 11
4690.8999966099109
 21
1384.1999992729029
 31
0.0
  0
CIRCLE
  5
461
100
AcDbEntity
  8
1
  6
CONTINUOUS
 62
           4
100
AcDbCircle
 10
4135.0
 20
1444.999999999993
 40
15.0
  0
CIRCLE
  5
460
100
AcDbEntity
  8
1
  6
CONTINUOUS
 62
           4
100
AcDbCircle
 10
4135.0
 20
1404.999999999993
 40
15.0
  0
CIRCLE
  5
45F
100
AcDbEntity
  8
1
  6
CONTINUOUS
 62
           4
100
AcDbCircle
 10
4075.0
 20
1459.999999999993
 40
15.0
  0
CIRCLE
  5
45E
100
AcDbEntity
  8
1
  6
CONTINUOUS
 62
           4
100
AcDbCircle
 10
3855.0
 20
1500.000000000003
 40
10.0
  0
CIRCLE
  5
45D
100
AcDbEntity
  8
1
  6
CONTINUOUS
 62
           4
100
AcDbCircle
 10
3855.0
 20
1500.000000000003
 40
40.0
  0
CIRCLE
  5
45C
100
AcDbEntity
  8
1
  6
CONTINUOUS
 62
           4
100
AcDbCircle
 10
477.707825664356
 20
5350.999999999997
 40
100.947599999999
  0
CIRCLE
  5
45B
100
AcDbEntity
  8
1
  6
CONTINUOUS
 62
           4
100
AcDbCircle
 10
477.707825664356
 20
5350.999999999997
 40
125.0
  0
CIRCLE
  5
45A
100
AcDbEntity
  8
1
  6
CONTINUOUS
 62
           7
100
AcDbCircle
 10
477.707825664356
 20
5350.999999999997
 40
360.000000000001
  0
CIRCLE
  5
459
100
AcDbEntity
  8
1
  6
CONTINUOUS
 62
           7
100
AcDbCircle
 10
5069.999999999998
 20
600.0
 40
15.0
  0
CIRCLE
  5
458
100
AcDbEntity
  8
1
  6
CONTINUOUS
 62
           2
100
AcDbCircle
 10
5069.999999999998
 20
600.0
 40
8.350000000002
  0
CIRCLE
  5
457
100
AcDbEntity
  8
1
  6
CONTINUOUS
 62
           7
100
AcDbCircle
 10
-747.292174335641
 20
4061.0
 40
45.0
  0
CIRCLE
  5
456
100
AcDbEntity
  8
1
  6
CONTINUOUS
 62
           7
100
AcDbCircle
 10
802.70782566436
 20
4061.0
 40
45.0
  0
CIRCLE
  5
455
100
AcDbEntity
  8
1
  6
CONTINUOUS
 62
           2
100
AcDbCircle
 10
4075.0
 20
1079.499999999994
 40
45.000000000001
  0
CIRCLE
  5
454
100
AcDbEntity
  8
1
  6
CONTINUOUS
 62
           3
100
AcDbCircle
 10
236.180080986239
 20
1295.200848327051
 40
40.0
  0
ARC
  5
453
100
AcDbEntity
  8
1
  6
CONTINUOUS
 62
           4
100
AcDbCircle
 10
3855.0
 20
1500.000000000003
 40
50.000000000001
100
AcDbArc
 50
56.536959032816
 51
123.463040967183
  0
ARC
  5
452
100
AcDbEntity
  8
1
  6
CONTINUOUS
 62
           4
100
AcDbCircle
 10
3855.0
 20
1500.000000000003
 40
50.0
100
AcDbArc
 50
-123.463040967184
 51
-56.536959032815
  0
ARC
  5
451
100
AcDbEntity
  8
1
  6
CONTINUOUS
 62
           4
100
AcDbCircle
 10
3855.0
 20
1500.000000000003
 40
50.0
100
AcDbArc
 50
-33.463040967184
 51
33.463040967184
  0
ARC
  5
450
100
AcDbEntity
  8
1
  6
CONTINUOUS
 62
           4
100
AcDbCircle
 10
3855.0
 20
1500.000000000003
 40
50.0
100
AcDbArc
 50
146.536959032815
 51
-146.536959032815
  0
ARC
  5
44F
100
AcDbEntity
  8
1
  6
CONTINUOUS
 62
           4
100
AcDbCircle
 10
3811.5
 20
1543.500000000003
 40
10.000000000001
100
AcDbArc
 50
45.000000000009
 51
-135.0
  0
ARC
  5
44E
100
AcDbEntity
  8
1
  6
CONTINUOUS
 62
           4
100
AcDbCircle
 10
3898.5
 20
1543.500000000003
 40
9.999999999999
100
AcDbArc
 50
-45.0
 51
134.99999999999
  0
ARC
  5
44D
100
AcDbEntity
  8
1
  6
CONTINUOUS
 62
           4
100
AcDbCircle
 10
3898.5
 20
1456.500000000003
 40
9.999999999999
100
AcDbArc
 50
-135.0
 51
45.000000000009
  0
ARC
  5
44C
100
AcDbEntity
  8
1
  6
CONTINUOUS
 62
           4
100
AcDbCircle
 10
3811.5
 20
1456.500000000003
 40
10.000000000001
100
AcDbArc
 50
134.99999999999
 51
-45.0
  0
ARC
  5
44B
100
AcDbEntity
  8
1
  6
CONTINUOUS
 62
           7
100
AcDbCircle
 10
477.707825664356
 20
5350.999999999997
 40
150.0
100
AcDbArc
 50
23.882765003116
 51
-90.0
  0
ARC
  5
44A
100
AcDbEntity
  8
1
  6
CONTINUOUS
 62
           7
100
AcDbCircle
 10
477.707825664356
 20
5350.999999999997
 40
150.000000000001
100
AcDbArc
 50
-90.0
 51
-23.882765003115
  0
ARC
  5
449
100
AcDbEntity
  8
1
  6
CONTINUOUS
 62
           7
100
AcDbCircle
 10
495.70782566436
 20
5295.999785420926
 40
459.999999999998
100
AcDbArc
 50
71.463109290188
 51
88.271493544498
  0
ARC
  5
448
100
AcDbEntity
  8
1
  6
CONTINUOUS
 62
           7
100
AcDbCircle
 10
430.70782566436
 20
5305.999999999997
 40
524.999999999999
100
AcDbArc
 50
-2.792103456718
 51
-0.563719865862
  0
ARC
  5
447
100
AcDbEntity
  8
1
  6
CONTINUOUS
 62
           7
100
AcDbCircle
 10
437.70782566436
 20
5400.999999999997
 40
620.000000000001
100
AcDbArc
 50
-174.912285430339
 51
-90.336887134984
  0
ARC
  5
446
100
AcDbEntity
  8
1
  6
CONTINUOUS
 62
           7
100
AcDbCircle
 10
930.158250002452
 20
5447.171306523444
 40
5.0
100
AcDbArc
 50
109.497261771684
 51
-90.0
  0
ARC
  5
445
100
AcDbEntity
  8
1
  6
CONTINUOUS
 62
           7
100
AcDbCircle
 10
495.70782566436
 20
5295.999785420926
 40
460.0
100
AcDbArc
 50
0.602232686388
 51
18.563086854737
  0
ARC
  5
444
100
AcDbEntity
  8
1
  6
CONTINUOUS
 62
           7
100
AcDbCircle
 10
930.158250002452
 20
5447.171306523444
 40
5.0
100
AcDbArc
 50
-90.0
 51
-71.125521506261
  0
ARC
  5
443
100
AcDbEntity
  8
1
  6
CONTINUOUS
 62
           7
100
AcDbCircle
 10
954.817238292377
 20
5275.433292707338
 40
5.000000000003
100
AcDbArc
 50
86.93505846685
 51
-93.610617686046
  0
ARC
  5
442
100
AcDbEntity
  8
1
  6
CONTINUOUS
 62
           7
100
AcDbCircle
 10
430.70782566436
 20
5305.999999999997
 40
525.000000000001
100
AcDbArc
 50
-89.633899153763
 51
-3.883455762483
  0
ARC
  5
441
100
AcDbEntity
  8
1
  6
CONTINUOUS
 62
           7
100
AcDbCircle
 10
495.70782566436
 20
5295.999785420926
 40
459.999999999998
100
AcDbArc
 50
19.808653410673
 51
70.217542734251
  0
ARC
  5
440
100
AcDbEntity
  8
1
  6
CONTINUOUS
 62
           7
100
AcDbCircle
 10
646.680696337864
 20
5730.519281324851
 40
5.0
100
AcDbArc
 50
161.151717651222
 51
-19.471065626773
  0
ARC
  5
43F
100
AcDbEntity
  8
1
  6
CONTINUOUS
 62
           7
100
AcDbCircle
 10
437.70782566436
 20
5400.999999999997
 40
620.0
100
AcDbArc
 50
-180.0
 51
-175.836413410616
  0
ARC
  5
43E
100
AcDbEntity
  8
1
  6
CONTINUOUS
 62
           7
100
AcDbCircle
 10
-180.272756554856
 20
5350.999999999997
 40
4.999999999996
100
AcDbArc
 50
-85.143317425415
 51
94.394618584461
  0
ARC
  5
43D
100
AcDbEntity
  8
7
  6
CONTINUOUS
 62
           7
100
AcDbCircle
 10
595.267825664356
 20
2948.360000000001
 40
3.84
100
AcDbArc
 50
0.0
 51
90.0
  0
ARC
  5
43C
100
AcDbEntity
  8
7
  6
CONTINUOUS
 62
           7
100
AcDbCircle
 10
594.215650064356
 20
2954.600000000002
 40
2.400000000001
100
AcDbArc
 50
-124.999999999959
 51
-90.0
  0
ARC
  5
43B
100
AcDbEntity
  8
7
  6
CONTINUOUS
 62
           7
100
AcDbCircle
 10
569.467825664357
 20
2974.449360800001
 40
2.4
100
AcDbArc
 50
180.0
 51
-124.999999999972
  0
ARC
  5
43A
100
AcDbEntity
  8
7
  6
CONTINUOUS
 62
           7
100
AcDbCircle
 10
563.227825664357
 20
2974.16
 40
3.84
100
AcDbArc
 50
0.0
 51
90.0
  0
ARC
  5
439
100
AcDbEntity
  8
7
  6
CONTINUOUS
 62
           7
100
AcDbCircle
 10
382.947825664356
 20
2974.449360800001
 40
2.4
100
AcDbArc
 50
-55.000000000028
 51
0.0
  0
ARC
  5
438
100
AcDbEntity
  8
7
  6
CONTINUOUS
 62
           7
100
AcDbCircle
 10
389.187825664356
 20
2974.16
 40
3.84
100
AcDbArc
 50
90.0
 51
180.0
  0
ARC
  5
437
100
AcDbEntity
  8
7
  6
CONTINUOUS
 62
           7
100
AcDbCircle
 10
363.747825664357
 20
2948.133628400001
 40
7.440000000001
100
AcDbArc
 50
122.681915000002
 51
180.0
  0
ARC
  5
436
100
AcDbEntity
  8
7
  6
CONTINUOUS
 62
           7
100
AcDbCircle
 10
5196.039999999997
 20
2948.133628400002
 40
7.44
100
AcDbArc
 50
122.681915000008
 51
180.0
  0
ARC
  5
435
100
AcDbEntity
  8
7
  6
CONTINUOUS
 62
           7
100
AcDbCircle
 10
5221.479999999996
 20
2974.160000000001
 40
3.839999999999
100
AcDbArc
 50
90.0
 51
180.0
  0
ARC
  5
434
100
AcDbEntity
  8
7
  6
CONTINUOUS
 62
           7
100
AcDbCircle
 10
5215.239999999994
 20
2974.449360800002
 40
2.400000000002
100
AcDbArc
 50
-55.000000000005
 51
0.0
  0
ARC
  5
433
100
AcDbEntity
  8
7
  6
CONTINUOUS
 62
           7
100
AcDbCircle
 10
5395.519999999997
 20
2974.160000000001
 40
3.84
100
AcDbArc
 50
0.0
 51
90.0
  0
ARC
  5
432
100
AcDbEntity
  8
7
  6
CONTINUOUS
 62
           7
100
AcDbCircle
 10
5401.759999999995
 20
2974.449360800002
 40
2.399999999998
100
AcDbArc
 50
180.0
 51
-124.999999999924
  0
ARC
  5
431
100
AcDbEntity
  8
7
  6
CONTINUOUS
 62
           7
100
AcDbCircle
 10
5426.507824399996
 20
2954.600000000003
 40
2.400000000002
100
AcDbArc
 50
-124.999999999983
 51
-90.0
  0
ARC
  5
430
100
AcDbEntity
  8
7
  6
CONTINUOUS
 62
           7
100
AcDbCircle
 10
5427.559999999998
 20
2948.360000000002
 40
3.839999999997
100
AcDbArc
 50
0.0
 51
90.0
  0
ARC
  5
42F
100
AcDbEntity
  8
0
  6
CONTINUOUS
 62
           3
100
AcDbCircle
 10
4685.899996721674
 20
1355.000000000224
 40
4.0
100
AcDbArc
 50
180.0
 51
0.0
  0
ARC
  5
42E
100
AcDbEntity
  8
0
  6
CONTINUOUS
 62
           3
100
AcDbCircle
 10
4685.899996721674
 20
1315.00000000006
 40
45.999999999971
100
AcDbArc
 50
180.0
 51
0.0
  0
ARC
  5
42D
100
AcDbEntity
  8
0
  6
CONTINUOUS
 62
           3
100
AcDbCircle
 10
4685.899996721674
 20
1315.00000000006
 40
53.999999999965
100
AcDbArc
 50
180.0
 51
0.0
  0
ARC
  5
42C
100
AcDbEntity
  8
0
  6
CONTINUOUS
 62
           3
100
AcDbCircle
 10
4679.426494029871
 20
1389.999999999998
 40
0.900000000001
100
AcDbArc
 50
-117.266044450415
 51
-90.0
  0
ARC
  5
42B
100
AcDbEntity
  8
0
  6
CONTINUOUS
 62
           3
100
AcDbCircle
 10
4692.373499413461
 20
1389.999999999998
 40
0.900000000001
100
AcDbArc
 50
-90.0
 51
-62.733955549533
  0
ARC
  5
42A
100
AcDbEntity
  8
0
  6
CONTINUOUS
 62
           3
100
AcDbCircle
 10
4627.899996721813
 20
1530.999999999882
 40
0.999999999997
100
AcDbArc
 50
-90.0
 51
90.0
  0
ARC
  5
429
100
AcDbEntity
  8
0
  6
CONTINUOUS
 62
           3
100
AcDbCircle
 10
4743.899996721521
 20
1530.999999999882
 40
1.0
100
AcDbArc
 50
90.0
 51
-90.0
  0
ARC
  5
428
100
AcDbEntity
  8
0
  6
CONTINUOUS
 62
           3
100
AcDbCircle
 10
4743.899996721521
 20
1508.999999999998
 40
1.0
100
AcDbArc
 50
90.0
 51
-90.0
  0
ARC
  5
427
100
AcDbEntity
  8
0
  6
CONTINUOUS
 62
           3
100
AcDbCircle
 10
4743.899996721521
 20
1431.000000000064
 40
0.999999999996
100
AcDbArc
 50
90.0
 51
-90.0
  0
ARC
  5
426
100
AcDbEntity
  8
0
  6
CONTINUOUS
 62
           3
100
AcDbCircle
 10
4743.899996721521
 20
1409.00000000018
 40
1.0
100
AcDbArc
 50
90.0
 51
-90.0
  0
ARC
  5
425
100
AcDbEntity
  8
0
  6
CONTINUOUS
 62
           3
100
AcDbCircle
 10
4627.899996721813
 20
1409.00000000018
 40
0.999999999996
100
AcDbArc
 50
-90.0
 51
90.0
  0
ARC
  5
424
100
AcDbEntity
  8
0
  6
CONTINUOUS
 62
           3
100
AcDbCircle
 10
4627.899996721813
 20
1431.000000000064
 40
1.0
100
AcDbArc
 50
-90.0
 51
90.0
  0
ARC
  5
423
100
AcDbEntity
  8
0
  6
CONTINUOUS
 62
           3
100
AcDbCircle
 10
4627.899996721813
 20
1508.999999999998
 40
0.999999999996
100
AcDbArc
 50
-90.0
 51
90.0
  0
ARC
  5
422
100
AcDbEntity
  8
0
  6
CONTINUOUS
 62
           3
100
AcDbCircle
 10
4623.399996721823
 20
1368.000000000116
 40
2.49999999999
100
AcDbArc
 50
0.0
 51
180.0
  0
ARC
  5
421
100
AcDbEntity
  8
0
  6
CONTINUOUS
 62
           3
100
AcDbCircle
 10
4623.399996721823
 20
1631.9999999999
 40
2.5
100
AcDbArc
 50
180.0
 51
0.0
  0
ARC
  5
420
100
AcDbEntity
  8
0
  6
CONTINUOUS
 62
           3
100
AcDbCircle
 10
4748.399996721513
 20
1631.9999999999
 40
2.499999999992
100
AcDbArc
 50
180.0
 51
0.0
  0
ARC
  5
41F
100
AcDbEntity
  8
0
  6
CONTINUOUS
 62
           3
100
AcDbCircle
 10
4748.399996721513
 20
1368.000000000116
 40
2.5
100
AcDbArc
 50
0.0
 51
180.0
  0
ARC
  5
41E
100
AcDbEntity
  8
1
  6
CONTINUOUS
 62
           3
100
AcDbCircle
 10
5190.163567691041
 20
1925.000000000002
 40
5.871834995066
100
AcDbArc
 50
-90.0
 51
0.0
  0
ARC
  5
41D
100
AcDbEntity
  8
1
  6
CONTINUOUS
 62
           3
100
AcDbCircle
 10
5190.163567691041
 20
1925.000000000002
 40
5.871834995069
100
AcDbArc
 50
38.599713917931
 51
90.0
  0
ARC
  5
41C
100
AcDbEntity
  8
1
  6
CONTINUOUS
 62
           3
100
AcDbCircle
 10
5190.163567691041
 20
1925.000000000002
 40
5.871834995061
100
AcDbArc
 50
0.0
 51
38.599713917931
  0
ARC
  5
41B
100
AcDbEntity
  8
1
  6
CONTINUOUS
 62
           3
100
AcDbCircle
 10
5190.163567691041
 20
1925.000000000002
 40
9.5
100
AcDbArc
 50
0.0
 51
125.916957371441
  0
ARC
  5
41A
100
AcDbEntity
  8
1
  6
CONTINUOUS
 62
           3
100
AcDbCircle
 10
5190.163567691041
 20
1925.000000000002
 40
9.499999999999
100
AcDbArc
 50
-124.797812779177
 51
0.0
  0
ARC
  5
419
100
AcDbEntity
  8
1
  6
CONTINUOUS
 62
           3
100
AcDbCircle
 10
239.217583986238
 20
1267.11462232706
 40
0.500000000003
100
AcDbArc
 50
-83.827497998192
 51
-5.00679300022
  0
ARC
  5
418
100
AcDbEntity
  8
1
  6
CONTINUOUS
 62
           3
100
AcDbCircle
 10
233.142577986239
 20
1267.11462232706
 40
0.499999999996
100
AcDbArc
 50
-174.993206999701
 51
-96.172501999301
  0
ARC
  5
417
100
AcDbEntity
  8
1
  6
CONTINUOUS
 62
           3
100
AcDbCircle
 10
239.217583986238
 20
1323.287074327051
 40
0.500000000005
100
AcDbArc
 50
5.006793001362
 51
83.827497998178
  0
ARC
  5
416
100
AcDbEntity
  8
1
  6
CONTINUOUS
 62
           3
100
AcDbCircle
 10
233.142577986239
 20
1323.287074327051
 40
0.5
100
AcDbArc
 50
96.172501999315
 51
174.993206998559
  0
ARC
  5
415
100
AcDbEntity
  8
1
  6
CONTINUOUS
 62
           3
100
AcDbCircle
 10
232.141777986245
 20
1295.200848327051
 40
9.999999999999
100
AcDbArc
 50
-5.006792999978
 51
5.006793000023
  0
ARC
  5
414
100
AcDbEntity
  8
1
  6
CONTINUOUS
 62
           3
100
AcDbCircle
 10
240.218382986239
 20
1295.200848327051
 40
10.0
100
AcDbArc
 50
174.993206999977
 51
-174.993207000021
  0
ARC
  5
413
100
AcDbEntity
  8
1
  6
CONTINUOUS
 62
           3
100
AcDbCircle
 10
236.180080986239
 20
1295.200848327051
 40
10.749999999991
100
AcDbArc
 50
118.773506999969
 51
-118.773506999948
  0
ARC
  5
412
100
AcDbEntity
  8
1
  6
CONTINUOUS
 62
           3
100
AcDbCircle
 10
236.180080986239
 20
1295.200848327051
 40
10.750000000001
100
AcDbArc
 50
-61.226493000024
 51
0.0
  0
ARC
  5
411
100
AcDbEntity
  8
1
  6
CONTINUOUS
 62
           3
100
AcDbCircle
 10
236.180080986239
 20
1295.200848327051
 40
10.75
100
AcDbArc
 50
0.0
 51
61.226493000003
  0
ARC
  5
410
100
AcDbEntity
  8
1
  6
CONTINUOUS
 62
           3
100
AcDbCircle
 10
236.180080986239
 20
1295.200848327051
 40
28.749999999987
100
AcDbArc
 50
-96.172501999994
 51
-83.827497999994
  0
ARC
  5
40F
100
AcDbEntity
  8
1
  6
CONTINUOUS
 62
           3
100
AcDbCircle
 10
236.180080986239
 20
1295.200848327051
 40
28.750000000008
100
AcDbArc
 50
83.827497999998
 51
96.17250199999
  0
LINE
  5
40E
100
AcDbEntity
  8
1
  6
CONTINUOUS
 62
           4
100
AcDbLine
 10
2032.70782566436
 20
3872.0
 11
2102.70782566436
 21
3872.0
  0
LINE
  5
40D
100
AcDbEntity
  8
1
  6
CONTINUOUS
 62
           4
100
AcDbLine
 10
2102.70782566436
 20
3920.0
 11
2032.70782566436
 21
3920.0
  0
LINE
  5
40C
100
AcDbEntity
  8
1
  6
CONTINUOUS
 62
           4
100
AcDbLine
 10
2102.70782566436
 20
3842.5
 11
2117.70782566436
 21
3842.5
  0
LINE
  5
40B
100
AcDbEntity
  8
1
  6
CONTINUOUS
 62
           4
100
AcDbLine
 10
2117.70782566436
 20
3916.315060063393
 11
2117.70782566436
 21
3949.5
  0
LINE
  5
40A
100
AcDbEntity
  8
1
  6
CONTINUOUS
 62
           4
100
AcDbLine
 10
2102.70782566436
 20
3946.0
 11
2032.70782566436
 21
3946.0
  0
LINE
  5
409
100
AcDbEntity
  8
1
  6
CONTINUOUS
 62
           4
100
AcDbLine
 10
2117.70782566436
 20
3875.684939936607
 11
2102.70782566436
 21
3875.684939936607
  0
LINE
  5
408
100
AcDbEntity
  8
1
  6
CONTINUOUS
 62
           4
100
AcDbLine
 10
2102.70782566436
 20
3842.5
 11
2102.70782566436
 21
3949.5
  0
LINE
  5
407
100
AcDbEntity
  8
1
  6
CONTINUOUS
 62
           4
100
AcDbLine
 10
2117.70782566436
 20
3916.315060063393
 11
2102.70782566436
 21
3916.315060063393
  0
LINE
  5
406
100
AcDbEntity
  8
1
  6
CONTINUOUS
 62
           4
100
AcDbLine
 10
2032.70782566436
 20
3946.0
 11
2032.70782566436
 21
3846.0
  0
LINE
  5
405
100
AcDbEntity
  8
1
  6
CONTINUOUS
 62
           4
100
AcDbLine
 10
2032.70782566436
 20
3846.0
 11
2102.70782566436
 21
3846.0
  0
LINE
  5
404
100
AcDbEntity
  8
1
  6
CONTINUOUS
 62
           4
100
AcDbLine
 10
2117.70782566436
 20
3842.5
 11
2117.70782566436
 21
3875.684939936607
  0
LINE
  5
403
100
AcDbEntity
  8
1
  6
CONTINUOUS
 62
           4
100
AcDbLine
 10
2117.70782566436
 20
3949.5
 11
2102.70782566436
 21
3949.5
  0
LINE
  5
402
100
AcDbEntity
  8
1
  6
CONTINUOUS
 62
           4
100
AcDbLine
 10
2117.70782566436
 20
3856.0
 11
2147.70782566436
 21
3856.0
  0
LINE
  5
401
100
AcDbEntity
  8
1
  6
CONTINUOUS
 62
           4
100
AcDbLine
 10
2147.70782566436
 20
3856.0
 11
2147.70782566436
 21
3936.0
  0
LINE
  5
400
100
AcDbEntity
  8
1
  6
CONTINUOUS
 62
           4
100
AcDbLine
 10
2147.70782566436
 20
3936.0
 11
2117.70782566436
 21
3936.0
  0
LINE
  5
3FF
100
AcDbEntity
  8
1
  6
CONTINUOUS
 62
           4
100
AcDbLine
 10
2147.70782566436
 20
3866.0
 11
2162.70782566436
 21
3866.0
  0
LINE
  5
3FE
100
AcDbEntity
  8
1
  6
CONTINUOUS
 62
           4
100
AcDbLine
 10
2162.70782566436
 20
3866.0
 11
2162.70782566436
 21
3911.000000000001
  0
LINE
  5
3FD
100
AcDbEntity
  8
1
  6
CONTINUOUS
 62
           4
100
AcDbLine
 10
2162.70782566436
 20
3911.000000000001
 11
2147.70782566436
 21
3911.000000000001
  0
LINE
  5
3FC
100
AcDbEntity
  8
1
  6
CONTINUOUS
 62
           4
100
AcDbLine
 10
2162.70782566436
 20
3906.0
 11
2147.70782566436
 21
3906.0
  0
LINE
  5
3FB
100
AcDbEntity
  8
1
  6
CONTINUOUS
 62
           4
100
AcDbLine
 10
2147.70782566436
 20
3886.0
 11
2162.70782566436
 21
3886.0
  0
LINE
  5
3FA
100
AcDbEntity
  8
1
  6
CONTINUOUS
 62
           4
100
AcDbLine
 10
2167.70782566436
 20
3963.5
 11
2227.70782566436
 21
3963.5
  0
LINE
  5
3F9
100
AcDbEntity
  8
1
  6
CONTINUOUS
 62
           4
100
AcDbLine
 10
2167.70782566436
 20
3963.5
 11
2167.70782566436
 21
3991.0
  0
LINE
  5
3F8
100
AcDbEntity
  8
1
  6
CONTINUOUS
 62
           4
100
AcDbLine
 10
2197.70782566436
 20
3991.0
 11
2197.70782566436
 21
4241.0
  0
LINE
  5
3F7
100
AcDbEntity
  8
1
  6
CONTINUOUS
 62
           4
100
AcDbLine
 10
2047.70782566436
 20
3991.0
 11
2047.70782566436
 21
3963.5
  0
LINE
  5
3F6
100
AcDbEntity
  8
1
  6
CONTINUOUS
 62
           4
100
AcDbLine
 10
2047.70782566436
 20
3963.5
 11
2032.70782566436
 21
3963.5
  0
LINE
  5
3F5
100
AcDbEntity
  8
1
  6
CONTINUOUS
 62
           4
100
AcDbLine
 10
2032.70782566436
 20
4268.5
 11
2047.70782566436
 21
4268.5
  0
LINE
  5
3F4
100
AcDbEntity
  8
1
  6
CONTINUOUS
 62
           4
100
AcDbLine
 10
2047.70782566436
 20
4268.5
 11
2047.70782566436
 21
4241.0
  0
LINE
  5
3F3
100
AcDbEntity
  8
1
  6
CONTINUOUS
 62
           4
100
AcDbLine
 10
2227.70782566436
 20
4021.0
 11
2257.70782566436
 21
4021.0
  0
LINE
  5
3F2
100
AcDbEntity
  8
1
  6
CONTINUOUS
 62
           4
100
AcDbLine
 10
2257.70782566436
 20
4021.0
 11
2257.70782566436
 21
4211.0
  0
LINE
  5
3F1
100
AcDbEntity
  8
1
  6
CONTINUOUS
 62
           4
100
AcDbLine
 10
2257.70782566436
 20
4211.0
 11
2227.70782566436
 21
4211.0
  0
LINE
  5
3F0
100
AcDbEntity
  8
1
  6
CONTINUOUS
 62
           4
100
AcDbLine
 10
2032.70782566436
 20
3991.0
 11
2227.70782566436
 21
3991.0
  0
LINE
  5
3EF
100
AcDbEntity
  8
1
  6
CONTINUOUS
 62
           4
100
AcDbLine
 10
2227.70782566436
 20
3963.5
 11
2227.70782566436
 21
4241.0
  0
LINE
  5
3EE
100
AcDbEntity
  8
1
  6
CONTINUOUS
 62
           4
100
AcDbLine
 10
2227.70782566436
 20
4241.0
 11
2032.70782566436
 21
4241.0
  0
LINE
  5
3ED
100
AcDbEntity
  8
1
  6
CONTINUOUS
 62
           4
100
AcDbLine
 10
2032.70782566436
 20
4268.5
 11
2032.70782566436
 21
3963.5
  0
LINE
  5
3EC
100
AcDbEntity
  8
1
  6
CONTINUOUS
 62
           4
100
AcDbLine
 10
2227.70782566436
 20
1322.000000000003
 11
2032.70782566436
 21
1322.000000000003
  0
LINE
  5
3EB
100
AcDbEntity
  8
1
  6
CONTINUOUS
 62
           4
100
AcDbLine
 10
2227.70782566436
 20
1678.000000000003
 11
2032.70782566436
 21
1678.000000000003
  0
LINE
  5
3EA
100
AcDbEntity
  8
1
  6
CONTINUOUS
 62
           4
100
AcDbLine
 10
2197.70782566436
 20
1162.000000000003
 11
2197.70782566436
 21
1838.000000000003
  0
LINE
  5
3E9
100
AcDbEntity
  8
1
  6
CONTINUOUS
 62
           4
100
AcDbLine
 10
2227.70782566436
 20
1352.000000000003
 11
2257.70782566436
 21
1352.000000000003
  0
LINE
  5
3E8
100
AcDbEntity
  8
1
  6
CONTINUOUS
 62
           4
100
AcDbLine
 10
2257.70782566436
 20
1352.000000000003
 11
2257.70782566436
 21
1648.000000000003
  0
LINE
  5
3E7
100
AcDbEntity
  8
1
  6
CONTINUOUS
 62
           4
100
AcDbLine
 10
2257.70782566436
 20
1648.000000000003
 11
2227.70782566436
 21
1648.000000000003
  0
LINE
  5
3E6
100
AcDbEntity
  8
1
  6
CONTINUOUS
 62
           4
100
AcDbLine
 10
2032.70782566436
 20
1357.500000000003
 11
2047.70782566436
 21
1357.500000000003
  0
LINE
  5
3E5
100
AcDbEntity
  8
1
  6
CONTINUOUS
 62
           4
100
AcDbLine
 10
2047.70782566436
 20
1357.500000000003
 11
2047.70782566436
 21
1392.500000000003
  0
LINE
  5
3E4
100
AcDbEntity
  8
1
  6
CONTINUOUS
 62
           4
100
AcDbLine
 10
2047.70782566436
 20
1392.500000000003
 11
2032.70782566436
 21
1392.500000000003
  0
LINE
  5
3E3
100
AcDbEntity
  8
1
  6
CONTINUOUS
 62
           4
100
AcDbLine
 10
2032.70782566436
 20
1607.500000000003
 11
2047.70782566436
 21
1607.500000000003
  0
LINE
  5
3E2
100
AcDbEntity
  8
1
  6
CONTINUOUS
 62
           4
100
AcDbLine
 10
2047.70782566436
 20
1607.500000000003
 11
2047.70782566436
 21
1642.500000000003
  0
LINE
  5
3E1
100
AcDbEntity
  8
1
  6
CONTINUOUS
 62
           4
100
AcDbLine
 10
2047.70782566436
 20
1642.500000000003
 11
2032.70782566436
 21
1642.500000000003
  0
LINE
  5
3E0
100
AcDbEntity
  8
1
  6
CONTINUOUS
 62
           4
100
AcDbLine
 10
2032.70782566436
 20
1838.000000000003
 11
2032.70782566436
 21
1162.000000000003
  0
LINE
  5
3DF
100
AcDbEntity
  8
1
  6
CONTINUOUS
 62
           4
100
AcDbLine
 10
2032.70782566436
 20
1162.000000000003
 11
2227.70782566436
 21
1162.000000000003
  0
LINE
  5
3DE
100
AcDbEntity
  8
1
  6
CONTINUOUS
 62
           4
100
AcDbLine
 10
2227.70782566436
 20
1162.000000000003
 11
2227.70782566436
 21
1838.000000000003
  0
LINE
  5
3DD
100
AcDbEntity
  8
1
  6
CONTINUOUS
 62
           4
100
AcDbLine
 10
2227.70782566436
 20
1838.000000000003
 11
2032.70782566436
 21
1838.000000000003
  0
LINE
  5
3DC
100
AcDbEntity
  8
1
  6
CONTINUOUS
 62
           4
100
AcDbLine
 10
3950.0
 20
1454.999999999993
 11
3950.0
 21
1161.999999999993
  0
LINE
  5
3DB
100
AcDbEntity
  8
1
  6
CONTINUOUS
 62
           4
100
AcDbLine
 10
3950.0
 20
1514.999999999993
 11
3950.0
 21
1484.999999999993
  0
LINE
  5
3DA
100
AcDbEntity
  8
1
  6
CONTINUOUS
 62
           4
100
AcDbLine
 10
3922.5
 20
1454.999999999993
 11
3980.0
 21
1454.999999999993
  0
LINE
  5
3D9
100
AcDbEntity
  8
1
  6
CONTINUOUS
 62
           4
100
AcDbLine
 10
3922.5
 20
1484.999999999993
 11
3922.5
 21
1454.999999999993
  0
LINE
  5
3D8
100
AcDbEntity
  8
1
  6
CONTINUOUS
 62
           4
100
AcDbLine
 10
3980.0
 20
1484.999999999993
 11
3922.5
 21
1484.999999999993
  0
LINE
  5
3D7
100
AcDbEntity
  8
1
  6
CONTINUOUS
 62
           4
100
AcDbLine
 10
3922.5
 20
1514.999999999993
 11
3980.0
 21
1514.999999999993
  0
LINE
  5
3D6
100
AcDbEntity
  8
1
  6
CONTINUOUS
 62
           4
100
AcDbLine
 10
3922.5
 20
1544.999999999993
 11
3922.5
 21
1514.999999999993
  0
LINE
  5
3D5
100
AcDbEntity
  8
1
  6
CONTINUOUS
 62
           4
100
AcDbLine
 10
3980.0
 20
1544.999999999993
 11
3922.5
 21
1544.999999999993
  0
LINE
  5
3D4
100
AcDbEntity
  8
1
  6
CONTINUOUS
 62
           4
100
AcDbLine
 10
3980.0
 20
1191.999999999993
 11
3980.0
 21
1291.999999999993
  0
LINE
  5
3D3
100
AcDbEntity
  8
1
  6
CONTINUOUS
 62
           4
100
AcDbLine
 10
4170.0
 20
1191.999999999993
 11
3980.0
 21
1191.999999999993
  0
LINE
  5
3D2
100
AcDbEntity
  8
1
  6
CONTINUOUS
 62
           4
100
AcDbLine
 10
4170.0
 20
1291.999999999993
 11
4170.0
 21
1191.999999999993
  0
LINE
  5
3D1
100
AcDbEntity
  8
1
  6
CONTINUOUS
 62
           4
100
AcDbLine
 10
3980.0
 20
1291.999999999993
 11
4170.0
 21
1291.999999999993
  0
LINE
  5
3D0
100
AcDbEntity
  8
1
  6
CONTINUOUS
 62
           4
100
AcDbLine
 10
3980.0
 20
1351.999999999993
 11
3980.0
 21
1647.999999999993
  0
LINE
  5
3CF
100
AcDbEntity
  8
1
  6
CONTINUOUS
 62
           4
100
AcDbLine
 10
4170.0
 20
1351.999999999993
 11
3980.0
 21
1351.999999999993
  0
LINE
  5
3CE
100
AcDbEntity
  8
1
  6
CONTINUOUS
 62
           4
100
AcDbLine
 10
4170.0
 20
1647.999999999993
 11
4170.0
 21
1351.999999999993
  0
LINE
  5
3CD
100
AcDbEntity
  8
1
  6
CONTINUOUS
 62
           4
100
AcDbLine
 10
3980.0
 20
1647.999999999993
 11
4170.0
 21
1647.999999999993
  0
LINE
  5
3CC
100
AcDbEntity
  8
1
  6
CONTINUOUS
 62
           4
100
AcDbLine
 10
3980.0
 20
1707.999999999993
 11
3980.0
 21
1807.999999999993
  0
LINE
  5
3CB
100
AcDbEntity
  8
1
  6
CONTINUOUS
 62
           4
100
AcDbLine
 10
4170.0
 20
1707.999999999993
 11
3980.0
 21
1707.999999999993
  0
LINE
  5
3CA
100
AcDbEntity
  8
1
  6
CONTINUOUS
 62
           4
100
AcDbLine
 10
4170.0
 20
1807.999999999993
 11
4170.0
 21
1707.999999999993
  0
LINE
  5
3C9
100
AcDbEntity
  8
1
  6
CONTINUOUS
 62
           4
100
AcDbLine
 10
3980.0
 20
1807.999999999993
 11
4170.0
 21
1807.999999999993
  0
LINE
  5
3C8
100
AcDbEntity
  8
1
  6
CONTINUOUS
 62
           4
100
AcDbLine
 10
3950.0
 20
1161.999999999993
 11
4200.0
 21
1161.999999999993
  0
LINE
  5
3C7
100
AcDbEntity
  8
1
  6
CONTINUOUS
 62
           4
100
AcDbLine
 10
4200.0
 20
1161.999999999993
 11
4200.0
 21
1837.999999999993
  0
LINE
  5
3C6
100
AcDbEntity
  8
1
  6
CONTINUOUS
 62
           4
100
AcDbLine
 10
4200.0
 20
1837.999999999993
 11
3950.0
 21
1837.999999999993
  0
LINE
  5
3C5
100
AcDbEntity
  8
1
  6
CONTINUOUS
 62
           4
100
AcDbLine
 10
3950.0
 20
1837.999999999993
 11
3950.0
 21
1544.999999999993
  0
LINE
  5
3C4
100
AcDbEntity
  8
1
  6
CONTINUOUS
 62
           4
100
AcDbLine
 10
4200.0
 20
1677.999999999993
 11
3950.0
 21
1677.999999999993
  0
LINE
  5
3C3
100
AcDbEntity
  8
1
  6
CONTINUOUS
 62
           4
100
AcDbLine
 10
3950.0
 20
1321.999999999993
 11
4200.0
 21
1321.999999999993
  0
LINE
  5
3C2
100
AcDbEntity
  8
1
  6
CONTINUOUS
 62
           4
100
AcDbLine
 10
4200.0
 20
1642.499999999993
 11
4227.5
 21
1642.499999999993
  0
LINE
  5
3C1
100
AcDbEntity
  8
1
  6
CONTINUOUS
 62
           4
100
AcDbLine
 10
4227.5
 20
1642.499999999993
 11
4227.5
 21
1607.499999999993
  0
LINE
  5
3C0
100
AcDbEntity
  8
1
  6
CONTINUOUS
 62
           4
100
AcDbLine
 10
4227.5
 20
1607.499999999993
 11
4200.0
 21
1607.499999999993
  0
LINE
  5
3BF
100
AcDbEntity
  8
1
  6
CONTINUOUS
 62
           4
100
AcDbLine
 10
4200.0
 20
1392.499999999993
 11
4227.5
 21
1392.499999999993
  0
LINE
  5
3BE
100
AcDbEntity
  8
1
  6
CONTINUOUS
 62
           4
100
AcDbLine
 10
4227.5
 20
1392.499999999993
 11
4227.5
 21
1357.499999999993
  0
LINE
  5
3BD
100
AcDbEntity
  8
1
  6
CONTINUOUS
 62
           4
100
AcDbLine
 10
4227.5
 20
1357.499999999993
 11
4200.0
 21
1357.499999999993
  0
LINE
  5
3BC
100
AcDbEntity
  8
1
  6
CONTINUOUS
 62
           4
100
AcDbLine
 10
3950.0
 20
1357.499999999993
 11
3922.5
 21
1357.499999999993
  0
LINE
  5
3BB
100
AcDbEntity
  8
1
  6
CONTINUOUS
 62
           4
100
AcDbLine
 10
3922.5
 20
1357.499999999993
 11
3922.5
 21
1392.499999999993
  0
LINE
  5
3BA
100
AcDbEntity
  8
1
  6
CONTINUOUS
 62
           4
100
AcDbLine
 10
3922.5
 20
1392.499999999993
 11
3950.0
 21
1392.499999999993
  0
LINE
  5
3B9
100
AcDbEntity
  8
1
  6
CONTINUOUS
 62
           4
100
AcDbLine
 10
3950.0
 20
1607.499999999993
 11
3922.5
 21
1607.499999999993
  0
LINE
  5
3B8
100
AcDbEntity
  8
1
  6
CONTINUOUS
 62
           4
100
AcDbLine
 10
3922.5
 20
1607.499999999993
 11
3922.5
 21
1642.499999999993
  0
LINE
  5
3B7
100
AcDbEntity
  8
1
  6
CONTINUOUS
 62
           4
100
AcDbLine
 10
3922.5
 20
1642.499999999993
 11
3950.0
 21
1642.499999999993
  0
LINE
  5
3B6
100
AcDbEntity
  8
1
  6
CONTINUOUS
 62
           4
100
AcDbLine
 10
2102.70782566436
 20
1524.000000000003
 11
2042.70782566436
 21
1524.000000000003
  0
LINE
  5
3B5
100
AcDbEntity
  8
1
  6
CONTINUOUS
 62
           4
100
AcDbLine
 10
2042.70782566436
 20
1476.000000000003
 11
2102.70782566436
 21
1476.000000000003
  0
LINE
  5
3B4
100
AcDbEntity
  8
1
  6
CONTINUOUS
 62
           4
100
AcDbLine
 10
2117.70782566436
 20
1553.500000000003
 11
2102.70782566436
 21
1553.500000000003
  0
LINE
  5
3B3
100
AcDbEntity
  8
1
  6
CONTINUOUS
 62
           4
100
AcDbLine
 10
2117.70782566436
 20
1446.500000000003
 11
2117.70782566436
 21
1479.68493993661
  0
LINE
  5
3B2
100
AcDbEntity
  8
1
  6
CONTINUOUS
 62
           4
100
AcDbLine
 10
2042.70782566436
 20
1450.000000000003
 11
2102.70782566436
 21
1450.000000000003
  0
LINE
  5
3B1
100
AcDbEntity
  8
1
  6
CONTINUOUS
 62
           4
100
AcDbLine
 10
2102.70782566436
 20
1520.315060063397
 11
2117.70782566436
 21
1520.315060063397
  0
LINE
  5
3B0
100
AcDbEntity
  8
1
  6
CONTINUOUS
 62
           4
100
AcDbLine
 10
2102.70782566436
 20
1446.500000000003
 11
2102.70782566436
 21
1553.500000000003
  0
LINE
  5
3AF
100
AcDbEntity
  8
1
  6
CONTINUOUS
 62
           4
100
AcDbLine
 10
2102.70782566436
 20
1479.68493993661
 11
2117.70782566436
 21
1479.68493993661
  0
LINE
  5
3AE
100
AcDbEntity
  8
1
  6
CONTINUOUS
 62
           4
100
AcDbLine
 10
2032.70782566436
 20
1570.000000000003
 11
2032.70782566436
 21
1430.000000000003
  0
LINE
  5
3AD
100
AcDbEntity
  8
1
  6
CONTINUOUS
 62
           4
100
AcDbLine
 10
2102.70782566436
 20
1550.000000000003
 11
2042.70782566436
 21
1550.000000000003
  0
LINE
  5
3AC
100
AcDbEntity
  8
1
  6
CONTINUOUS
 62
           4
100
AcDbLine
 10
2117.70782566436
 20
1520.315060063397
 11
2117.70782566436
 21
1553.500000000003
  0
LINE
  5
3AB
100
AcDbEntity
  8
1
  6
CONTINUOUS
 62
           4
100
AcDbLine
 10
2102.70782566436
 20
1446.500000000003
 11
2117.70782566436
 21
1446.500000000003
  0
LINE
  5
3AA
100
AcDbEntity
  8
1
  6
CONTINUOUS
 62
           4
100
AcDbLine
 10
2147.70782566436
 20
1540.000000000003
 11
2117.70782566436
 21
1540.000000000003
  0
LINE
  5
3A9
100
AcDbEntity
  8
1
  6
CONTINUOUS
 62
           4
100
AcDbLine
 10
2147.70782566436
 20
1460.000000000003
 11
2147.70782566436
 21
1540.000000000003
  0
LINE
  5
3A8
100
AcDbEntity
  8
1
  6
CONTINUOUS
 62
           4
100
AcDbLine
 10
2117.70782566436
 20
1460.000000000003
 11
2147.70782566436
 21
1460.000000000003
  0
LINE
  5
3A7
100
AcDbEntity
  8
1
  6
CONTINUOUS
 62
           4
100
AcDbLine
 10
2147.70782566436
 20
1470.000000000003
 11
2162.70782566436
 21
1470.000000000003
  0
LINE
  5
3A6
100
AcDbEntity
  8
1
  6
CONTINUOUS
 62
           4
100
AcDbLine
 10
2162.70782566436
 20
1470.000000000003
 11
2162.70782566436
 21
1515.000000000003
  0
LINE
  5
3A5
100
AcDbEntity
  8
1
  6
CONTINUOUS
 62
           4
100
AcDbLine
 10
2162.70782566436
 20
1515.000000000003
 11
2147.70782566436
 21
1515.000000000003
  0
LINE
  5
3A4
100
AcDbEntity
  8
1
  6
CONTINUOUS
 62
           4
100
AcDbLine
 10
2162.70782566436
 20
1510.000000000003
 11
2147.70782566436
 21
1510.000000000003
  0
LINE
  5
3A3
100
AcDbEntity
  8
1
  6
CONTINUOUS
 62
           4
100
AcDbLine
 10
2147.70782566436
 20
1490.000000000003
 11
2162.70782566436
 21
1490.000000000003
  0
LINE
  5
3A2
100
AcDbEntity
  8
1
  6
CONTINUOUS
 62
           4
100
AcDbLine
 10
2042.70782566436
 20
1570.000000000003
 11
2042.70782566436
 21
1430.000000000003
  0
LINE
  5
3A1
100
AcDbEntity
  8
1
  6
CONTINUOUS
 62
           4
100
AcDbLine
 10
2080.70782566436
 20
1570.000000000003
 11
2032.70782566436
 21
1570.000000000003
  0
LINE
  5
3A0
100
AcDbEntity
  8
1
  6
CONTINUOUS
 62
           4
100
AcDbLine
 10
2080.70782566436
 20
1550.000000000003
 11
2080.70782566436
 21
1570.000000000003
  0
LINE
  5
39F
100
AcDbEntity
  8
1
  6
CONTINUOUS
 62
           4
100
AcDbLine
 10
2080.70782566436
 20
1430.000000000003
 11
2032.70782566436
 21
1430.000000000003
  0
LINE
  5
39E
100
AcDbEntity
  8
1
  6
CONTINUOUS
 62
           4
100
AcDbLine
 10
2080.70782566436
 20
1450.000000000003
 11
2080.70782566436
 21
1430.000000000003
  0
LINE
  5
39D
100
AcDbEntity
  8
1
  6
CONTINUOUS
 62
           4
100
AcDbLine
 10
3852.411809548975
 20
1509.659258262894
 11
3840.857864376268
 21
1514.142135623734
  0
LINE
  5
39C
100
AcDbEntity
  8
1
  6
CONTINUOUS
 62
           4
100
AcDbLine
 10
3845.34074173711
 20
1502.588190451028
 11
3840.857864376268
 21
1514.142135623734
  0
LINE
  5
39B
100
AcDbEntity
  8
1
  6
CONTINUOUS
 62
           4
100
AcDbLine
 10
3857.588190451025
 20
1490.340741737112
 11
3879.526896494872
 21
1468.402035693266
  0
LINE
  5
39A
100
AcDbEntity
  8
1
  6
CONTINUOUS
 62
           4
100
AcDbLine
 10
3864.659258262891
 20
1497.411809548979
 11
3886.597964306737
 21
1475.473103505131
  0
LINE
  5
399
100
AcDbEntity
  8
1
  6
CONTINUOUS
 62
           4
100
AcDbLine
 10
3815.0
 20
1552.867496997601
 11
3815.0
 21
1570.000000000003
  0
LINE
  5
398
100
AcDbEntity
  8
1
  6
CONTINUOUS
 62
           4
100
AcDbLine
 10
3804.428932188135
 20
1536.428932188138
 11
3820.542804312875
 21
1520.315060063397
  0
LINE
  5
397
100
AcDbEntity
  8
1
  6
CONTINUOUS
 62
           4
100
AcDbLine
 10
3891.428932188135
 20
1550.57106781187
 11
3875.315060063393
 21
1534.457195687127
  0
LINE
  5
396
100
AcDbEntity
  8
1
  6
CONTINUOUS
 62
           4
100
AcDbLine
 10
3905.571067811865
 20
1463.57106781187
 11
3889.457195687124
 21
1479.68493993661
  0
LINE
  5
395
100
AcDbEntity
  8
1
  6
CONTINUOUS
 62
           4
100
AcDbLine
 10
3834.684939936606
 20
1534.457195687127
 11
3818.571067811865
 21
1550.57106781187
  0
LINE
  5
394
100
AcDbEntity
  8
1
  6
CONTINUOUS
 62
           4
100
AcDbLine
 10
3889.457195687124
 20
1520.315060063397
 11
3905.571067811865
 21
1536.428932188138
  0
LINE
  5
393
100
AcDbEntity
  8
1
  6
CONTINUOUS
 62
           4
100
AcDbLine
 10
3875.315060063393
 20
1465.542804312879
 11
3891.428932188135
 21
1449.428932188138
  0
LINE
  5
392
100
AcDbEntity
  8
1
  6
CONTINUOUS
 62
           4
100
AcDbLine
 10
3818.571067811865
 20
1449.428932188138
 11
3834.684939936606
 21
1465.542804312879
  0
LINE
  5
391
100
AcDbEntity
  8
1
  6
CONTINUOUS
 62
           4
100
AcDbLine
 10
3820.542804312875
 20
1479.68493993661
 11
3804.428932188135
 21
1463.57106781187
  0
LINE
  5
390
100
AcDbEntity
  8
1
  6
CONTINUOUS
 62
           4
100
AcDbLine
 10
3815.0
 20
1570.000000000003
 11
3875.0
 21
1570.000000000003
  0
LINE
  5
38F
100
AcDbEntity
  8
1
  6
CONTINUOUS
 62
           4
100
AcDbLine
 10
3875.0
 20
1570.000000000003
 11
3875.0
 21
1545.825756949561
  0
LINE
  5
38E
100
AcDbEntity
  8
1
  6
CONTINUOUS
 62
           4
100
AcDbLine
 10
3835.0
 20
1454.174243050445
 11
3835.0
 21
1430.000000000003
  0
LINE
  5
38D
100
AcDbEntity
  8
1
  6
CONTINUOUS
 62
           4
100
AcDbLine
 10
3835.0
 20
1430.000000000003
 11
3895.0
 21
1430.000000000003
  0
LINE
  5
38C
100
AcDbEntity
  8
1
  6
CONTINUOUS
 62
           4
100
AcDbLine
 10
3895.0
 20
1430.000000000003
 11
3895.0
 21
1447.132503002406
  0
LINE
  5
38B
100
AcDbEntity
  8
1
  6
CONTINUOUS
 62
           4
100
AcDbLine
 10
3875.0
 20
1454.174243050445
 11
3875.0
 21
1430.000000000003
  0
LINE
  5
38A
100
AcDbEntity
  8
1
  6
CONTINUOUS
 62
           4
100
AcDbLine
 10
3835.0
 20
1570.000000000003
 11
3835.0
 21
1545.825756949561
  0
LINE
  5
389
100
AcDbEntity
  8
1
  6
CONTINUOUS
 62
           4
100
AcDbLine
 10
612.14048741714
 20
5293.499999999997
 11
595.616528426403
 21
5293.499999999997
  0
LINE
  5
388
100
AcDbEntity
  8
1
  6
CONTINUOUS
 62
           4
100
AcDbLine
 10
612.14048741714
 20
5408.499999999997
 11
595.616528426403
 21
5408.499999999997
  0
LINE
  5
387
100
AcDbEntity
  8
1
  6
CONTINUOUS
 62
           7
100
AcDbLine
 10
662.707825664356
 20
5287.499999999997
 11
622.532792262553
 21
5287.499999999997
  0
LINE
  5
386
100
AcDbEntity
  8
1
  6
CONTINUOUS
 62
           7
100
AcDbLine
 10
622.532792262553
 20
5414.499999999997
 11
662.707825664356
 21
5414.499999999997
  0
LINE
  5
385
100
AcDbEntity
  8
1
  6
CONTINUOUS
 62
           7
100
AcDbLine
 10
610.532792262553
 20
5299.499999999997
 11
610.532792262553
 21
5402.499999999997
  0
LINE
  5
384
100
AcDbEntity
  8
1
  6
CONTINUOUS
 62
           7
100
AcDbLine
 10
674.707825664356
 20
5402.499999999997
 11
674.707825664356
 21
5299.499999999997
  0
LINE
  5
383
100
AcDbEntity
  8
1
  6
CONTINUOUS
 62
           4
100
AcDbLine
 10
-212.29217433564
 20
5856.499999999997
 11
517.70782566436
 21
5856.499999999997
  0
LINE
  5
382
100
AcDbEntity
  8
1
  6
CONTINUOUS
 62
           7
100
AcDbLine
 10
517.70782566436
 20
5860.999999999997
 11
-212.29217433564
 21
5860.999999999997
  0
LINE
  5
381
100
AcDbEntity
  8
1
  6
CONTINUOUS
 62
           4
100
AcDbLine
 10
517.70782566436
 20
5865.499999999997
 11
-212.29217433564
 21
5865.499999999997
  0
LINE
  5
380
100
AcDbEntity
  8
1
  6
DOT_CENTER
 62
           2
100
AcDbLine
 10
152.70782566436
 20
5969.888968922946
 11
152.70782566436
 21
5537.651872456057
  0
LINE
  5
37F
100
AcDbEntity
  8
1
  6
CONTINUOUS
 62
           7
100
AcDbLine
 10
477.707825664358
 20
5810.999999999997
 11
477.70782566436
 21
5820.999999999997
  0
LINE
  5
37E
100
AcDbEntity
  8
1
  6
CONTINUOUS
 62
           7
100
AcDbLine
 10
-172.29217433564
 20
5820.999999999997
 11
-172.29217433564
 21
5810.999999999997
  0
LINE
  5
37D
100
AcDbEntity
  8
1
  6
CONTINUOUS
 62
           7
100
AcDbLine
 10
-182.29217433564
 20
5800.999999999997
 11
-172.29217433564
 21
5810.999999999997
  0
LINE
  5
37C
100
AcDbEntity
  8
1
  6
CONTINUOUS
 62
           7
100
AcDbLine
 10
509.583060005705
 20
5755.790474617622
 11
477.707825664358
 21
5810.999999999997
  0
LINE
  5
37B
100
AcDbEntity
  8
1
  6
CONTINUOUS
 62
           7
100
AcDbLine
 10
-182.29217433564
 20
5800.999999999997
 11
-182.29217433564
 21
5400.999999999996
  0
LINE
  5
37A
100
AcDbEntity
  8
1
  6
CONTINUOUS
 62
           7
100
AcDbLine
 10
-212.29217433564
 20
5895.999999999997
 11
-212.29217433564
 21
5860.999999999997
  0
LINE
  5
379
100
AcDbEntity
  8
1
  6
CONTINUOUS
 62
           7
100
AcDbLine
 10
-212.29217433564
 20
5895.999999999997
 11
-207.29217433564
 21
5900.999999999997
  0
LINE
  5
378
100
AcDbEntity
  8
1
  6
CONTINUOUS
 62
           7
100
AcDbLine
 10
512.70782566436
 20
5900.999999999997
 11
-207.29217433564
 21
5900.999999999997
  0
LINE
  5
377
100
AcDbEntity
  8
1
  6
CONTINUOUS
 62
           7
100
AcDbLine
 10
512.70782566436
 20
5900.999999999997
 11
517.70782566436
 21
5895.999999999997
  0
LINE
  5
376
100
AcDbEntity
  8
1
  6
CONTINUOUS
 62
           7
100
AcDbLine
 10
517.70782566436
 20
5860.999999999997
 11
517.70782566436
 21
5895.999999999997
  0
LINE
  5
375
100
AcDbEntity
  8
1
  6
CONTINUOUS
 62
           7
100
AcDbLine
 10
517.70782566436
 20
5825.999999999997
 11
517.70782566436
 21
5860.999999999997
  0
LINE
  5
374
100
AcDbEntity
  8
1
  6
CONTINUOUS
 62
           7
100
AcDbLine
 10
517.70782566436
 20
5825.999999999997
 11
512.70782566436
 21
5820.999999999997
  0
LINE
  5
373
100
AcDbEntity
  8
1
  6
CONTINUOUS
 62
           7
100
AcDbLine
 10
-207.29217433564
 20
5820.999999999997
 11
512.70782566436
 21
5820.999999999997
  0
LINE
  5
372
100
AcDbEntity
  8
1
  6
CONTINUOUS
 62
           7
100
AcDbLine
 10
-207.29217433564
 20
5820.999999999997
 11
-212.29217433564
 21
5825.999999999997
  0
LINE
  5
371
100
AcDbEntity
  8
1
  6
CONTINUOUS
 62
           7
100
AcDbLine
 10
-212.29217433564
 20
5860.999999999997
 11
-212.29217433564
 21
5825.999999999997
  0
LINE
  5
370
100
AcDbEntity
  8
1
  6
CONTINUOUS
 62
           7
100
AcDbLine
 10
922.70782566436
 20
5450.999999999997
 11
647.70782586442
 21
5725.999999999997
  0
LINE
  5
36F
100
AcDbEntity
  8
1
  6
CONTINUOUS
 62
           7
100
AcDbLine
 10
-168.275543137575
 20
5346.531349823827
 11
420.744405590818
 21
4757.51140109543
  0
LINE
  5
36E
100
AcDbEntity
  8
1
  6
CONTINUOUS
 62
           7
100
AcDbLine
 10
297.70782566436
 20
5820.999999999997
 11
-172.292174335642
 21
5350.999999999997
  0
LINE
  5
36D
100
AcDbEntity
  8
1
  6
CONTINUOUS
 62
           7
100
AcDbLine
 10
-172.518183824695
 20
5350.773990510947
 11
-168.275543137575
 21
5346.531349823827
  0
LINE
  5
36C
100
AcDbEntity
  8
1
  6
CONTINUOUS
 62
           7
100
AcDbLine
 10
424.987046277938
 20
4753.26876040831
 11
948.246064355983
 21
5276.527778486355
  0
LINE
  5
36B
100
AcDbEntity
  8
1
  6
CONTINUOUS
 62
           7
100
AcDbLine
 10
420.744405590818
 20
4757.51140109543
 11
424.987046277938
 21
4753.26876040831
  0
LINE
  5
36A
100
AcDbEntity
  8
1
  6
CONTINUOUS
 62
           7
100
AcDbLine
 10
-172.292174335642
 20
5350.999999999997
 11
-172.518183824695
 21
5350.773990510947
  0
LINE
  5
369
100
AcDbEntity
  8
1
  6
CONTINUOUS
 62
           7
100
AcDbLine
 10
693.707825664356
 20
5134.999999999999
 11
693.70782566436
 21
5620.999999999997
  0
LINE
  5
368
100
AcDbEntity
  8
1
  6
CONTINUOUS
 62
           7
100
AcDbLine
 10
261.70782566436
 20
5134.999999999999
 11
747.70782566436
 21
5134.999999999999
  0
LINE
  5
367
100
AcDbEntity
  8
1
  6
CONTINUOUS
 62
           7
100
AcDbLine
 10
261.707825664358
 20
5566.999999999999
 11
261.70782566436
 21
5080.999999999997
  0
LINE
  5
366
100
AcDbEntity
  8
1
  6
CONTINUOUS
 62
           7
100
AcDbLine
 10
693.70782566436
 20
5566.999999999999
 11
207.70782566436
 21
5566.999999999999
  0
LINE
  5
365
100
AcDbEntity
  8
1
  6
CONTINUOUS
 62
           7
100
AcDbLine
 10
424.987046277936
 20
2150.0
 11
424.987046277936
 21
2165.0
  0
LINE
  5
364
100
AcDbEntity
  8
1
  6
CONTINUOUS
 62
           7
100
AcDbLine
 10
674.707825664356
 20
2804.299999999998
 11
674.707825664356
 21
2728.299999999998
  0
LINE
  5
363
100
AcDbEntity
  8
1
  6
CONTINUOUS
 62
           7
100
AcDbLine
 10
600.204222464357
 20
2728.299999999998
 11
600.204222464357
 21
2804.299999999998
  0
LINE
  5
362
100
AcDbEntity
  8
1
  6
CONTINUOUS
 62
           7
100
AcDbLine
 10
612.204222464356
 20
2816.299999999998
 11
662.707825664356
 21
2816.299999999998
  0
LINE
  5
361
100
AcDbEntity
  8
1
  6
CONTINUOUS
 62
           7
100
AcDbLine
 10
662.707825664356
 20
2716.299999999998
 11
612.204222464356
 21
2716.299999999998
  0
LINE
  5
360
100
AcDbEntity
  8
2
  6
CONTINUOUS
 62
           4
100
AcDbLine
 10
586.950196064356
 20
2659.099999999999
 11
365.465455264357
 21
2659.099999999999
  0
LINE
  5
35F
100
AcDbEntity
  8
7
  6
CONTINUOUS
 62
           7
100
AcDbLine
 10
602.707825664356
 20
2915.231865248043
 11
602.707825664356
 21
2882.1868192
  0
LINE
  5
35E
100
AcDbEntity
  8
7
  6
CONTINUOUS
 62
           7
100
AcDbLine
 10
352.707825664356
 20
2915.231865248043
 11
356.307825664355
 21
2948.133628400001
  0
LINE
  5
35D
100
AcDbEntity
  8
1
  6
CONTINUOUS
 62
           4
100
AcDbLine
 10
602.707825664356
 20
2915.231865248043
 11
352.707825664356
 21
2915.231865248043
  0
LINE
  5
35C
100
AcDbEntity
  8
2
  6
CONTINUOUS
 62
           7
100
AcDbLine
 10
365.465455264357
 20
2659.099999999999
 11
352.211428864355
 21
2690.900000000002
  0
LINE
  5
35B
100
AcDbEntity
  8
2
  6
CONTINUOUS
 62
           7
100
AcDbLine
 10
352.211428864355
 20
2782.15
 11
352.211428864355
 21
2690.900000000002
  0
LINE
  5
35A
100
AcDbEntity
  8
2
  6
CONTINUOUS
 62
           7
100
AcDbLine
 10
357.963176464356
 20
2882.1868192
 11
352.211428864355
 21
2868.3868192
  0
LINE
  5
359
100
AcDbEntity
  8
2
  6
CONTINUOUS
 62
           7
100
AcDbLine
 10
352.211428864355
 20
2782.15
 11
352.211428864355
 21
2868.3868192
  0
LINE
  5
358
100
AcDbEntity
  8
2
  6
CONTINUOUS
 62
           4
100
AcDbLine
 10
370.647825664355
 20
2659.099999999999
 11
370.647825664355
 21
2649.0
  0
LINE
  5
357
100
AcDbEntity
  8
2
  6
CONTINUOUS
 62
           4
100
AcDbLine
 10
581.767825664356
 20
2649.0
 11
581.767825664356
 21
2659.099999999999
  0
LINE
  5
356
100
AcDbEntity
  8
2
  6
CONTINUOUS
 62
           7
100
AcDbLine
 10
600.204222464357
 20
2868.3868192
 11
600.204222464357
 21
2782.15
  0
LINE
  5
355
100
AcDbEntity
  8
2
  6
CONTINUOUS
 62
           7
100
AcDbLine
 10
600.204222464357
 20
2868.3868192
 11
594.452474864356
 21
2882.1868192
  0
LINE
  5
354
100
AcDbEntity
  8
2
  6
CONTINUOUS
 62
           7
100
AcDbLine
 10
600.204222464357
 20
2690.900000000002
 11
600.204222464357
 21
2782.15
  0
LINE
  5
353
100
AcDbEntity
  8
2
  6
CONTINUOUS
 62
           7
100
AcDbLine
 10
600.204222464357
 20
2690.900000000002
 11
586.950196064356
 21
2659.099999999999
  0
LINE
  5
352
100
AcDbEntity
  8
7
  6
CONTINUOUS
 62
           7
100
AcDbLine
 10
477.707825664356
 20
2978.0
 11
563.227825664357
 21
2978.0
  0
LINE
  5
351
100
AcDbEntity
  8
7
  6
CONTINUOUS
 62
           7
100
AcDbLine
 10
568.091242064356
 20
2972.483396
 11
592.839066464356
 21
2952.634035200001
  0
LINE
  5
350
100
AcDbEntity
  8
7
  6
CONTINUOUS
 62
           4
100
AcDbLine
 10
357.517398064356
 20
2952.200000000001
 11
595.267825664356
 21
2952.200000000001
  0
LINE
  5
34F
100
AcDbEntity
  8
7
  6
CONTINUOUS
 62
           7
100
AcDbLine
 10
599.107825664356
 20
2948.360000000001
 11
602.707825664356
 21
2915.231865248043
  0
LINE
  5
34E
100
AcDbEntity
  8
7
  6
CONTINUOUS
 62
           7
100
AcDbLine
 10
602.707825664356
 20
2882.1868192
 11
352.707825664356
 21
2882.1868192
  0
LINE
  5
34D
100
AcDbEntity
  8
7
  6
CONTINUOUS
 62
           7
100
AcDbLine
 10
352.707825664356
 20
2882.1868192
 11
352.707825664356
 21
2915.231865248043
  0
LINE
  5
34C
100
AcDbEntity
  8
7
  6
CONTINUOUS
 62
           7
100
AcDbLine
 10
477.707825664356
 20
2978.0
 11
389.187825664356
 21
2978.0
  0
LINE
  5
34B
100
AcDbEntity
  8
7
  6
CONTINUOUS
 62
           7
100
AcDbLine
 10
384.324408064356
 20
2972.483396
 11
359.730414064356
 21
2954.3957372
  0
LINE
  5
34A
100
AcDbEntity
  8
1
  6
DOT_CENTER
 62
           2
100
AcDbLine
 10
1011.537515205773
 20
2385.000000000004
 11
-254.439851139427
 21
2385.000000000001
  0
LINE
  5
349
100
AcDbEntity
  8
1
  6
CONTINUOUS
 62
           2
100
AcDbLine
 10
945.681887664965
 20
2565.000000000004
 11
902.840936390612
 21
2565.000000000004
  0
LINE
  5
348
100
AcDbEntity
  8
1
  6
CONTINUOUS
 62
           2
100
AcDbLine
 10
902.840936390612
 20
2205.000000000002
 11
945.681887664965
 21
2205.000000000004
  0
LINE
  5
347
100
AcDbEntity
  8
1
  6
CONTINUOUS
 62
           2
100
AcDbLine
 10
902.840936390612
 20
2565.000000000004
 11
902.840936390612
 21
2205.000000000002
  0
LINE
  5
346
100
AcDbEntity
  8
1
  6
CONTINUOUS
 62
           7
100
AcDbLine
 10
-171.518183824697
 20
2164.999999999997
 11
-171.518183824697
 21
2150.0
  0
LINE
  5
345
100
AcDbEntity
  8
1
  6
CONTINUOUS
 62
           7
100
AcDbLine
 10
-171.292174335638
 20
2605.0
 11
-171.292174335636
 21
2164.999999999997
  0
LINE
  5
344
100
AcDbEntity
  8
1
  6
CONTINUOUS
 62
           7
100
AcDbLine
 10
-171.518183824697
 20
2605.0
 11
-171.518183824697
 21
2642.999999999999
  0
LINE
  5
343
100
AcDbEntity
  8
1
  6
CONTINUOUS
 62
           7
100
AcDbLine
 10
-189.72492513283
 20
2605.0
 11
-212.292174335642
 21
2605.0
  0
LINE
  5
342
100
AcDbEntity
  8
1
  6
CONTINUOUS
 62
           7
100
AcDbLine
 10
-181.292174335642
 20
2645.0
 11
-212.292174335642
 21
2645.0
  0
LINE
  5
341
100
AcDbEntity
  8
1
  6
CONTINUOUS
 62
           7
100
AcDbLine
 10
945.681887664965
 20
2605.0
 11
945.681887664965
 21
2165.0
  0
LINE
  5
340
100
AcDbEntity
  8
1
  6
CONTINUOUS
 62
           4
100
AcDbLine
 10
747.707825664356
 20
2643.0
 11
747.707825664356
 21
2643.999999999998
  0
LINE
  5
33F
100
AcDbEntity
  8
1
  6
CONTINUOUS
 62
           4
100
AcDbLine
 10
742.707825664356
 20
2649.0
 11
212.714761928748
 21
2649.0
  0
LINE
  5
33E
100
AcDbEntity
  8
1
  6
CONTINUOUS
 62
           4
100
AcDbLine
 10
747.707825664356
 20
2643.999999999998
 11
742.707825664356
 21
2649.0
  0
LINE
  5
33D
100
AcDbEntity
  8
1
  6
CONTINUOUS
 62
           7
100
AcDbLine
 10
948.246064355981
 20
2165.0
 11
948.246064355981
 21
2150.0
  0
LINE
  5
33C
100
AcDbEntity
  8
1
  6
CONTINUOUS
 62
           7
100
AcDbLine
 10
948.246064355981
 20
2643.0
 11
948.246064355981
 21
2605.0
  0
LINE
  5
33B
100
AcDbEntity
  8
1
  6
CONTINUOUS
 62
           7
100
AcDbLine
 10
-171.518183824697
 20
2642.999999999999
 11
948.246064355981
 21
2643.0
  0
LINE
  5
33A
100
AcDbEntity
  8
1
  6
CONTINUOUS
 62
           2
100
AcDbLine
 10
-99.227069914585
 20
2565.000000000004
 11
-99.227069914585
 21
2205.000000000002
  0
LINE
  5
339
100
AcDbEntity
  8
1
  6
CONTINUOUS
 62
           2
100
AcDbLine
 10
209.165466544855
 20
2565.000000000004
 11
-99.227069914585
 21
2565.000000000004
  0
LINE
  5
338
100
AcDbEntity
  8
1
  6
CONTINUOUS
 62
           2
100
AcDbLine
 10
209.165466544855
 20
2205.000000000002
 11
209.165466544855
 21
2565.000000000004
  0
LINE
  5
337
100
AcDbEntity
  8
1
  6
CONTINUOUS
 62
           2
100
AcDbLine
 10
-99.227069914585
 20
2205.000000000002
 11
209.165466544855
 21
2205.000000000002
  0
LINE
  5
336
100
AcDbEntity
  8
1
  6
CONTINUOUS
 62
           7
100
AcDbLine
 10
955.682415514906
 20
2165.0
 11
840.68368484729
 21
2165.0
  0
LINE
  5
335
100
AcDbEntity
  8
1
  6
CONTINUOUS
 62
           7
100
AcDbLine
 10
955.682415514906
 20
2605.0
 11
-181.29217433564
 21
2605.0
  0
LINE
  5
334
100
AcDbEntity
  8
1
  6
CONTINUOUS
 62
           7
100
AcDbLine
 10
-212.292174335642
 20
2165.0
 11
-189.480366276377
 21
2165.0
  0
LINE
  5
333
100
AcDbEntity
  8
1
  6
CONTINUOUS
 62
           7
100
AcDbLine
 10
-212.292174335642
 20
2645.0
 11
-212.292174335642
 21
2150.0
  0
LINE
  5
332
100
AcDbEntity
  8
1
  6
CONTINUOUS
 62
           4
100
AcDbLine
 10
212.714761928748
 20
2649.0
 11
209.510322719536
 21
2645.8
  0
LINE
  5
331
100
AcDbEntity
  8
1
  6
CONTINUOUS
 62
           7
100
AcDbLine
 10
424.987046277936
 20
2605.0
 11
424.987046277936
 21
2642.999999999999
  0
LINE
  5
330
100
AcDbEntity
  8
1
  6
CONTINUOUS
 62
           7
100
AcDbLine
 10
715.20782566436
 20
2165.0
 11
-181.29217433564
 21
2164.999999999997
  0
LINE
  5
32F
100
AcDbEntity
  8
1
  6
DOT_CENTER
 62
           2
100
AcDbLine
 10
5920.588082276601
 20
2385.0
 11
4685.991794870064
 21
2385.0
  0
LINE
  5
32E
100
AcDbEntity
  8
2
  6
CONTINUOUS
 62
           4
100
AcDbLine
 10
5414.059999999998
 20
2649.0
 11
5414.059999999998
 21
2659.099999999999
  0
LINE
  5
32D
100
AcDbEntity
  8
7
  6
CONTINUOUS
 62
           7
100
AcDbLine
 10
5216.616582399995
 20
2972.483396
 11
5192.022588399996
 21
2954.395737200001
  0
LINE
  5
32C
100
AcDbEntity
  8
7
  6
CONTINUOUS
 62
           7
100
AcDbLine
 10
5309.999999999996
 20
2978.0
 11
5221.479999999996
 21
2978.0
  0
LINE
  5
32B
100
AcDbEntity
  8
7
  6
CONTINUOUS
 62
           7
100
AcDbLine
 10
5184.999999999996
 20
2882.186819200001
 11
5184.999999999996
 21
2915.231865248043
  0
LINE
  5
32A
100
AcDbEntity
  8
7
  6
CONTINUOUS
 62
           7
100
AcDbLine
 10
5434.999999999996
 20
2882.186819200001
 11
5184.999999999996
 21
2882.186819200001
  0
LINE
  5
329
100
AcDbEntity
  8
7
  6
CONTINUOUS
 62
           7
100
AcDbLine
 10
5431.399999999994
 20
2948.360000000002
 11
5434.999999999996
 21
2915.231865248043
  0
LINE
  5
328
100
AcDbEntity
  8
7
  6
CONTINUOUS
 62
           4
100
AcDbLine
 10
5189.809572399998
 20
2952.200000000001
 11
5427.559999999998
 21
2952.200000000001
  0
LINE
  5
327
100
AcDbEntity
  8
7
  6
CONTINUOUS
 62
           7
100
AcDbLine
 10
5400.383416399996
 20
2972.483396
 11
5425.131240799998
 21
2952.634035200001
  0
LINE
  5
326
100
AcDbEntity
  8
7
  6
CONTINUOUS
 62
           7
100
AcDbLine
 10
5309.999999999996
 20
2978.0
 11
5395.519999999997
 21
2978.0
  0
LINE
  5
325
100
AcDbEntity
  8
2
  6
CONTINUOUS
 62
           7
100
AcDbLine
 10
5432.496396799998
 20
2690.900000000002
 11
5419.242370399996
 21
2659.099999999999
  0
LINE
  5
324
100
AcDbEntity
  8
2
  6
CONTINUOUS
 62
           7
100
AcDbLine
 10
5432.496396799998
 20
2690.900000000002
 11
5432.496396799998
 21
2782.150000000002
  0
LINE
  5
323
100
AcDbEntity
  8
2
  6
CONTINUOUS
 62
           7
100
AcDbLine
 10
5432.496396799998
 20
2868.386819200001
 11
5426.744649199995
 21
2882.186819200001
  0
LINE
  5
322
100
AcDbEntity
  8
2
  6
CONTINUOUS
 62
           7
100
AcDbLine
 10
5432.496396799998
 20
2868.386819200001
 11
5432.496396799998
 21
2782.150000000002
  0
LINE
  5
321
100
AcDbEntity
  8
2
  6
CONTINUOUS
 62
           4
100
AcDbLine
 10
5202.939999999995
 20
2659.099999999999
 11
5202.939999999995
 21
2649.0
  0
LINE
  5
320
100
AcDbEntity
  8
2
  6
CONTINUOUS
 62
           7
100
AcDbLine
 10
5184.503603199995
 20
2782.150000000002
 11
5184.503603199995
 21
2868.386819200001
  0
LINE
  5
31F
100
AcDbEntity
  8
2
  6
CONTINUOUS
 62
           7
100
AcDbLine
 10
5190.255350799995
 20
2882.186819200001
 11
5184.503603199995
 21
2868.386819200001
  0
LINE
  5
31E
100
AcDbEntity
  8
2
  6
CONTINUOUS
 62
           7
100
AcDbLine
 10
5184.503603199995
 20
2782.150000000002
 11
5184.503603199995
 21
2690.900000000002
  0
LINE
  5
31D
100
AcDbEntity
  8
2
  6
CONTINUOUS
 62
           7
100
AcDbLine
 10
5197.757629599997
 20
2659.099999999999
 11
5184.503603199995
 21
2690.900000000002
  0
LINE
  5
31C
100
AcDbEntity
  8
1
  6
CONTINUOUS
 62
           4
100
AcDbLine
 10
5434.999999999996
 20
2915.231865248043
 11
5184.999999999996
 21
2915.231865248043
  0
LINE
  5
31B
100
AcDbEntity
  8
7
  6
CONTINUOUS
 62
           7
100
AcDbLine
 10
5184.999999999996
 20
2915.231865248043
 11
5188.6
 21
2948.133628400002
  0
LINE
  5
31A
100
AcDbEntity
  8
7
  6
CONTINUOUS
 62
           7
100
AcDbLine
 10
5434.999999999996
 20
2915.231865248043
 11
5434.999999999996
 21
2882.186819200001
  0
LINE
  5
319
100
AcDbEntity
  8
2
  6
CONTINUOUS
 62
           4
100
AcDbLine
 10
5419.242370399996
 20
2659.099999999999
 11
5197.757629599997
 21
2659.099999999999
  0
LINE
  5
318
100
AcDbEntity
  8
1
  6
CONTINUOUS
 62
           7
100
AcDbLine
 10
5361.499999999996
 20
2716.299999999999
 11
5258.499999999996
 21
2716.299999999999
  0
LINE
  5
317
100
AcDbEntity
  8
1
  6
CONTINUOUS
 62
           7
100
AcDbLine
 10
5258.499999999996
 20
2816.299999999999
 11
5361.499999999996
 21
2816.299999999999
  0
LINE
  5
316
100
AcDbEntity
  8
1
  6
CONTINUOUS
 62
           7
100
AcDbLine
 10
5246.499999999996
 20
2728.299999999999
 11
5246.499999999996
 21
2804.299999999999
  0
LINE
  5
315
100
AcDbEntity
  8
1
  6
CONTINUOUS
 62
           7
100
AcDbLine
 10
5373.499999999996
 20
2804.299999999999
 11
5373.499999999996
 21
2728.299999999999
  0
LINE
  5
314
100
AcDbEntity
  8
1
  6
CONTINUOUS
 62
           7
100
AcDbLine
 10
5235.527778486354
 20
2127.0
 11
4712.268760408311
 21
2127.0
  0
LINE
  5
313
100
AcDbEntity
  8
1
  6
CONTINUOUS
 62
           7
100
AcDbLine
 10
5235.527778486354
 20
2165.0
 11
5235.527778486354
 21
2127.0
  0
LINE
  5
312
100
AcDbEntity
  8
1
  6
CONTINUOUS
 62
           7
100
AcDbLine
 10
5409.999999999996
 20
2165.0
 11
5409.999999999996
 21
2127.0
  0
LINE
  5
311
100
AcDbEntity
  8
1
  6
CONTINUOUS
 62
           7
100
AcDbLine
 10
5684.999999999996
 20
2165.0
 11
5684.999999999996
 21
2127.0
  0
LINE
  5
310
100
AcDbEntity
  8
1
  6
CONTINUOUS
 62
           7
100
AcDbLine
 10
5684.999999999996
 20
2642.700000000001
 11
5684.999999999996
 21
2605.0
  0
LINE
  5
30F
100
AcDbEntity
  8
1
  6
CONTINUOUS
 62
           7
100
AcDbLine
 10
5409.999999999996
 20
2643.0
 11
5776.464466094065
 21
2643.000000000001
  0
LINE
  5
30E
100
AcDbEntity
  8
1
  6
CONTINUOUS
 62
           7
100
AcDbLine
 10
5235.527778486354
 20
2643.0
 11
5235.527778486354
 21
2605.0
  0
LINE
  5
30D
100
AcDbEntity
  8
1
  6
CONTINUOUS
 62
           7
100
AcDbLine
 10
5409.999999999996
 20
2643.0
 11
5409.999999999996
 21
2605.0
  0
LINE
  5
30C
100
AcDbEntity
  8
1
  6
DOT_CENTER
 62
           2
100
AcDbLine
 10
5309.999999999996
 20
2041.288302183321
 11
5309.999999999996
 21
3077.996004786781
  0
LINE
  5
30B
100
AcDbEntity
  8
1
  6
CONTINUOUS
 62
           7
100
AcDbLine
 10
4750.010908476354
 20
2165.0
 11
4750.010908476354
 21
2605.0
  0
LINE
  5
30A
100
AcDbEntity
  8
1
  6
CONTINUOUS
 62
           4
100
AcDbLine
 10
5649.999999999996
 20
2075.0
 11
5649.999999999996
 21
2081.0
  0
LINE
  5
309
100
AcDbEntity
  8
1
  6
CONTINUOUS
 62
           4
100
AcDbLine
 10
4969.999999999996
 20
2081.0
 11
4969.999999999996
 21
2075.0
  0
LINE
  5
308
100
AcDbEntity
  8
1
  6
CONTINUOUS
 62
           7
100
AcDbLine
 10
4969.999999999996
 20
2075.0
 11
5649.999999999996
 21
2075.0
  0
LINE
  5
307
100
AcDbEntity
  8
1
  6
CONTINUOUS
 62
           4
100
AcDbLine
 10
5649.999999999996
 20
2081.0
 11
4969.999999999996
 21
2081.0
  0
LINE
  5
306
100
AcDbEntity
  8
0
  6
CONTINUOUS
 62
           7
100
AcDbLine
 10
5629.999999999996
 20
2164.999999999998
 11
5564.211716344315
 21
2164.999999999998
  0
LINE
  5
305
100
AcDbEntity
  8
0
  6
CONTINUOUS
 62
           7
100
AcDbLine
 10
5011.799999999996
 20
2127.0
 11
5011.799999999996
 21
2081.0
  0
LINE
  5
304
100
AcDbEntity
  8
0
  6
CONTINUOUS
 62
           7
100
AcDbLine
 10
5608.199999999997
 20
2081.0
 11
5608.199999999997
 21
2127.0
  0
LINE
  5
303
100
AcDbEntity
  8
1
  6
CONTINUOUS
 62
           4
100
AcDbLine
 10
5039.999999999996
 20
2643.999999999998
 11
5039.999999999996
 21
2643.0
  0
LINE
  5
302
100
AcDbEntity
  8
1
  6
CONTINUOUS
 62
           4
100
AcDbLine
 10
5574.993063735605
 20
2649.0
 11
5044.999999999996
 21
2649.0
  0
LINE
  5
301
100
AcDbEntity
  8
1
  6
CONTINUOUS
 62
           4
100
AcDbLine
 10
5044.999999999996
 20
2649.0
 11
5039.999999999996
 21
2643.999999999998
  0
LINE
  5
300
100
AcDbEntity
  8
1
  6
CONTINUOUS
 62
           4
100
AcDbLine
 10
5580.0
 20
2643.999999999998
 11
5574.993063735605
 21
2649.0
  0
LINE
  5
2FF
100
AcDbEntity
  8
1
  6
CONTINUOUS
 62
           4
100
AcDbLine
 10
5580.0
 20
2643.0
 11
5580.0
 21
2643.999999999998
  0
LINE
  5
2FE
100
AcDbEntity
  8
1
  6
CONTINUOUS
 62
           7
100
AcDbLine
 10
5779.999999999996
 20
2165.000000000001
 11
4712.268760408315
 21
2165.0
  0
LINE
  5
2FD
100
AcDbEntity
  8
1
  6
CONTINUOUS
 62
           7
100
AcDbLine
 10
5779.999999999996
 20
2605.0
 11
4712.268760408311
 21
2605.0
  0
LINE
  5
2FC
100
AcDbEntity
  8
1
  6
CONTINUOUS
 62
           7
100
AcDbLine
 10
4712.268760408311
 20
2127.0
 11
4712.268760408315
 21
2165.0
  0
LINE
  5
2FB
100
AcDbEntity
  8
1
  6
CONTINUOUS
 62
           7
100
AcDbLine
 10
5779.999999999996
 20
2132.0
 11
5776.464466094065
 21
2127.0
  0
LINE
  5
2FA
100
AcDbEntity
  8
1
  6
CONTINUOUS
 62
           7
100
AcDbLine
 10
5776.464466094065
 20
2643.000000000001
 11
5779.999999999996
 21
2638.0
  0
LINE
  5
2F9
100
AcDbEntity
  8
1
  6
CONTINUOUS
 62
           7
100
AcDbLine
 10
4712.268760408311
 20
2605.0
 11
4712.268760408311
 21
2643.0
  0
LINE
  5
2F8
100
AcDbEntity
  8
1
  6
CONTINUOUS
 62
           7
100
AcDbLine
 10
4712.268760408311
 20
2643.0
 11
5235.527778486354
 21
2643.0
  0
LINE
  5
2F7
100
AcDbEntity
  8
1
  6
CONTINUOUS
 62
           7
100
AcDbLine
 10
5779.999999999996
 20
2638.0
 11
5779.999999999996
 21
2605.0
  0
LINE
  5
2F6
100
AcDbEntity
  8
1
  6
CONTINUOUS
 62
           7
100
AcDbLine
 10
5779.999999999996
 20
2165.000000000001
 11
5779.999999999996
 21
2132.0
  0
LINE
  5
2F5
100
AcDbEntity
  8
1
  6
CONTINUOUS
 62
           7
100
AcDbLine
 10
5776.464466094065
 20
2127.0
 11
5409.999999999996
 21
2127.0
  0
LINE
  5
2F4
100
AcDbEntity
  8
1
  6
CONTINUOUS
 62
           7
100
AcDbLine
 10
5779.999999999996
 20
2165.000000000001
 11
5814.499999999996
 21
2165.0
  0
LINE
  5
2F3
100
AcDbEntity
  8
1
  6
CONTINUOUS
 62
           7
100
AcDbLine
 10
5779.999999999996
 20
2605.0
 11
5779.999999999996
 21
2165.000000000001
  0
LINE
  5
2F2
100
AcDbEntity
  8
1
  6
CONTINUOUS
 62
           4
100
AcDbLine
 10
5815.499999999996
 20
2605.000000000003
 11
5815.499999999996
 21
2165.0
  0
LINE
  5
2F1
100
AcDbEntity
  8
1
  6
CONTINUOUS
 62
           4
100
AcDbLine
 10
5815.499999999996
 20
2125.0
 11
5815.499999999996
 21
2159.500000000001
  0
LINE
  5
2F0
100
AcDbEntity
  8
1
  6
CONTINUOUS
 62
           4
100
AcDbLine
 10
5815.499999999996
 20
2610.500000000003
 11
5815.499999999996
 21
2645.000000000003
  0
LINE
  5
2EF
100
AcDbEntity
  8
1
  6
CONTINUOUS
 62
           7
100
AcDbLine
 10
5814.500000000015
 20
2605.000000000003
 11
5779.999999999996
 21
2605.0
  0
LINE
  5
2EE
100
AcDbEntity
  8
1
  6
CONTINUOUS
 62
           7
100
AcDbLine
 10
5859.999999999996
 20
2605.0
 11
5825.499999999996
 21
2605.000000000003
  0
LINE
  5
2ED
100
AcDbEntity
  8
1
  6
CONTINUOUS
 62
           4
100
AcDbLine
 10
5824.5
 20
2645.000000000003
 11
5824.499999999996
 21
2610.500000000003
  0
LINE
  5
2EC
100
AcDbEntity
  8
1
  6
CONTINUOUS
 62
           4
100
AcDbLine
 10
5824.499999999996
 20
2159.500000000001
 11
5824.5
 21
2125.0
  0
LINE
  5
2EB
100
AcDbEntity
  8
1
  6
CONTINUOUS
 62
           4
100
AcDbLine
 10
5824.499999999996
 20
2165.0
 11
5824.499999999996
 21
2605.000000000003
  0
LINE
  5
2EA
100
AcDbEntity
  8
1
  6
CONTINUOUS
 62
           7
100
AcDbLine
 10
5859.999999999996
 20
2165.000000000001
 11
5859.999999999996
 21
2605.0
  0
LINE
  5
2E9
100
AcDbEntity
  8
1
  6
CONTINUOUS
 62
           7
100
AcDbLine
 10
5825.499999999996
 20
2165.0
 11
5859.999999999996
 21
2165.000000000001
  0
LINE
  5
2E8
100
AcDbEntity
  8
1
  6
CONTINUOUS
 62
           7
100
AcDbLine
 10
5819.999999999996
 20
2125.000000000001
 11
5819.999999999996
 21
2645.000000000003
  0
LINE
  5
2E7
100
AcDbEntity
  8
1
  6
CONTINUOUS
 62
           4
100
AcDbLine
 10
5779.999999999996
 20
2609.5
 11
5814.499999999996
 21
2609.500000000003
  0
LINE
  5
2E6
100
AcDbEntity
  8
1
  6
CONTINUOUS
 62
           7
100
AcDbLine
 10
5779.999999999996
 20
2605.0
 11
5779.999999999996
 21
2609.5
  0
LINE
  5
2E5
100
AcDbEntity
  8
1
  6
CONTINUOUS
 62
           4
100
AcDbLine
 10
5859.999999999996
 20
2609.500000000004
 11
5825.499999999996
 21
2609.500000000003
  0
LINE
  5
2E4
100
AcDbEntity
  8
1
  6
CONTINUOUS
 62
           7
100
AcDbLine
 10
5859.999999999996
 20
2605.0
 11
5859.999999999996
 21
2609.500000000004
  0
LINE
  5
2E3
100
AcDbEntity
  8
1
  6
CONTINUOUS
 62
           4
100
AcDbLine
 10
5815.499999999996
 20
2645.000000000003
 11
5824.5
 21
2645.000000000003
  0
LINE
  5
2E2
100
AcDbEntity
  8
1
  6
CONTINUOUS
 62
           7
100
AcDbLine
 10
5825.499999999996
 20
2605.000000000003
 11
5814.500000000015
 21
2605.000000000003
  0
LINE
  5
2E1
100
AcDbEntity
  8
1
  6
CONTINUOUS
 62
           4
100
AcDbLine
 10
5815.499999999996
 20
2125.0
 11
5824.5
 21
2125.0
  0
LINE
  5
2E0
100
AcDbEntity
  8
1
  6
CONTINUOUS
 62
           7
100
AcDbLine
 10
5779.999999999996
 20
2160.5
 11
5779.999999999996
 21
2165.000000000001
  0
LINE
  5
2DF
100
AcDbEntity
  8
1
  6
CONTINUOUS
 62
           4
100
AcDbLine
 10
5859.999999999996
 20
2160.500000000001
 11
5825.499999999996
 21
2160.500000000001
  0
LINE
  5
2DE
100
AcDbEntity
  8
1
  6
CONTINUOUS
 62
           7
100
AcDbLine
 10
5859.999999999996
 20
2165.000000000001
 11
5859.999999999996
 21
2160.500000000001
  0
LINE
  5
2DD
100
AcDbEntity
  8
1
  6
CONTINUOUS
 62
           4
100
AcDbLine
 10
5814.499999999996
 20
2160.500000000001
 11
5779.999999999996
 21
2160.5
  0
LINE
  5
2DC
100
AcDbEntity
  8
1
  6
CONTINUOUS
 62
           7
100
AcDbLine
 10
5825.499999999996
 20
2165.0
 11
5814.499999999996
 21
2165.0
  0
LINE
  5
2DB
100
AcDbEntity
  8
1
  6
CONTINUOUS
 62
           2
100
AcDbLine
 10
5462.532262743702
 20
2205.0
 11
5462.532262743702
 21
2565.0
  0
LINE
  5
2DA
100
AcDbEntity
  8
1
  6
CONTINUOUS
 62
           2
100
AcDbLine
 10
5462.532262743702
 20
2565.0
 11
5055.319562772416
 21
2565.0
  0
LINE
  5
2D9
100
AcDbEntity
  8
1
  6
CONTINUOUS
 62
           2
100
AcDbLine
 10
5055.319562772416
 20
2565.0
 11
5055.319562772416
 21
2205.0
  0
LINE
  5
2D8
100
AcDbEntity
  8
1
  6
CONTINUOUS
 62
           2
100
AcDbLine
 10
5055.319562772416
 20
2205.0
 11
5462.532262743702
 21
2205.0
  0
LINE
  5
2D7
100
AcDbEntity
  8
1
  6
CONTINUOUS
 62
           3
100
AcDbLine
 10
5167.5
 20
1921.000000000003
 11
5019.899998122324
 21
1921.000000000003
  0
LINE
  5
2D6
100
AcDbEntity
  8
1
  6
CONTINUOUS
 62
           3
100
AcDbLine
 10
5167.5
 20
1929.000000000002
 11
5019.899996810931
 21
1929.000000000002
  0
LINE
  5
2D5
100
AcDbEntity
  8
0
  6
CONTINUOUS
 62
           3
100
AcDbLine
 10
4639.899996632412
 20
1314.999997615958
 11
4639.899996632412
 21
1364.999994635818
  0
LINE
  5
2D4
100
AcDbEntity
  8
0
  6
CONTINUOUS
 62
           3
100
AcDbLine
 10
4680.126493853972
 20
1355.446577072225
 11
4680.899996833472
 21
1355.000004172323
  0
LINE
  5
2D3
100
AcDbEntity
  8
0
  6
CONTINUOUS
 62
           3
100
AcDbLine
 10
4690.899996609864
 20
1355.000004172323
 11
4691.673499589364
 21
1355.446577072225
  0
LINE
  5
2D2
100
AcDbEntity
  8
0
  6
CONTINUOUS
 62
           3
100
AcDbLine
 10
4680.899996833472
 20
1359.999999403924
 11
4680.126493853972
 21
1359.553411603023
  0
LINE
  5
2D1
100
AcDbEntity
  8
0
  6
CONTINUOUS
 62
           3
100
AcDbLine
 10
4691.673499589364
 20
1359.553411603023
 11
4690.899996609864
 21
1359.999999403924
  0
LINE
  5
2D0
100
AcDbEntity
  8
0
  6
CONTINUOUS
 62
           3
100
AcDbLine
 10
4680.899996833472
 20
1364.999994635818
 11
4680.126493853972
 21
1364.553421735918
  0
LINE
  5
2CF
100
AcDbEntity
  8
0
  6
CONTINUOUS
 62
           3
100
AcDbLine
 10
4691.673499589364
 20
1364.553421735918
 11
4690.899996609864
 21
1364.999994635818
  0
LINE
  5
2CE
100
AcDbEntity
  8
0
  6
CONTINUOUS
 62
           3
100
AcDbLine
 10
4690.899996609864
 20
1359.999999403924
 11
4691.673499589364
 21
1360.446587205124
  0
LINE
  5
2CD
100
AcDbEntity
  8
0
  6
CONTINUOUS
 62
           3
100
AcDbLine
 10
4680.126493853972
 20
1360.446587205124
 11
4680.899996833472
 21
1359.999999403924
  0
LINE
  5
2CC
100
AcDbEntity
  8
0
  6
CONTINUOUS
 62
           3
100
AcDbLine
 10
4680.899996833472
 20
1377.599999308606
 11
4680.126493853972
 21
1377.153418958207
  0
LINE
  5
2CB
100
AcDbEntity
  8
0
  6
CONTINUOUS
 62
           3
100
AcDbLine
 10
4691.673499589364
 20
1377.153418958207
 11
4690.899996609864
 21
1377.599999308606
  0
LINE
  5
2CA
100
AcDbEntity
  8
0
  6
CONTINUOUS
 62
           3
100
AcDbLine
 10
4690.899996609864
 20
1372.600004077011
 11
4691.673499589364
 21
1373.046576976914
  0
LINE
  5
2C9
100
AcDbEntity
  8
0
  6
CONTINUOUS
 62
           3
100
AcDbLine
 10
4680.126493853972
 20
1373.046576976914
 11
4680.899996833472
 21
1372.600004077011
  0
LINE
  5
2C8
100
AcDbEntity
  8
0
  6
CONTINUOUS
 62
           3
100
AcDbLine
 10
4680.899996833472
 20
1372.600004077011
 11
4680.126493853972
 21
1372.153416276111
  0
LINE
  5
2C7
100
AcDbEntity
  8
0
  6
CONTINUOUS
 62
           3
100
AcDbLine
 10
4691.673499589364
 20
1372.153416276111
 11
4690.899996609864
 21
1372.600004077011
  0
LINE
  5
2C6
100
AcDbEntity
  8
0
  6
CONTINUOUS
 62
           3
100
AcDbLine
 10
4690.899996609864
 20
1367.599993944114
 11
4691.673499589364
 21
1368.046581745314
  0
LINE
  5
2C5
100
AcDbEntity
  8
0
  6
CONTINUOUS
 62
           3
100
AcDbLine
 10
4680.126493853972
 20
1368.046581745314
 11
4680.899996833472
 21
1367.599993944114
  0
LINE
  5
2C4
100
AcDbEntity
  8
0
  6
CONTINUOUS
 62
           3
100
AcDbLine
 10
4731.899996810931
 20
1641.000000000002
 11
4731.899996810931
 21
1635.000005364198
  0
LINE
  5
2C3
100
AcDbEntity
  8
0
  6
CONTINUOUS
 62
           3
100
AcDbLine
 10
4731.899996810931
 20
1633.399993180999
 11
4731.899996810931
 21
1550.000000744965
  0
LINE
  5
2C2
100
AcDbEntity
  8
0
  6
CONTINUOUS
 62
           3
100
AcDbLine
 10
4731.899996810931
 20
1548.799999058067
 11
4731.899996810931
 21
1391.199998557595
  0
LINE
  5
2C1
100
AcDbEntity
  8
0
  6
CONTINUOUS
 62
           3
100
AcDbLine
 10
4731.899996810931
 20
1390.000000596099
 11
4731.899996810931
 21
1366.600006818715
  0
LINE
  5
2C0
100
AcDbEntity
  8
0
  6
CONTINUOUS
 62
           3
100
AcDbLine
 10
4731.899996810931
 20
1364.999994635818
 11
4731.899996810931
 21
1314.999997615958
  0
LINE
  5
2BF
100
AcDbEntity
  8
0
  6
CONTINUOUS
 62
           3
100
AcDbLine
 10
4739.899998122325
 20
1314.999997615958
 11
4739.899998122325
 21
1364.999994635818
  0
LINE
  5
2BE
100
AcDbEntity
  8
0
  6
CONTINUOUS
 62
           3
100
AcDbLine
 10
4739.899998122325
 20
1366.600006818715
 11
4739.899998122325
 21
1390.000000596099
  0
LINE
  5
2BD
100
AcDbEntity
  8
0
  6
CONTINUOUS
 62
           3
100
AcDbLine
 10
4739.899998122325
 20
1391.199998557595
 11
4739.899998122325
 21
1548.799999058067
  0
LINE
  5
2BC
100
AcDbEntity
  8
0
  6
CONTINUOUS
 62
           3
100
AcDbLine
 10
4739.899998122325
 20
1550.000000744965
 11
4739.899998122325
 21
1633.399993180999
  0
LINE
  5
2BB
100
AcDbEntity
  8
0
  6
CONTINUOUS
 62
           3
100
AcDbLine
 10
4739.899998122325
 20
1635.000005364198
 11
4739.899998122325
 21
1641.000000000003
  0
LINE
  5
2BA
100
AcDbEntity
  8
0
  6
CONTINUOUS
 62
           3
100
AcDbLine
 10
4631.899995321012
 20
1665.000006556371
 11
4631.899995321012
 21
1635.000005364198
  0
LINE
  5
2B9
100
AcDbEntity
  8
0
  6
CONTINUOUS
 62
           3
100
AcDbLine
 10
4631.899995321012
 20
1633.399993180999
 11
4631.899995321012
 21
1550.000000744965
  0
LINE
  5
2B8
100
AcDbEntity
  8
0
  6
CONTINUOUS
 62
           3
100
AcDbLine
 10
4631.899995321012
 20
1548.799999058067
 11
4631.899995321012
 21
1391.199998557595
  0
LINE
  5
2B7
100
AcDbEntity
  8
0
  6
CONTINUOUS
 62
           3
100
AcDbLine
 10
4631.899995321012
 20
1390.000000596099
 11
4631.899995321012
 21
1366.600006818715
  0
LINE
  5
2B6
100
AcDbEntity
  8
0
  6
CONTINUOUS
 62
           3
100
AcDbLine
 10
4631.899995321012
 20
1364.999994635818
 11
4631.899995321012
 21
1314.999997615958
  0
LINE
  5
2B5
100
AcDbEntity
  8
0
  6
CONTINUOUS
 62
           3
100
AcDbLine
 10
4639.899996632412
 20
1366.600006818715
 11
4639.899996632412
 21
1390.000000596099
  0
LINE
  5
2B4
100
AcDbEntity
  8
0
  6
CONTINUOUS
 62
           3
100
AcDbLine
 10
4639.899996632412
 20
1391.199998557595
 11
4639.899996632412
 21
1548.799999058067
  0
LINE
  5
2B3
100
AcDbEntity
  8
0
  6
CONTINUOUS
 62
           3
100
AcDbLine
 10
4639.899996632412
 20
1550.000000744965
 11
4639.899996632412
 21
1633.399993180999
  0
LINE
  5
2B2
100
AcDbEntity
  8
0
  6
CONTINUOUS
 62
           3
100
AcDbLine
 10
4639.899996632412
 20
1635.000005364198
 11
4639.899996632412
 21
1665.000006556371
  0
LINE
  5
2B1
100
AcDbEntity
  8
0
  6
CONTINUOUS
 62
           3
100
AcDbLine
 10
4688.899996747762
 20
1366.600006818715
 11
4688.899996747762
 21
1367.599993944114
  0
LINE
  5
2B0
100
AcDbEntity
  8
0
  6
CONTINUOUS
 62
           3
100
AcDbLine
 10
4688.899996747762
 20
1377.599999308606
 11
4688.899996747762
 21
1384.199999272903
  0
LINE
  5
2AF
100
AcDbEntity
  8
0
  6
CONTINUOUS
 62
           3
100
AcDbLine
 10
4688.899996747762
 20
1390.000000596099
 11
4688.899996747762
 21
1392.957426607596
  0
LINE
  5
2AE
100
AcDbEntity
  8
0
  6
CONTINUOUS
 62
           3
100
AcDbLine
 10
4688.899996747762
 20
1394.792847335493
 11
4688.899996747762
 21
1633.399993180999
  0
LINE
  5
2AD
100
AcDbEntity
  8
0
  6
CONTINUOUS
 62
           3
100
AcDbLine
 10
4688.899996747762
 20
1635.000005364198
 11
4688.899996747762
 21
1637.422651052295
  0
LINE
  5
2AC
100
AcDbEntity
  8
0
  6
CONTINUOUS
 62
           3
100
AcDbLine
 10
4682.899996695575
 20
1637.422651052295
 11
4682.899996695575
 21
1635.000005364198
  0
LINE
  5
2AB
100
AcDbEntity
  8
0
  6
CONTINUOUS
 62
           3
100
AcDbLine
 10
4682.899996695575
 20
1633.399993180999
 11
4682.899996695575
 21
1394.792847335493
  0
LINE
  5
2AA
100
AcDbEntity
  8
0
  6
CONTINUOUS
 62
           3
100
AcDbLine
 10
4682.899996695575
 20
1392.957426607596
 11
4682.899996695575
 21
1390.000000596099
  0
LINE
  5
2A9
100
AcDbEntity
  8
0
  6
CONTINUOUS
 62
           3
100
AcDbLine
 10
4682.899996695575
 20
1384.199999272903
 11
4682.899996695575
 21
1377.599999308606
  0
LINE
  5
2A8
100
AcDbEntity
  8
0
  6
CONTINUOUS
 62
           3
100
AcDbLine
 10
4682.899996695575
 20
1367.599993944114
 11
4682.899996695575
 21
1366.600006818715
  0
LINE
  5
2A7
100
AcDbEntity
  8
0
  6
CONTINUOUS
 62
           3
100
AcDbLine
 10
4688.899996747762
 20
1637.422651052295
 11
4687.899996816559
 21
1638.422653078995
  0
LINE
  5
2A6
100
AcDbEntity
  8
0
  6
CONTINUOUS
 62
           3
100
AcDbLine
 10
4683.899996626773
 20
1638.422653078995
 11
4682.899996695575
 21
1637.422651052295
  0
LINE
  5
2A5
100
AcDbEntity
  8
0
  6
CONTINUOUS
 62
           3
100
AcDbLine
 10
4682.399996613575
 20
1394.799999892894
 11
4677.899996341774
 21
1394.799999892894
  0
LINE
  5
2A4
100
AcDbEntity
  8
0
  6
CONTINUOUS
 62
           3
100
AcDbLine
 10
4693.899997101562
 20
1394.799999892894
 11
4689.399996829762
 21
1394.799999892894
  0
LINE
  5
2A3
100
AcDbEntity
  8
0
  6
CONTINUOUS
 62
           3
100
AcDbLine
 10
4679.426494029871
 20
1389.099999999997
 11
4692.373499413461
 21
1389.099999999997
  0
LINE
  5
2A2
100
AcDbEntity
  8
0
  6
CONTINUOUS
 62
           3
100
AcDbLine
 10
4628.899996692009
 20
1393.799997866197
 11
4631.899995321012
 21
1393.799997866197
  0
LINE
  5
2A1
100
AcDbEntity
  8
0
  6
CONTINUOUS
 62
           3
100
AcDbLine
 10
4639.899996632412
 20
1393.799997866197
 11
4677.899996341774
 21
1393.799997866197
  0
LINE
  5
2A0
100
AcDbEntity
  8
0
  6
CONTINUOUS
 62
           3
100
AcDbLine
 10
4693.899997101562
 20
1393.799997866197
 11
4731.899996810931
 21
1393.799997866197
  0
LINE
  5
29F
100
AcDbEntity
  8
0
  6
CONTINUOUS
 62
           3
100
AcDbLine
 10
4739.899998122325
 20
1393.799997866197
 11
4742.899996751323
 21
1393.799997866197
  0
LINE
  5
29E
100
AcDbEntity
  8
0
  6
CONTINUOUS
 62
           3
100
AcDbLine
 10
4628.899996692009
 20
1543.80000010137
 11
4628.899996692009
 21
1393.799997866197
  0
LINE
  5
29D
100
AcDbEntity
  8
0
  6
CONTINUOUS
 62
           3
100
AcDbLine
 10
4742.899996751323
 20
1543.80000010137
 11
4739.899998122325
 21
1543.80000010137
  0
LINE
  5
29C
100
AcDbEntity
  8
0
  6
CONTINUOUS
 62
           3
100
AcDbLine
 10
4731.899996810931
 20
1543.80000010137
 11
4688.899996747762
 21
1543.80000010137
  0
LINE
  5
29B
100
AcDbEntity
  8
0
  6
CONTINUOUS
 62
           3
100
AcDbLine
 10
4682.899996695575
 20
1543.80000010137
 11
4639.899996632412
 21
1543.80000010137
  0
LINE
  5
29A
100
AcDbEntity
  8
0
  6
CONTINUOUS
 62
           3
100
AcDbLine
 10
4631.899995321012
 20
1543.80000010137
 11
4628.899996692009
 21
1543.80000010137
  0
LINE
  5
299
100
AcDbEntity
  8
0
  6
CONTINUOUS
 62
           3
100
AcDbLine
 10
4742.899996751323
 20
1393.799997866197
 11
4742.899996751323
 21
1543.80000010137
  0
LINE
  5
298
100
AcDbEntity
  8
0
  6
CONTINUOUS
 62
           3
100
AcDbLine
 10
4688.786748155362
 20
1355.446577072225
 11
4688.786748155501
 21
1359.553411603069
  0
LINE
  5
297
100
AcDbEntity
  8
0
  6
CONTINUOUS
 62
           3
100
AcDbLine
 10
4688.786748155362
 20
1355.446577072225
 11
4685.899996721674
 21
1355.000004172323
  0
LINE
  5
296
100
AcDbEntity
  8
0
  6
CONTINUOUS
 62
           3
100
AcDbLine
 10
4683.013245287843
 20
1355.446577072245
 11
4683.01324528797
 21
1359.553411603023
  0
LINE
  5
295
100
AcDbEntity
  8
0
  6
CONTINUOUS
 62
           3
100
AcDbLine
 10
4683.01324528797
 20
1359.553411603023
 11
4685.899996721674
 21
1359.99999940405
  0
LINE
  5
294
100
AcDbEntity
  8
0
  6
CONTINUOUS
 62
           3
100
AcDbLine
 10
4685.899996721674
 20
1355.000004172323
 11
4690.230123756003
 21
1355.000004172423
  0
LINE
  5
293
100
AcDbEntity
  8
0
  6
CONTINUOUS
 62
           3
100
AcDbLine
 10
4681.569869687345
 20
1355.000004172423
 11
4685.899996721674
 21
1355.000004172323
  0
LINE
  5
292
100
AcDbEntity
  8
0
  6
CONTINUOUS
 62
           3
100
AcDbLine
 10
4681.569869687345
 20
1359.99999940405
 11
4685.899996721674
 21
1359.99999940405
  0
LINE
  5
291
100
AcDbEntity
  8
0
  6
CONTINUOUS
 62
           3
100
AcDbLine
 10
4688.786748155501
 20
1359.553411603069
 11
4690.230123755963
 21
1359.999999403924
  0
LINE
  5
290
100
AcDbEntity
  8
0
  6
CONTINUOUS
 62
           3
100
AcDbLine
 10
4685.899996721674
 20
1359.99999940405
 11
4690.230123755963
 21
1359.999999403924
  0
LINE
  5
28F
100
AcDbEntity
  8
0
  6
CONTINUOUS
 62
           3
100
AcDbLine
 10
4680.126493853972
 20
1355.446577072225
 11
4680.126493853972
 21
1359.553411603023
  0
LINE
  5
28E
100
AcDbEntity
  8
0
  6
CONTINUOUS
 62
           3
100
AcDbLine
 10
4691.673499589364
 20
1355.446577072225
 11
4691.673499589364
 21
1359.553411603023
  0
LINE
  5
28D
100
AcDbEntity
  8
0
  6
CONTINUOUS
 62
           3
100
AcDbLine
 10
4691.673499589364
 20
1355.446577072225
 11
4690.230123756003
 21
1355.000004172423
  0
LINE
  5
28C
100
AcDbEntity
  8
0
  6
CONTINUOUS
 62
           3
100
AcDbLine
 10
4680.899996833472
 20
1355.000004172323
 11
4681.569869687345
 21
1355.000004172423
  0
LINE
  5
28B
100
AcDbEntity
  8
0
  6
CONTINUOUS
 62
           3
100
AcDbLine
 10
4690.899996609864
 20
1355.000004172323
 11
4690.230123756003
 21
1355.000004172423
  0
LINE
  5
28A
100
AcDbEntity
  8
0
  6
CONTINUOUS
 62
           3
100
AcDbLine
 10
4680.899996833472
 20
1359.999999403924
 11
4681.569869687345
 21
1359.99999940405
  0
LINE
  5
289
100
AcDbEntity
  8
0
  6
CONTINUOUS
 62
           3
100
AcDbLine
 10
4688.786748155501
 20
1364.55342173586
 11
4688.786748155362
 21
1360.446587205124
  0
LINE
  5
288
100
AcDbEntity
  8
0
  6
CONTINUOUS
 62
           3
100
AcDbLine
 10
4683.013245287843
 20
1364.55342173586
 11
4683.013245287843
 21
1360.446587205026
  0
LINE
  5
287
100
AcDbEntity
  8
0
  6
CONTINUOUS
 62
           3
100
AcDbLine
 10
4691.673499589364
 20
1364.553421735918
 11
4690.230123756003
 21
1364.999994635675
  0
LINE
  5
286
100
AcDbEntity
  8
0
  6
CONTINUOUS
 62
           3
100
AcDbLine
 10
4691.673499589364
 20
1364.553421735918
 11
4691.673499589364
 21
1360.446587205124
  0
LINE
  5
285
100
AcDbEntity
  8
0
  6
CONTINUOUS
 62
           3
100
AcDbLine
 10
4688.786748155362
 20
1360.446587205124
 11
4690.230123755963
 21
1359.999999403924
  0
LINE
  5
284
100
AcDbEntity
  8
0
  6
CONTINUOUS
 62
           3
100
AcDbLine
 10
4683.013245287843
 20
1364.55342173586
 11
4681.569869687345
 21
1364.999994635675
  0
LINE
  5
283
100
AcDbEntity
  8
0
  6
CONTINUOUS
 62
           3
100
AcDbLine
 10
4680.126493853972
 20
1360.446587205124
 11
4681.569869687345
 21
1359.99999940405
  0
LINE
  5
282
100
AcDbEntity
  8
0
  6
CONTINUOUS
 62
           3
100
AcDbLine
 10
4680.126493853972
 20
1364.553421735918
 11
4680.126493853972
 21
1360.446587205124
  0
LINE
  5
281
100
AcDbEntity
  8
0
  6
CONTINUOUS
 62
           3
100
AcDbLine
 10
4688.786748155501
 20
1377.153418958269
 11
4688.786748155362
 21
1373.046576976914
  0
LINE
  5
280
100
AcDbEntity
  8
0
  6
CONTINUOUS
 62
           3
100
AcDbLine
 10
4683.013245287843
 20
1377.153418958269
 11
4683.013245287843
 21
1373.046576976863
  0
LINE
  5
27F
100
AcDbEntity
  8
0
  6
CONTINUOUS
 62
           3
100
AcDbLine
 10
4691.673499589364
 20
1377.153418958207
 11
4690.230123756003
 21
1377.599999308668
  0
LINE
  5
27E
100
AcDbEntity
  8
0
  6
CONTINUOUS
 62
           3
100
AcDbLine
 10
4691.673499589364
 20
1377.153418958207
 11
4691.673499589364
 21
1373.046576976914
  0
LINE
  5
27D
100
AcDbEntity
  8
0
  6
CONTINUOUS
 62
           3
100
AcDbLine
 10
4688.786748155362
 20
1373.046576976914
 11
4690.230123756003
 21
1372.600004077043
  0
LINE
  5
27C
100
AcDbEntity
  8
0
  6
CONTINUOUS
 62
           3
100
AcDbLine
 10
4690.230123756003
 20
1377.599999308668
 11
4685.899996721674
 21
1377.599999308668
  0
LINE
  5
27B
100
AcDbEntity
  8
0
  6
CONTINUOUS
 62
           3
100
AcDbLine
 10
4683.013245287843
 20
1377.153418958269
 11
4681.569869687345
 21
1377.599999308668
  0
LINE
  5
27A
100
AcDbEntity
  8
0
  6
CONTINUOUS
 62
           3
100
AcDbLine
 10
4680.126493853972
 20
1373.046576976914
 11
4681.569869687345
 21
1372.600004077043
  0
LINE
  5
279
100
AcDbEntity
  8
0
  6
CONTINUOUS
 62
           3
100
AcDbLine
 10
4680.126493853972
 20
1377.153418958207
 11
4680.126493853972
 21
1373.046576976914
  0
LINE
  5
278
100
AcDbEntity
  8
0
  6
CONTINUOUS
 62
           3
100
AcDbLine
 10
4685.899996721674
 20
1377.599999308668
 11
4681.569869687345
 21
1377.599999308668
  0
LINE
  5
277
100
AcDbEntity
  8
0
  6
CONTINUOUS
 62
           3
100
AcDbLine
 10
4690.230123756003
 20
1372.600004077043
 11
4685.899996721674
 21
1372.600004077043
  0
LINE
  5
276
100
AcDbEntity
  8
0
  6
CONTINUOUS
 62
           3
100
AcDbLine
 10
4685.899996721674
 20
1372.600004077043
 11
4681.569869687345
 21
1372.600004077043
  0
LINE
  5
275
100
AcDbEntity
  8
0
  6
CONTINUOUS
 62
           3
100
AcDbLine
 10
4681.569869687345
 20
1377.599999308668
 11
4680.899996833472
 21
1377.599999308606
  0
LINE
  5
274
100
AcDbEntity
  8
0
  6
CONTINUOUS
 62
           3
100
AcDbLine
 10
4690.899996609864
 20
1377.599999308606
 11
4690.230123756003
 21
1377.599999308668
  0
LINE
  5
273
100
AcDbEntity
  8
0
  6
CONTINUOUS
 62
           3
100
AcDbLine
 10
4690.899996609864
 20
1372.600004077011
 11
4690.230123756003
 21
1372.600004077043
  0
LINE
  5
272
100
AcDbEntity
  8
0
  6
CONTINUOUS
 62
           3
100
AcDbLine
 10
4688.786748155501
 20
1372.153416276065
 11
4688.786748155362
 21
1368.046581745314
  0
LINE
  5
271
100
AcDbEntity
  8
0
  6
CONTINUOUS
 62
           3
100
AcDbLine
 10
4683.013245287843
 20
1372.153416276065
 11
4683.013245287843
 21
1368.046581745237
  0
LINE
  5
270
100
AcDbEntity
  8
0
  6
CONTINUOUS
 62
           3
100
AcDbLine
 10
4691.673499589364
 20
1372.153416276111
 11
4690.230123756003
 21
1372.600004077043
  0
LINE
  5
26F
100
AcDbEntity
  8
0
  6
CONTINUOUS
 62
           3
100
AcDbLine
 10
4691.673499589364
 20
1372.153416276111
 11
4691.673499589364
 21
1368.046581745314
  0
LINE
  5
26E
100
AcDbEntity
  8
0
  6
CONTINUOUS
 62
           3
100
AcDbLine
 10
4688.786748155362
 20
1368.046581745314
 11
4690.230123756003
 21
1367.599993944258
  0
LINE
  5
26D
100
AcDbEntity
  8
0
  6
CONTINUOUS
 62
           3
100
AcDbLine
 10
4683.013245287843
 20
1372.153416276065
 11
4681.569869687345
 21
1372.600004077043
  0
LINE
  5
26C
100
AcDbEntity
  8
0
  6
CONTINUOUS
 62
           3
100
AcDbLine
 10
4680.126493853972
 20
1368.046581745314
 11
4681.569869687345
 21
1367.599993944258
  0
LINE
  5
26B
100
AcDbEntity
  8
0
  6
CONTINUOUS
 62
           3
100
AcDbLine
 10
4680.126493853972
 20
1372.153416276111
 11
4680.126493853972
 21
1368.046581745314
  0
LINE
  5
26A
100
AcDbEntity
  8
0
  6
CONTINUOUS
 62
           3
100
AcDbLine
 10
4685.899996721674
 20
1367.599993944258
 11
4681.569869687345
 21
1367.599993944258
  0
LINE
  5
269
100
AcDbEntity
  8
0
  6
CONTINUOUS
 62
           3
100
AcDbLine
 10
4690.230123756003
 20
1367.599993944258
 11
4685.899996721674
 21
1367.599993944258
  0
LINE
  5
268
100
AcDbEntity
  8
0
  6
CONTINUOUS
 62
           3
100
AcDbLine
 10
4681.569869687345
 20
1372.600004077043
 11
4680.899996833472
 21
1372.600004077011
  0
LINE
  5
267
100
AcDbEntity
  8
0
  6
CONTINUOUS
 62
           3
100
AcDbLine
 10
4690.899996609864
 20
1367.599993944114
 11
4690.230123756003
 21
1367.599993944258
  0
LINE
  5
266
100
AcDbEntity
  8
0
  6
CONTINUOUS
 62
           3
100
AcDbLine
 10
4681.569869687345
 20
1367.599993944258
 11
4680.899996833472
 21
1367.599993944114
  0
LINE
  5
265
100
AcDbEntity
  8
0
  6
CONTINUOUS
 62
           3
100
AcDbLine
 10
4635.89999597671
 20
1665.000006556371
 11
4639.899996632412
 21
1665.000006556371
  0
LINE
  5
264
100
AcDbEntity
  8
0
  6
CONTINUOUS
 62
           3
100
AcDbLine
 10
4631.899995321012
 20
1665.000006556371
 11
4635.89999597671
 21
1665.000006556371
  0
LINE
  5
263
100
AcDbEntity
  8
0
  6
CONTINUOUS
 62
           3
100
AcDbLine
 10
4682.899996695575
 20
1637.422651052295
 11
4688.899996747762
 21
1637.422651052295
  0
LINE
  5
262
100
AcDbEntity
  8
0
  6
CONTINUOUS
 62
           3
100
AcDbLine
 10
4687.899996816559
 20
1638.422653078995
 11
4683.899996626773
 21
1638.422653078995
  0
LINE
  5
261
100
AcDbEntity
  8
0
  6
CONTINUOUS
 62
           3
100
AcDbLine
 10
4693.899997101562
 20
1389.200001954998
 11
4689.399996829762
 21
1389.200001954998
  0
LINE
  5
260
100
AcDbEntity
  8
0
  6
CONTINUOUS
 62
           3
100
AcDbLine
 10
4682.399996613575
 20
1394.792847335493
 11
4689.399996829762
 21
1394.792847335493
  0
LINE
  5
25F
100
AcDbEntity
  8
0
  6
CONTINUOUS
 62
           3
100
AcDbLine
 10
4682.399996613575
 20
1389.200001954998
 11
4677.899996341774
 21
1389.200001954998
  0
LINE
  5
25E
100
AcDbEntity
  8
0
  6
CONTINUOUS
 62
           3
100
AcDbLine
 10
4689.399996829762
 20
1394.799999892894
 11
4689.399996829762
 21
1389.200001954998
  0
LINE
  5
25D
100
AcDbEntity
  8
0
  6
CONTINUOUS
 62
           3
100
AcDbLine
 10
4682.399996613575
 20
1389.200001954998
 11
4682.399996613575
 21
1394.799999892894
  0
LINE
  5
25C
100
AcDbEntity
  8
0
  6
CONTINUOUS
 62
           3
100
AcDbLine
 10
4677.899996341774
 20
1394.799999892894
 11
4677.899996341774
 21
1389.200001954998
  0
LINE
  5
25B
100
AcDbEntity
  8
0
  6
CONTINUOUS
 62
           3
100
AcDbLine
 10
4693.899997101562
 20
1394.799999892894
 11
4693.899997101562
 21
1389.200001954998
  0
LINE
  5
25A
100
AcDbEntity
  8
0
  6
CONTINUOUS
 62
           3
100
AcDbLine
 10
4689.399996829762
 20
1392.246469855296
 11
4688.899996747762
 21
1392.246469855296
  0
LINE
  5
259
100
AcDbEntity
  8
0
  6
CONTINUOUS
 62
           3
100
AcDbLine
 10
4682.899996695575
 20
1392.246469855296
 11
4682.399996613575
 21
1392.246469855296
  0
LINE
  5
258
100
AcDbEntity
  8
0
  6
CONTINUOUS
 62
           3
100
AcDbLine
 10
4689.399996829762
 20
1393.990144133494
 11
4682.399996613575
 21
1393.990144133494
  0
LINE
  5
257
100
AcDbEntity
  8
0
  6
CONTINUOUS
 62
           3
100
AcDbLine
 10
4682.399996613575
 20
1390.000000596099
 11
4689.399996829762
 21
1390.000000596099
  0
LINE
  5
256
100
AcDbEntity
  8
0
  6
CONTINUOUS
 62
           3
100
AcDbLine
 10
4682.399996613575
 20
1389.200001954998
 11
4689.399996829762
 21
1389.200001954998
  0
LINE
  5
255
100
AcDbEntity
  8
0
  6
CONTINUOUS
 62
           3
100
AcDbLine
 10
4685.899996721674
 20
1384.646579623297
 11
4688.399996665761
 21
1384.199999272903
  0
LINE
  5
254
100
AcDbEntity
  8
0
  6
CONTINUOUS
 62
           3
100
AcDbLine
 10
4683.399996777553
 20
1384.199999272903
 11
4688.399996665761
 21
1384.199999272903
  0
LINE
  5
253
100
AcDbEntity
  8
0
  6
CONTINUOUS
 62
           3
100
AcDbLine
 10
4685.899996721674
 20
1384.646579623297
 11
4685.899996721674
 21
1389.100000262197
  0
LINE
  5
252
100
AcDbEntity
  8
0
  6
CONTINUOUS
 62
           3
100
AcDbLine
 10
4680.899996833472
 20
1384.646579623304
 11
4683.399996777553
 21
1384.199999272903
  0
LINE
  5
251
100
AcDbEntity
  8
0
  6
CONTINUOUS
 62
           3
100
AcDbLine
 10
4680.899996833472
 20
1384.646579623304
 11
4680.899996833472
 21
1389.100000262197
  0
LINE
  5
250
100
AcDbEntity
  8
0
  6
CONTINUOUS
 62
           3
100
AcDbLine
 10
4690.899996609864
 20
1384.646579623304
 11
4690.899996609864
 21
1389.100000262197
  0
LINE
  5
24F
100
AcDbEntity
  8
0
  6
CONTINUOUS
 62
           3
100
AcDbLine
 10
4680.899996833432
 20
1384.199999272903
 11
4683.399996777553
 21
1384.199999272903
  0
LINE
  5
24E
100
AcDbEntity
  8
0
  6
CONTINUOUS
 62
           3
100
AcDbLine
 10
4688.399996665761
 20
1384.199999272903
 11
4690.899996609911
 21
1384.199999272903
  0
LINE
  5
24D
100
AcDbEntity
  8
0
  6
CONTINUOUS
 62
           3
100
AcDbLine
 10
4693.899997101562
 20
1388.276241719797
 11
4690.899996609864
 21
1388.276241719797
  0
LINE
  5
24C
100
AcDbEntity
  8
0
  6
CONTINUOUS
 62
           3
100
AcDbLine
 10
4680.899996833472
 20
1388.276241719797
 11
4677.899996341774
 21
1388.276241719797
  0
LINE
  5
24B
100
AcDbEntity
  8
0
  6
CONTINUOUS
 62
           3
100
AcDbLine
 10
4677.899996341774
 20
1389.200001954998
 11
4677.899996341774
 21
1388.276241719797
  0
LINE
  5
24A
100
AcDbEntity
  8
0
  6
CONTINUOUS
 62
           3
100
AcDbLine
 10
4693.899997101562
 20
1389.200001954998
 11
4693.899997101562
 21
1388.276241719797
  0
LINE
  5
249
100
AcDbEntity
  8
0
  6
CONTINUOUS
 62
           3
100
AcDbLine
 10
4655.899997392189
 20
1550.000000744965
 11
4665.899997168585
 21
1550.000000744965
  0
LINE
  5
248
100
AcDbEntity
  8
0
  6
CONTINUOUS
 62
           3
100
AcDbLine
 10
4665.899997168585
 20
1548.799999058067
 11
4665.899997168585
 21
1550.000000744965
  0
LINE
  5
247
100
AcDbEntity
  8
0
  6
CONTINUOUS
 62
           3
100
AcDbLine
 10
4655.899997392189
 20
1548.799999058067
 11
4665.899997168585
 21
1548.799999058067
  0
LINE
  5
246
100
AcDbEntity
  8
0
  6
CONTINUOUS
 62
           3
100
AcDbLine
 10
4655.899997392189
 20
1548.799999058067
 11
4655.899997392189
 21
1550.000000744965
  0
LINE
  5
245
100
AcDbEntity
  8
0
  6
CONTINUOUS
 62
           3
100
AcDbLine
 10
4705.899996274751
 20
1548.799999058067
 11
4705.899996274751
 21
1550.000000744965
  0
LINE
  5
244
100
AcDbEntity
  8
0
  6
CONTINUOUS
 62
           3
100
AcDbLine
 10
4691.149996650864
 20
1548.799999058067
 11
4705.899996274751
 21
1548.799999058067
  0
LINE
  5
243
100
AcDbEntity
  8
0
  6
CONTINUOUS
 62
           3
100
AcDbLine
 10
4691.149996650864
 20
1550.000000744965
 11
4705.899996274751
 21
1550.000000744965
  0
LINE
  5
242
100
AcDbEntity
  8
0
  6
CONTINUOUS
 62
           3
100
AcDbLine
 10
4665.899997168585
 20
1548.799999058067
 11
4680.649996792472
 21
1548.799999058067
  0
LINE
  5
241
100
AcDbEntity
  8
0
  6
CONTINUOUS
 62
           3
100
AcDbLine
 10
4665.899997168585
 20
1550.000000744965
 11
4680.649996792472
 21
1550.000000744965
  0
LINE
  5
240
100
AcDbEntity
  8
0
  6
CONTINUOUS
 62
           3
100
AcDbLine
 10
4665.899997168585
 20
1391.199998557595
 11
4665.899997168585
 21
1390.000000596099
  0
LINE
  5
23F
100
AcDbEntity
  8
0
  6
CONTINUOUS
 62
           3
100
AcDbLine
 10
4665.899997168585
 20
1390.000000596099
 11
4677.899996341774
 21
1390.000000596099
  0
LINE
  5
23E
100
AcDbEntity
  8
0
  6
CONTINUOUS
 62
           3
100
AcDbLine
 10
4665.899997168585
 20
1391.199998557595
 11
4677.899996341774
 21
1391.199998557595
  0
LINE
  5
23D
100
AcDbEntity
  8
0
  6
CONTINUOUS
 62
           3
100
AcDbLine
 10
4689.149996788762
 20
1390.000000596099
 11
4689.149996788762
 21
1391.199998557595
  0
LINE
  5
23C
100
AcDbEntity
  8
0
  6
CONTINUOUS
 62
           3
100
AcDbLine
 10
4689.149996788762
 20
1391.199998557595
 11
4689.399996829762
 21
1391.199998557595
  0
LINE
  5
23B
100
AcDbEntity
  8
0
  6
CONTINUOUS
 62
           3
100
AcDbLine
 10
4715.899996051143
 20
1548.799999058067
 11
4715.899996051143
 21
1550.000000744965
  0
LINE
  5
23A
100
AcDbEntity
  8
0
  6
CONTINUOUS
 62
           3
100
AcDbLine
 10
4715.899996051143
 20
1548.799999058067
 11
4705.899996274751
 21
1548.799999058067
  0
LINE
  5
239
100
AcDbEntity
  8
0
  6
CONTINUOUS
 62
           3
100
AcDbLine
 10
4715.899996051143
 20
1550.000000744965
 11
4705.899996274751
 21
1550.000000744965
  0
LINE
  5
238
100
AcDbEntity
  8
0
  6
CONTINUOUS
 62
           3
100
AcDbLine
 10
4689.149996788762
 20
1548.799999058067
 11
4689.149996788762
 21
1550.000000744965
  0
LINE
  5
237
100
AcDbEntity
  8
0
  6
CONTINUOUS
 62
           3
100
AcDbLine
 10
4691.149996650864
 20
1548.799999058067
 11
4689.149996788762
 21
1548.799999058067
  0
LINE
  5
236
100
AcDbEntity
  8
0
  6
CONTINUOUS
 62
           3
100
AcDbLine
 10
4689.149996788762
 20
1550.000000744965
 11
4691.149996650864
 21
1550.000000744965
  0
LINE
  5
235
100
AcDbEntity
  8
0
  6
CONTINUOUS
 62
           3
100
AcDbLine
 10
4655.899997392189
 20
1391.199998557595
 11
4655.899997392189
 21
1390.000000596099
  0
LINE
  5
234
100
AcDbEntity
  8
0
  6
CONTINUOUS
 62
           3
100
AcDbLine
 10
4655.899997392189
 20
1390.000000596099
 11
4665.899997168585
 21
1390.000000596099
  0
LINE
  5
233
100
AcDbEntity
  8
0
  6
CONTINUOUS
 62
           3
100
AcDbLine
 10
4655.899997392189
 20
1391.199998557595
 11
4665.899997168585
 21
1391.199998557595
  0
LINE
  5
232
100
AcDbEntity
  8
0
  6
CONTINUOUS
 62
           3
100
AcDbLine
 10
4705.899996274751
 20
1391.199998557595
 11
4705.899996274751
 21
1390.000000596099
  0
LINE
  5
231
100
AcDbEntity
  8
0
  6
CONTINUOUS
 62
           3
100
AcDbLine
 10
4693.899997101562
 20
1390.000000596099
 11
4705.899996274751
 21
1390.000000596099
  0
LINE
  5
230
100
AcDbEntity
  8
0
  6
CONTINUOUS
 62
           3
100
AcDbLine
 10
4693.899997101562
 20
1391.199998557595
 11
4705.899996274751
 21
1391.199998557595
  0
LINE
  5
22F
100
AcDbEntity
  8
0
  6
CONTINUOUS
 62
           3
100
AcDbLine
 10
4682.649996654575
 20
1550.000000744965
 11
4682.649996654575
 21
1548.799999058067
  0
LINE
  5
22E
100
AcDbEntity
  8
0
  6
CONTINUOUS
 62
           3
100
AcDbLine
 10
4682.649996654575
 20
1548.799999058067
 11
4680.649996792472
 21
1548.799999058067
  0
LINE
  5
22D
100
AcDbEntity
  8
0
  6
CONTINUOUS
 62
           3
100
AcDbLine
 10
4680.649996792472
 20
1550.000000744965
 11
4682.649996654575
 21
1550.000000744965
  0
LINE
  5
22C
100
AcDbEntity
  8
0
  6
CONTINUOUS
 62
           3
100
AcDbLine
 10
4715.899996051143
 20
1391.199998557595
 11
4715.899996051143
 21
1390.000000596099
  0
LINE
  5
22B
100
AcDbEntity
  8
0
  6
CONTINUOUS
 62
           3
100
AcDbLine
 10
4715.899996051143
 20
1390.000000596099
 11
4705.899996274751
 21
1390.000000596099
  0
LINE
  5
22A
100
AcDbEntity
  8
0
  6
CONTINUOUS
 62
           3
100
AcDbLine
 10
4715.899996051143
 20
1391.199998557595
 11
4705.899996274751
 21
1391.199998557595
  0
LINE
  5
229
100
AcDbEntity
  8
0
  6
CONTINUOUS
 62
           3
100
AcDbLine
 10
4682.649996654575
 20
1391.199998557595
 11
4682.649996654575
 21
1390.000000596099
  0
LINE
  5
228
100
AcDbEntity
  8
0
  6
CONTINUOUS
 62
           3
100
AcDbLine
 10
4682.399996613575
 20
1391.199998557595
 11
4682.649996654575
 21
1391.199998557595
  0
LINE
  5
227
100
AcDbEntity
  8
0
  6
CONTINUOUS
 62
           3
100
AcDbLine
 10
4632.899997347712
 20
1390.000000596099
 11
4632.899997347712
 21
1391.199998557595
  0
LINE
  5
226
100
AcDbEntity
  8
0
  6
CONTINUOUS
 62
           3
100
AcDbLine
 10
4630.899997019711
 20
1390.000000596099
 11
4632.899997347712
 21
1390.000000596099
  0
LINE
  5
225
100
AcDbEntity
  8
0
  6
CONTINUOUS
 62
           3
100
AcDbLine
 10
4632.899997347712
 20
1391.199998557595
 11
4630.899997019711
 21
1391.199998557595
  0
LINE
  5
224
100
AcDbEntity
  8
0
  6
CONTINUOUS
 62
           3
100
AcDbLine
 10
4638.899998331102
 20
1391.199998557595
 11
4638.899998331102
 21
1390.000000596099
  0
LINE
  5
223
100
AcDbEntity
  8
0
  6
CONTINUOUS
 62
           3
100
AcDbLine
 10
4638.899998331102
 20
1390.000000596099
 11
4640.899994933702
 21
1390.000000596099
  0
LINE
  5
222
100
AcDbEntity
  8
0
  6
CONTINUOUS
 62
           3
100
AcDbLine
 10
4640.899994933702
 20
1391.199998557595
 11
4638.899998331102
 21
1391.199998557595
  0
LINE
  5
221
100
AcDbEntity
  8
0
  6
CONTINUOUS
 62
           3
100
AcDbLine
 10
4738.899996095919
 20
1550.000000744965
 11
4738.899996095919
 21
1548.799999058067
  0
LINE
  5
220
100
AcDbEntity
  8
0
  6
CONTINUOUS
 62
           3
100
AcDbLine
 10
4738.899996095919
 20
1548.799999058067
 11
4740.899996423621
 21
1548.799999058067
  0
LINE
  5
21F
100
AcDbEntity
  8
0
  6
CONTINUOUS
 62
           3
100
AcDbLine
 10
4740.899996423621
 20
1550.000000744965
 11
4738.899996095919
 21
1550.000000744965
  0
LINE
  5
21E
100
AcDbEntity
  8
0
  6
CONTINUOUS
 62
           3
100
AcDbLine
 10
4732.899995112232
 20
1548.799999058067
 11
4732.899995112232
 21
1550.000000744965
  0
LINE
  5
21D
100
AcDbEntity
  8
0
  6
CONTINUOUS
 62
           3
100
AcDbLine
 10
4730.899998509631
 20
1548.799999058067
 11
4732.899995112232
 21
1548.799999058067
  0
LINE
  5
21C
100
AcDbEntity
  8
0
  6
CONTINUOUS
 62
           3
100
AcDbLine
 10
4732.899995112232
 20
1550.000000744965
 11
4730.899998509631
 21
1550.000000744965
  0
LINE
  5
21B
100
AcDbEntity
  8
0
  6
CONTINUOUS
 62
           3
100
AcDbLine
 10
4738.899996095919
 20
1390.000000596099
 11
4738.899996095919
 21
1391.199998557595
  0
LINE
  5
21A
100
AcDbEntity
  8
0
  6
CONTINUOUS
 62
           3
100
AcDbLine
 10
4740.899996423621
 20
1390.000000596099
 11
4738.899996095919
 21
1390.000000596099
  0
LINE
  5
219
100
AcDbEntity
  8
0
  6
CONTINUOUS
 62
           3
100
AcDbLine
 10
4738.899996095919
 20
1391.199998557595
 11
4740.899996423621
 21
1391.199998557595
  0
LINE
  5
218
100
AcDbEntity
  8
0
  6
CONTINUOUS
 62
           3
100
AcDbLine
 10
4732.899995112232
 20
1391.199998557595
 11
4732.899995112232
 21
1390.000000596099
  0
LINE
  5
217
100
AcDbEntity
  8
0
  6
CONTINUOUS
 62
           3
100
AcDbLine
 10
4732.899995112232
 20
1390.000000596099
 11
4730.899998509631
 21
1390.000000596099
  0
LINE
  5
216
100
AcDbEntity
  8
0
  6
CONTINUOUS
 62
           3
100
AcDbLine
 10
4730.899998509631
 20
1391.199998557595
 11
4732.899995112232
 21
1391.199998557595
  0
LINE
  5
215
100
AcDbEntity
  8
0
  6
CONTINUOUS
 62
           3
100
AcDbLine
 10
4632.899997347712
 20
1550.000000744965
 11
4632.899997347712
 21
1548.799999058067
  0
LINE
  5
214
100
AcDbEntity
  8
0
  6
CONTINUOUS
 62
           3
100
AcDbLine
 10
4632.899997347712
 20
1548.799999058067
 11
4630.899997019711
 21
1548.799999058067
  0
LINE
  5
213
100
AcDbEntity
  8
0
  6
CONTINUOUS
 62
           3
100
AcDbLine
 10
4630.899997019711
 20
1550.000000744965
 11
4632.899997347712
 21
1550.000000744965
  0
LINE
  5
212
100
AcDbEntity
  8
0
  6
CONTINUOUS
 62
           3
100
AcDbLine
 10
4638.899998331102
 20
1548.799999058067
 11
4638.899998331102
 21
1550.000000744965
  0
LINE
  5
211
100
AcDbEntity
  8
0
  6
CONTINUOUS
 62
           3
100
AcDbLine
 10
4640.899994933702
 20
1548.799999058067
 11
4638.899998331102
 21
1548.799999058067
  0
LINE
  5
210
100
AcDbEntity
  8
0
  6
CONTINUOUS
 62
           3
100
AcDbLine
 10
4638.899998331102
 20
1550.000000744965
 11
4640.899994933702
 21
1550.000000744965
  0
LINE
  5
20F
100
AcDbEntity
  8
0
  6
CONTINUOUS
 62
           3
100
AcDbLine
 10
4640.899994933702
 20
1390.000000596099
 11
4655.899997392189
 21
1390.000000596099
  0
LINE
  5
20E
100
AcDbEntity
  8
0
  6
CONTINUOUS
 62
           3
100
AcDbLine
 10
4640.899994933702
 20
1391.199998557595
 11
4655.899997392189
 21
1391.199998557595
  0
LINE
  5
20D
100
AcDbEntity
  8
0
  6
CONTINUOUS
 62
           3
100
AcDbLine
 10
4745.89999538062
 20
1391.199998557595
 11
4745.89999538062
 21
1390.000000596099
  0
LINE
  5
20C
100
AcDbEntity
  8
0
  6
CONTINUOUS
 62
           3
100
AcDbLine
 10
4745.89999538062
 20
1390.000000596099
 11
4740.899996423621
 21
1390.000000596099
  0
LINE
  5
20B
100
AcDbEntity
  8
0
  6
CONTINUOUS
 62
           3
100
AcDbLine
 10
4740.899996423621
 20
1391.199998557595
 11
4745.89999538062
 21
1391.199998557595
  0
LINE
  5
20A
100
AcDbEntity
  8
0
  6
CONTINUOUS
 62
           3
100
AcDbLine
 10
4640.899994933702
 20
1548.799999058067
 11
4655.899997392189
 21
1548.799999058067
  0
LINE
  5
209
100
AcDbEntity
  8
0
  6
CONTINUOUS
 62
           3
100
AcDbLine
 10
4640.899994933702
 20
1550.000000744965
 11
4655.899997392189
 21
1550.000000744965
  0
LINE
  5
208
100
AcDbEntity
  8
0
  6
CONTINUOUS
 62
           3
100
AcDbLine
 10
4730.899998509631
 20
1390.000000596099
 11
4715.899996051143
 21
1390.000000596099
  0
LINE
  5
207
100
AcDbEntity
  8
0
  6
CONTINUOUS
 62
           3
100
AcDbLine
 10
4730.899998509631
 20
1391.199998557595
 11
4715.899996051143
 21
1391.199998557595
  0
LINE
  5
206
100
AcDbEntity
  8
0
  6
CONTINUOUS
 62
           3
100
AcDbLine
 10
4745.89999538062
 20
1548.799999058067
 11
4745.89999538062
 21
1550.000000744965
  0
LINE
  5
205
100
AcDbEntity
  8
0
  6
CONTINUOUS
 62
           3
100
AcDbLine
 10
4740.899996423621
 20
1548.799999058067
 11
4745.89999538062
 21
1548.799999058067
  0
LINE
  5
204
100
AcDbEntity
  8
0
  6
CONTINUOUS
 62
           3
100
AcDbLine
 10
4745.89999538062
 20
1550.000000744965
 11
4740.899996423621
 21
1550.000000744965
  0
LINE
  5
203
100
AcDbEntity
  8
0
  6
CONTINUOUS
 62
           3
100
AcDbLine
 10
4730.899998509631
 20
1548.799999058067
 11
4715.899996051143
 21
1548.799999058067
  0
LINE
  5
202
100
AcDbEntity
  8
0
  6
CONTINUOUS
 62
           3
100
AcDbLine
 10
4730.899998509631
 20
1550.000000744965
 11
4715.899996051143
 21
1550.000000744965
  0
LINE
  5
201
100
AcDbEntity
  8
0
  6
CONTINUOUS
 62
           3
100
AcDbLine
 10
4625.899998062713
 20
1548.799999058067
 11
4625.899998062713
 21
1550.000000744965
  0
LINE
  5
200
100
AcDbEntity
  8
0
  6
CONTINUOUS
 62
           3
100
AcDbLine
 10
4630.899997019711
 20
1548.799999058067
 11
4625.899998062713
 21
1548.799999058067
  0
LINE
  5
1FF
100
AcDbEntity
  8
0
  6
CONTINUOUS
 62
           3
100
AcDbLine
 10
4625.899998062713
 20
1550.000000744965
 11
4630.899997019711
 21
1550.000000744965
  0
LINE
  5
1FE
100
AcDbEntity
  8
0
  6
CONTINUOUS
 62
           3
100
AcDbLine
 10
4625.899998062713
 20
1391.199998557595
 11
4625.899998062713
 21
1390.000000596099
  0
LINE
  5
1FD
100
AcDbEntity
  8
0
  6
CONTINUOUS
 62
           3
100
AcDbLine
 10
4625.899998062713
 20
1390.000000596099
 11
4630.899997019711
 21
1390.000000596099
  0
LINE
  5
1FC
100
AcDbEntity
  8
0
  6
CONTINUOUS
 62
           3
100
AcDbLine
 10
4630.899997019711
 20
1391.199998557595
 11
4625.899998062713
 21
1391.199998557595
  0
LINE
  5
1FB
100
AcDbEntity
  8
0
  6
CONTINUOUS
 62
           3
100
AcDbLine
 10
4689.149996788762
 20
1391.199998557595
 11
4688.899996747762
 21
1391.199998557595
  0
LINE
  5
1FA
100
AcDbEntity
  8
0
  6
CONTINUOUS
 62
           3
100
AcDbLine
 10
4682.899996695575
 20
1391.199998557595
 11
4682.649996654575
 21
1391.199998557595
  0
LINE
  5
1F9
100
AcDbEntity
  8
0
  6
CONTINUOUS
 62
           3
100
AcDbLine
 10
4682.649996654575
 20
1548.799999058067
 11
4682.899996695575
 21
1548.799999058067
  0
LINE
  5
1F8
100
AcDbEntity
  8
0
  6
CONTINUOUS
 62
           3
100
AcDbLine
 10
4688.899996747762
 20
1548.799999058067
 11
4689.149996788762
 21
1548.799999058067
  0
LINE
  5
1F7
100
AcDbEntity
  8
0
  6
CONTINUOUS
 62
           3
100
AcDbLine
 10
4682.649996654575
 20
1550.000000744965
 11
4682.899996695575
 21
1550.000000744965
  0
LINE
  5
1F6
100
AcDbEntity
  8
0
  6
CONTINUOUS
 62
           3
100
AcDbLine
 10
4688.899996747762
 20
1550.000000744965
 11
4689.149996788762
 21
1550.000000744965
  0
LINE
  5
1F5
100
AcDbEntity
  8
0
  6
CONTINUOUS
 62
           3
100
AcDbLine
 10
4745.89999538062
 20
1391.199998557595
 11
4745.89999538062
 21
1391.699999570794
  0
LINE
  5
1F4
100
AcDbEntity
  8
0
  6
CONTINUOUS
 62
           3
100
AcDbLine
 10
4625.899998062713
 20
1391.199998557595
 11
4625.899998062713
 21
1391.699999570794
  0
LINE
  5
1F3
100
AcDbEntity
  8
0
  6
CONTINUOUS
 62
           3
100
AcDbLine
 10
4625.899998062713
 20
1548.799999058067
 11
4625.899998062713
 21
1548.300001770267
  0
LINE
  5
1F2
100
AcDbEntity
  8
0
  6
CONTINUOUS
 62
           3
100
AcDbLine
 10
4745.89999538062
 20
1548.799999058067
 11
4745.89999538062
 21
1548.300001770267
  0
LINE
  5
1F1
100
AcDbEntity
  8
0
  6
CONTINUOUS
 62
           3
100
AcDbLine
 10
4745.89999538062
 20
1529.999999329482
 11
4744.199996405623
 21
1529.999999329482
  0
LINE
  5
1F0
100
AcDbEntity
  8
0
  6
CONTINUOUS
 62
           3
100
AcDbLine
 10
4745.89999538062
 20
1509.999999776397
 11
4745.89999538062
 21
1529.999999329482
  0
LINE
  5
1EF
100
AcDbEntity
  8
0
  6
CONTINUOUS
 62
           3
100
AcDbLine
 10
4744.199996405623
 20
1509.999999776397
 11
4745.824804121021
 21
1509.999999776397
  0
LINE
  5
1EE
100
AcDbEntity
  8
0
  6
CONTINUOUS
 62
           3
100
AcDbLine
 10
4627.899998390713
 20
1532.000001519881
 11
4625.899998062713
 21
1532.000001519881
  0
LINE
  5
1ED
100
AcDbEntity
  8
0
  6
CONTINUOUS
 62
           3
100
AcDbLine
 10
4625.899998062713
 20
1548.300001770267
 11
4625.899998062713
 21
1532.000001519881
  0
LINE
  5
1EC
100
AcDbEntity
  8
0
  6
CONTINUOUS
 62
           3
100
AcDbLine
 10
4745.89999538062
 20
1548.300001770267
 11
4745.89999538062
 21
1532.000001519881
  0
LINE
  5
1EB
100
AcDbEntity
  8
0
  6
CONTINUOUS
 62
           3
100
AcDbLine
 10
4743.899995052621
 20
1532.000001519881
 11
4745.89999538062
 21
1532.000001519881
  0
LINE
  5
1EA
100
AcDbEntity
  8
0
  6
CONTINUOUS
 62
           3
100
AcDbLine
 10
4744.199996405623
 20
1529.999999329482
 11
4743.899995052621
 21
1529.999999329482
  0
LINE
  5
1E9
100
AcDbEntity
  8
0
  6
CONTINUOUS
 62
           3
100
AcDbLine
 10
4743.899995052621
 20
1509.999999776397
 11
4744.199996405623
 21
1509.999999776397
  0
LINE
  5
1E8
100
AcDbEntity
  8
0
  6
CONTINUOUS
 62
           3
100
AcDbLine
 10
4745.89999538062
 20
1508.000000379901
 11
4743.899995052621
 21
1508.000000379901
  0
LINE
  5
1E7
100
AcDbEntity
  8
0
  6
CONTINUOUS
 62
           3
100
AcDbLine
 10
4745.89999538062
 20
1508.000000379901
 11
4745.89999538062
 21
1431.999996304561
  0
LINE
  5
1E6
100
AcDbEntity
  8
0
  6
CONTINUOUS
 62
           3
100
AcDbLine
 10
4745.89999538062
 20
1431.999996304561
 11
4743.899995052621
 21
1431.999996304561
  0
LINE
  5
1E5
100
AcDbEntity
  8
0
  6
CONTINUOUS
 62
           3
100
AcDbLine
 10
4743.899995052621
 20
1429.999999701964
 11
4744.199996405623
 21
1429.999999701964
  0
LINE
  5
1E4
100
AcDbEntity
  8
0
  6
CONTINUOUS
 62
           3
100
AcDbLine
 10
4744.199996405623
 20
1409.99999642378
 11
4743.899995052621
 21
1409.99999642378
  0
LINE
  5
1E3
100
AcDbEntity
  8
0
  6
CONTINUOUS
 62
           3
100
AcDbLine
 10
4743.899995052621
 20
1407.999999821185
 11
4745.89999538062
 21
1407.999999821185
  0
LINE
  5
1E2
100
AcDbEntity
  8
0
  6
CONTINUOUS
 62
           3
100
AcDbLine
 10
4745.89999538062
 20
1391.699999570794
 11
4745.89999538062
 21
1407.999999821185
  0
LINE
  5
1E1
100
AcDbEntity
  8
0
  6
CONTINUOUS
 62
           3
100
AcDbLine
 10
4625.899998062713
 20
1391.699999570794
 11
4625.899998062713
 21
1407.999999821185
  0
LINE
  5
1E0
100
AcDbEntity
  8
0
  6
CONTINUOUS
 62
           3
100
AcDbLine
 10
4627.899998390713
 20
1407.999999821185
 11
4625.899998062713
 21
1407.999999821185
  0
LINE
  5
1DF
100
AcDbEntity
  8
0
  6
CONTINUOUS
 62
           3
100
AcDbLine
 10
4627.599997037714
 20
1409.99999642378
 11
4627.899998390713
 21
1409.99999642378
  0
LINE
  5
1DE
100
AcDbEntity
  8
0
  6
CONTINUOUS
 62
           3
100
AcDbLine
 10
4627.899998390713
 20
1429.999999701964
 11
4627.599997037714
 21
1429.999999701964
  0
LINE
  5
1DD
100
AcDbEntity
  8
0
  6
CONTINUOUS
 62
           3
100
AcDbLine
 10
4625.899998062713
 20
1431.999996304561
 11
4627.899998390713
 21
1431.999996304561
  0
LINE
  5
1DC
100
AcDbEntity
  8
0
  6
CONTINUOUS
 62
           3
100
AcDbLine
 10
4625.899998062713
 20
1508.000000379901
 11
4625.899998062713
 21
1431.999996304561
  0
LINE
  5
1DB
100
AcDbEntity
  8
0
  6
CONTINUOUS
 62
           3
100
AcDbLine
 10
4625.899998062713
 20
1508.000000379901
 11
4627.899998390713
 21
1508.000000379901
  0
LINE
  5
1DA
100
AcDbEntity
  8
0
  6
CONTINUOUS
 62
           3
100
AcDbLine
 10
4627.899998390713
 20
1509.999999776397
 11
4627.599997037714
 21
1509.999999776397
  0
LINE
  5
1D9
100
AcDbEntity
  8
0
  6
CONTINUOUS
 62
           3
100
AcDbLine
 10
4627.599997037714
 20
1529.999999329482
 11
4627.899998390713
 21
1529.999999329482
  0
LINE
  5
1D8
100
AcDbEntity
  8
0
  6
CONTINUOUS
 62
           3
100
AcDbLine
 10
4625.899998062713
 20
1429.999999701964
 11
4625.899998062713
 21
1409.99999642378
  0
LINE
  5
1D7
100
AcDbEntity
  8
0
  6
CONTINUOUS
 62
           3
100
AcDbLine
 10
4627.599997037714
 20
1429.999999701964
 11
4625.899998062713
 21
1429.999999701964
  0
LINE
  5
1D6
100
AcDbEntity
  8
0
  6
CONTINUOUS
 62
           3
100
AcDbLine
 10
4625.975189322322
 20
1409.99999642378
 11
4627.599997037714
 21
1409.99999642378
  0
LINE
  5
1D5
100
AcDbEntity
  8
0
  6
CONTINUOUS
 62
           3
100
AcDbLine
 10
4627.599997037714
 20
1509.999999776397
 11
4625.975189322322
 21
1509.999999776397
  0
LINE
  5
1D4
100
AcDbEntity
  8
0
  6
CONTINUOUS
 62
           3
100
AcDbLine
 10
4625.899998062713
 20
1509.999999776397
 11
4625.899998062713
 21
1529.999999329482
  0
LINE
  5
1D3
100
AcDbEntity
  8
0
  6
CONTINUOUS
 62
           3
100
AcDbLine
 10
4625.899998062713
 20
1529.999999329482
 11
4627.599997037714
 21
1529.999999329482
  0
LINE
  5
1D2
100
AcDbEntity
  8
0
  6
CONTINUOUS
 62
           3
100
AcDbLine
 10
4745.89999538062
 20
1429.999999701964
 11
4745.89999538062
 21
1409.99999642378
  0
LINE
  5
1D1
100
AcDbEntity
  8
0
  6
CONTINUOUS
 62
           3
100
AcDbLine
 10
4744.199996405623
 20
1429.999999701964
 11
4745.89999538062
 21
1429.999999701964
  0
LINE
  5
1D0
100
AcDbEntity
  8
0
  6
CONTINUOUS
 62
           3
100
AcDbLine
 10
4745.824804121021
 20
1409.99999642378
 11
4744.199996405623
 21
1409.99999642378
  0
LINE
  5
1CF
100
AcDbEntity
  8
0
  6
CONTINUOUS
 62
           3
100
AcDbLine
 10
4632.899997347712
 20
1364.999994635818
 11
4632.899997347712
 21
1366.600006818715
  0
LINE
  5
1CE
100
AcDbEntity
  8
0
  6
CONTINUOUS
 62
           3
100
AcDbLine
 10
4630.899997019711
 20
1364.999994635818
 11
4632.899997347712
 21
1364.999994635818
  0
LINE
  5
1CD
100
AcDbEntity
  8
0
  6
CONTINUOUS
 62
           3
100
AcDbLine
 10
4632.899997347712
 20
1366.600006818715
 11
4630.899997019711
 21
1366.600006818715
  0
LINE
  5
1CC
100
AcDbEntity
  8
0
  6
CONTINUOUS
 62
           3
100
AcDbLine
 10
4630.899997019711
 20
1635.000005364198
 11
4632.899997347712
 21
1635.000005364198
  0
LINE
  5
1CB
100
AcDbEntity
  8
0
  6
CONTINUOUS
 62
           3
100
AcDbLine
 10
4632.899997347712
 20
1635.000005364198
 11
4632.899997347712
 21
1633.399993180999
  0
LINE
  5
1CA
100
AcDbEntity
  8
0
  6
CONTINUOUS
 62
           3
100
AcDbLine
 10
4632.899997347712
 20
1633.399993180999
 11
4630.899997019711
 21
1633.399993180999
  0
LINE
  5
1C9
100
AcDbEntity
  8
0
  6
CONTINUOUS
 62
           3
100
AcDbLine
 10
4638.899998331102
 20
1633.399993180999
 11
4638.899998331102
 21
1635.000005364198
  0
LINE
  5
1C8
100
AcDbEntity
  8
0
  6
CONTINUOUS
 62
           3
100
AcDbLine
 10
4638.899998331102
 20
1635.000005364198
 11
4640.899994933702
 21
1635.000005364198
  0
LINE
  5
1C7
100
AcDbEntity
  8
0
  6
CONTINUOUS
 62
           3
100
AcDbLine
 10
4640.899994933702
 20
1633.399993180999
 11
4638.899998331102
 21
1633.399993180999
  0
LINE
  5
1C6
100
AcDbEntity
  8
0
  6
CONTINUOUS
 62
           3
100
AcDbLine
 10
4638.899998331102
 20
1364.999994635818
 11
4640.899994933702
 21
1364.999994635818
  0
LINE
  5
1C5
100
AcDbEntity
  8
0
  6
CONTINUOUS
 62
           3
100
AcDbLine
 10
4638.899998331102
 20
1366.600006818715
 11
4638.899998331102
 21
1364.999994635818
  0
LINE
  5
1C4
100
AcDbEntity
  8
0
  6
CONTINUOUS
 62
           3
100
AcDbLine
 10
4640.899994933702
 20
1366.600006818715
 11
4638.899998331102
 21
1366.600006818715
  0
LINE
  5
1C3
100
AcDbEntity
  8
0
  6
CONTINUOUS
 62
           3
100
AcDbLine
 10
4640.899994933702
 20
1364.999994635818
 11
4730.899998509631
 21
1364.999994635818
  0
LINE
  5
1C2
100
AcDbEntity
  8
0
  6
CONTINUOUS
 62
           3
100
AcDbLine
 10
4640.899994933702
 20
1366.600006818715
 11
4730.899998509631
 21
1366.600006818715
  0
LINE
  5
1C1
100
AcDbEntity
  8
0
  6
CONTINUOUS
 62
           3
100
AcDbLine
 10
4640.899994933702
 20
1635.000005364198
 11
4730.899998509631
 21
1635.000005364198
  0
LINE
  5
1C0
100
AcDbEntity
  8
0
  6
CONTINUOUS
 62
           3
100
AcDbLine
 10
4640.899994933702
 20
1633.399993180999
 11
4730.899998509631
 21
1633.399993180999
  0
LINE
  5
1BF
100
AcDbEntity
  8
0
  6
CONTINUOUS
 62
           3
100
AcDbLine
 10
4625.899998062713
 20
1366.600006818715
 11
4625.899998062713
 21
1364.999994635818
  0
LINE
  5
1BE
100
AcDbEntity
  8
0
  6
CONTINUOUS
 62
           3
100
AcDbLine
 10
4625.899998062713
 20
1364.999994635818
 11
4630.899997019711
 21
1364.999994635818
  0
LINE
  5
1BD
100
AcDbEntity
  8
0
  6
CONTINUOUS
 62
           3
100
AcDbLine
 10
4630.899997019711
 20
1366.600006818715
 11
4625.899998062713
 21
1366.600006818715
  0
LINE
  5
1BC
100
AcDbEntity
  8
0
  6
CONTINUOUS
 62
           3
100
AcDbLine
 10
4625.899998062713
 20
1633.399993180999
 11
4625.899998062713
 21
1635.000005364198
  0
LINE
  5
1BB
100
AcDbEntity
  8
0
  6
CONTINUOUS
 62
           3
100
AcDbLine
 10
4625.899998062713
 20
1635.000005364198
 11
4630.899997019711
 21
1635.000005364198
  0
LINE
  5
1BA
100
AcDbEntity
  8
0
  6
CONTINUOUS
 62
           3
100
AcDbLine
 10
4630.899997019711
 20
1633.399993180999
 11
4625.899998062713
 21
1633.399993180999
  0
LINE
  5
1B9
100
AcDbEntity
  8
0
  6
CONTINUOUS
 62
           3
100
AcDbLine
 10
4738.899996095919
 20
1635.000005364198
 11
4738.899996095919
 21
1633.399993180999
  0
LINE
  5
1B8
100
AcDbEntity
  8
0
  6
CONTINUOUS
 62
           3
100
AcDbLine
 10
4740.899996423621
 20
1635.000005364198
 11
4738.899996095919
 21
1635.000005364198
  0
LINE
  5
1B7
100
AcDbEntity
  8
0
  6
CONTINUOUS
 62
           3
100
AcDbLine
 10
4738.899996095919
 20
1633.399993180999
 11
4740.899996423621
 21
1633.399993180999
  0
LINE
  5
1B6
100
AcDbEntity
  8
0
  6
CONTINUOUS
 62
           3
100
AcDbLine
 10
4738.899996095919
 20
1364.999994635818
 11
4738.899996095919
 21
1366.600006818715
  0
LINE
  5
1B5
100
AcDbEntity
  8
0
  6
CONTINUOUS
 62
           3
100
AcDbLine
 10
4740.899996423621
 20
1364.999994635818
 11
4738.899996095919
 21
1364.999994635818
  0
LINE
  5
1B4
100
AcDbEntity
  8
0
  6
CONTINUOUS
 62
           3
100
AcDbLine
 10
4738.899996095919
 20
1366.600006818715
 11
4740.899996423621
 21
1366.600006818715
  0
LINE
  5
1B3
100
AcDbEntity
  8
0
  6
CONTINUOUS
 62
           3
100
AcDbLine
 10
4732.899995112232
 20
1633.399993180999
 11
4732.899995112232
 21
1635.000005364198
  0
LINE
  5
1B2
100
AcDbEntity
  8
0
  6
CONTINUOUS
 62
           3
100
AcDbLine
 10
4732.899995112232
 20
1635.000005364198
 11
4730.899998509631
 21
1635.000005364198
  0
LINE
  5
1B1
100
AcDbEntity
  8
0
  6
CONTINUOUS
 62
           3
100
AcDbLine
 10
4730.899998509631
 20
1633.399993180999
 11
4732.899995112232
 21
1633.399993180999
  0
LINE
  5
1B0
100
AcDbEntity
  8
0
  6
CONTINUOUS
 62
           3
100
AcDbLine
 10
4732.899995112232
 20
1366.600006818715
 11
4732.899995112232
 21
1364.999994635818
  0
LINE
  5
1AF
100
AcDbEntity
  8
0
  6
CONTINUOUS
 62
           3
100
AcDbLine
 10
4732.899995112232
 20
1364.999994635818
 11
4730.899998509631
 21
1364.999994635818
  0
LINE
  5
1AE
100
AcDbEntity
  8
0
  6
CONTINUOUS
 62
           3
100
AcDbLine
 10
4730.899998509631
 20
1366.600006818715
 11
4732.899995112232
 21
1366.600006818715
  0
LINE
  5
1AD
100
AcDbEntity
  8
0
  6
CONTINUOUS
 62
           3
100
AcDbLine
 10
4745.89999538062
 20
1366.600006818715
 11
4745.89999538062
 21
1364.999994635818
  0
LINE
  5
1AC
100
AcDbEntity
  8
0
  6
CONTINUOUS
 62
           3
100
AcDbLine
 10
4745.89999538062
 20
1364.999994635818
 11
4740.899996423621
 21
1364.999994635818
  0
LINE
  5
1AB
100
AcDbEntity
  8
0
  6
CONTINUOUS
 62
           3
100
AcDbLine
 10
4740.899996423621
 20
1366.600006818715
 11
4745.89999538062
 21
1366.600006818715
  0
LINE
  5
1AA
100
AcDbEntity
  8
0
  6
CONTINUOUS
 62
           3
100
AcDbLine
 10
4745.89999538062
 20
1633.399993180999
 11
4745.89999538062
 21
1635.000005364198
  0
LINE
  5
1A9
100
AcDbEntity
  8
0
  6
CONTINUOUS
 62
           3
100
AcDbLine
 10
4745.89999538062
 20
1635.000005364198
 11
4740.899996423621
 21
1635.000005364198
  0
LINE
  5
1A8
100
AcDbEntity
  8
0
  6
CONTINUOUS
 62
           3
100
AcDbLine
 10
4740.899996423621
 20
1633.399993180999
 11
4745.89999538062
 21
1633.399993180999
  0
LINE
  5
1A7
100
AcDbEntity
  8
0
  6
CONTINUOUS
 62
           3
100
AcDbLine
 10
4745.89999538062
 20
1633.399993180999
 11
4745.89999538062
 21
1632.699996232997
  0
LINE
  5
1A6
100
AcDbEntity
  8
0
  6
CONTINUOUS
 62
           3
100
AcDbLine
 10
4625.899998062713
 20
1633.399993180999
 11
4625.899998062713
 21
1632.699996232997
  0
LINE
  5
1A5
100
AcDbEntity
  8
0
  6
CONTINUOUS
 62
           3
100
AcDbLine
 10
4745.89999538062
 20
1366.600006818715
 11
4745.89999538062
 21
1367.300003767015
  0
LINE
  5
1A4
100
AcDbEntity
  8
0
  6
CONTINUOUS
 62
           3
100
AcDbLine
 10
4625.899998062713
 20
1366.600006818715
 11
4625.899998062713
 21
1367.300003767015
  0
LINE
  5
1A3
100
AcDbEntity
  8
0
  6
CONTINUOUS
 62
           3
100
AcDbLine
 10
4605.499999189233
 20
1364.999994635818
 11
4603.399993443332
 21
1364.999994635818
  0
LINE
  5
1A2
100
AcDbEntity
  8
0
  6
CONTINUOUS
 62
           3
100
AcDbLine
 10
4603.399993443332
 20
1635.000005364198
 11
4603.399993443332
 21
1364.999994635818
  0
LINE
  5
1A1
100
AcDbEntity
  8
0
  6
CONTINUOUS
 62
           3
100
AcDbLine
 10
4605.499999189233
 20
1635.000005364198
 11
4603.399993443332
 21
1635.000005364198
  0
LINE
  5
1A0
100
AcDbEntity
  8
0
  6
CONTINUOUS
 62
           3
100
AcDbLine
 10
4747.399998420224
 20
1490.000000223614
 11
4745.89999538062
 21
1490.000000223614
  0
LINE
  5
19F
100
AcDbEntity
  8
0
  6
CONTINUOUS
 62
           3
100
AcDbLine
 10
4744.399996066124
 20
1431.999996304561
 11
4744.399996066124
 21
1429.999999701964
  0
LINE
  5
19E
100
AcDbEntity
  8
0
  6
CONTINUOUS
 62
           3
100
AcDbLine
 10
4745.824804121021
 20
1409.99999642378
 11
4747.399998420224
 21
1409.99999642378
  0
LINE
  5
19D
100
AcDbEntity
  8
0
  6
CONTINUOUS
 62
           3
100
AcDbLine
 10
4747.399998420224
 20
1409.99999642378
 11
4747.399998420224
 21
1490.000000223614
  0
LINE
  5
19C
100
AcDbEntity
  8
0
  6
CONTINUOUS
 62
           3
100
AcDbLine
 10
4744.399996066124
 20
1590.000003576233
 11
4747.399998420224
 21
1590.000003576233
  0
LINE
  5
19B
100
AcDbEntity
  8
0
  6
CONTINUOUS
 62
           3
100
AcDbLine
 10
4744.399996066124
 20
1529.999999329482
 11
4744.399996066124
 21
1532.000001519881
  0
LINE
  5
19A
100
AcDbEntity
  8
0
  6
CONTINUOUS
 62
           3
100
AcDbLine
 10
4744.399996066124
 20
1550.000000744965
 11
4744.399996066124
 21
1590.000003576233
  0
LINE
  5
199
100
AcDbEntity
  8
0
  6
CONTINUOUS
 62
           3
100
AcDbLine
 10
4747.399998420224
 20
1509.999999776397
 11
4745.824804121021
 21
1509.999999776397
  0
LINE
  5
198
100
AcDbEntity
  8
0
  6
CONTINUOUS
 62
           3
100
AcDbLine
 10
4747.399998420224
 20
1590.000003576233
 11
4747.399998420224
 21
1509.999999776397
  0
LINE
  5
197
100
AcDbEntity
  8
0
  6
CONTINUOUS
 62
           3
100
AcDbLine
 10
4625.975189322322
 20
1409.99999642378
 11
4624.399995023123
 21
1409.99999642378
  0
LINE
  5
196
100
AcDbEntity
  8
0
  6
CONTINUOUS
 62
           3
100
AcDbLine
 10
4627.399997377515
 20
1431.999996304561
 11
4627.399997377515
 21
1429.999999701964
  0
LINE
  5
195
100
AcDbEntity
  8
0
  6
CONTINUOUS
 62
           3
100
AcDbLine
 10
4624.399995023123
 20
1490.000000223614
 11
4625.899998062713
 21
1490.000000223614
  0
LINE
  5
194
100
AcDbEntity
  8
0
  6
CONTINUOUS
 62
           3
100
AcDbLine
 10
4624.399995023123
 20
1409.99999642378
 11
4624.399995023123
 21
1490.000000223614
  0
LINE
  5
193
100
AcDbEntity
  8
0
  6
CONTINUOUS
 62
           3
100
AcDbLine
 10
4625.899998062713
 20
1368.000000715316
 11
4625.899998062713
 21
1367.300003767015
  0
LINE
  5
192
100
AcDbEntity
  8
0
  6
CONTINUOUS
 62
           3
100
AcDbLine
 10
4620.899999106019
 20
1364.999994635818
 11
4620.899999106019
 21
1368.000000715316
  0
LINE
  5
191
100
AcDbEntity
  8
0
  6
CONTINUOUS
 62
           3
100
AcDbLine
 10
4620.899999106019
 20
1635.000005364198
 11
4605.499999189233
 21
1635.000005364198
  0
LINE
  5
190
100
AcDbEntity
  8
0
  6
CONTINUOUS
 62
           3
100
AcDbLine
 10
4620.899999106019
 20
1635.000005364198
 11
4620.899999106019
 21
1631.999999284699
  0
LINE
  5
18F
100
AcDbEntity
  8
0
  6
CONTINUOUS
 62
           3
100
AcDbLine
 10
4625.899998062713
 20
1631.999999284699
 11
4625.899998062713
 21
1632.699996232997
  0
LINE
  5
18E
100
AcDbEntity
  8
0
  6
CONTINUOUS
 62
           3
100
AcDbLine
 10
4745.89999538062
 20
1631.999999284699
 11
4745.89999538062
 21
1632.699996232997
  0
LINE
  5
18D
100
AcDbEntity
  8
0
  6
CONTINUOUS
 62
           3
100
AcDbLine
 10
4750.899994337313
 20
1635.000005364198
 11
4750.899994337313
 21
1631.999999284699
  0
LINE
  5
18C
100
AcDbEntity
  8
0
  6
CONTINUOUS
 62
           3
100
AcDbLine
 10
4750.899994337313
 20
1364.999994635818
 11
4750.899994337313
 21
1368.000000715316
  0
LINE
  5
18B
100
AcDbEntity
  8
0
  6
CONTINUOUS
 62
           3
100
AcDbLine
 10
4745.89999538062
 20
1368.000000715316
 11
4745.89999538062
 21
1367.300003767015
  0
LINE
  5
18A
100
AcDbEntity
  8
0
  6
CONTINUOUS
 62
           3
100
AcDbLine
 10
4624.399995023123
 20
1509.999999776397
 11
4625.975189322322
 21
1509.999999776397
  0
LINE
  5
189
100
AcDbEntity
  8
0
  6
CONTINUOUS
 62
           3
100
AcDbLine
 10
4627.399997377515
 20
1529.999999329482
 11
4627.399997377515
 21
1532.000001519881
  0
LINE
  5
188
100
AcDbEntity
  8
0
  6
CONTINUOUS
 62
           3
100
AcDbLine
 10
4627.399997377515
 20
1550.000000744965
 11
4627.399997377515
 21
1590.000003576233
  0
LINE
  5
187
100
AcDbEntity
  8
0
  6
CONTINUOUS
 62
           3
100
AcDbLine
 10
4627.399997377515
 20
1590.000003576233
 11
4624.399995023123
 21
1590.000003576233
  0
LINE
  5
186
100
AcDbEntity
  8
0
  6
CONTINUOUS
 62
           3
100
AcDbLine
 10
4624.399995023123
 20
1590.000003576233
 11
4624.399995023123
 21
1509.999999776397
  0
LINE
  5
185
100
AcDbEntity
  8
0
  6
CONTINUOUS
 62
           3
100
AcDbLine
 10
4620.899999106019
 20
1364.999994635818
 11
4605.499999189233
 21
1364.999994635818
  0
LINE
  5
184
100
AcDbEntity
  8
FORMAT
  6
DOT_CENTER
 62
           3
100
AcDbLine
 10
4610.999996721632
 20
1625.000000000002
 11
4597.399996721743
 21
1625.000000000002
  0
LINE
  5
183
100
AcDbEntity
  8
FORMAT
  6
DOT_CENTER
 62
           3
100
AcDbLine
 10
4610.999996721632
 20
1375.000000000009
 11
4597.399996721743
 21
1375.000000000009
  0
LINE
  5
182
100
AcDbEntity
  8
FORMAT
  6
CONTINUOUS
 62
           3
100
AcDbLine
 10
4699.899996721754
 20
1392.596845102895
 11
4689.399996721763
 21
1392.596845102895
  0
LINE
  5
181
100
AcDbEntity
  8
FORMAT
  6
CONTINUOUS
 62
           3
100
AcDbLine
 10
4689.399996721763
 20
1392.596845102895
 11
4682.399996721572
 21
1392.596845102895
  0
LINE
  5
180
100
AcDbEntity
  8
FORMAT
  6
DOT_CENTER
 62
           3
100
AcDbLine
 10
4685.899996721674
 20
1249.759397252257
 11
4685.899996721674
 21
1725.394390768571
  0
LINE
  5
17F
100
AcDbEntity
  8
FORMAT
  6
CONTINUOUS
 62
           3
100
AcDbLine
 10
4682.399996721572
 20
1392.596845102895
 11
4671.899996721583
 21
1392.596845102895
  0
LINE
  5
17E
100
AcDbEntity
  8
0
  6
CONTINUOUS
 62
           3
100
AcDbLine
 10
4685.899996721674
 20
1393.131740391395
 11
4686.955269949173
 21
1393.116392195194
  0
LINE
  5
17D
100
AcDbEntity
  8
0
  6
CONTINUOUS
 62
           3
100
AcDbLine
 10
4686.955269949173
 20
1393.116392195194
 11
4687.896187940061
 21
1393.072016537195
  0
LINE
  5
17C
100
AcDbEntity
  8
0
  6
CONTINUOUS
 62
           3
100
AcDbLine
 10
4687.896187940061
 20
1393.072016537195
 11
4688.620787869762
 21
1393.003411590993
  0
LINE
  5
17B
100
AcDbEntity
  8
0
  6
CONTINUOUS
 62
           3
100
AcDbLine
 10
4688.620787869762
 20
1393.003411590993
 11
4689.050547602961
 21
1392.918020486794
  0
LINE
  5
17A
100
AcDbEntity
  8
0
  6
CONTINUOUS
 62
           3
100
AcDbLine
 10
4689.050547602961
 20
1392.918020486794
 11
4689.138896354962
 21
1392.825089394994
  0
LINE
  5
179
100
AcDbEntity
  8
0
  6
CONTINUOUS
 62
           3
100
AcDbLine
 10
4689.138896354962
 20
1392.825089394994
 11
4688.899996747762
 21
1392.739541828795
  0
LINE
  5
178
100
AcDbEntity
  8
0
  6
CONTINUOUS
 62
           3
100
AcDbLine
 10
4682.899996695575
 20
1392.739541828795
 11
4682.661097088371
 21
1392.825089394994
  0
LINE
  5
177
100
AcDbEntity
  8
0
  6
CONTINUOUS
 62
           3
100
AcDbLine
 10
4682.661097088371
 20
1392.825089394994
 11
4682.749445840375
 21
1392.918020486794
  0
LINE
  5
176
100
AcDbEntity
  8
0
  6
CONTINUOUS
 62
           3
100
AcDbLine
 10
4682.749445840375
 20
1392.918020486794
 11
4683.179205573572
 21
1393.003411590993
  0
LINE
  5
175
100
AcDbEntity
  8
0
  6
CONTINUOUS
 62
           3
100
AcDbLine
 10
4683.179205573572
 20
1393.003411590993
 11
4683.903805503274
 21
1393.072016537195
  0
LINE
  5
174
100
AcDbEntity
  8
0
  6
CONTINUOUS
 62
           3
100
AcDbLine
 10
4683.903805503274
 20
1393.072016537195
 11
4684.844723494172
 21
1393.116392195194
  0
LINE
  5
173
100
AcDbEntity
  8
0
  6
CONTINUOUS
 62
           3
100
AcDbLine
 10
4684.844723494172
 20
1393.116392195194
 11
4685.899996721674
 21
1393.131740391395
  0
LINE
  5
172
100
AcDbEntity
  8
1
  6
CONTINUOUS
 62
           3
100
AcDbLine
 10
5190.163567691041
 20
1919.128165004936
 11
5185.254330418633
 21
1919.128165004936
  0
LINE
  5
171
100
AcDbEntity
  8
1
  6
DOT_CENTER
 62
           3
100
AcDbLine
 10
5190.163567691041
 20
1938.643555804876
 11
5190.163567691041
 21
1907.508008255128
  0
LINE
  5
170
100
AcDbEntity
  8
1
  6
CONTINUOUS
 62
           3
100
AcDbLine
 10
5185.254330418633
 20
1930.871834995071
 11
5190.163567691041
 21
1930.871834995071
  0
LINE
  5
16F
100
AcDbEntity
  8
1
  6
CONTINUOUS
 62
           3
100
AcDbLine
 10
5185.254330418633
 20
1932.693746580042
 11
5179.389214871942
 21
1932.693746580042
  0
LINE
  5
16E
100
AcDbEntity
  8
1
  6
CONTINUOUS
 62
           3
100
AcDbLine
 10
5185.254330418633
 20
1917.306253419963
 11
5179.389214871942
 21
1917.306253419963
  0
LINE
  5
16D
100
AcDbEntity
  8
1
  6
CONTINUOUS
 62
           3
100
AcDbLine
 10
5185.254330418633
 20
1917.306253419963
 11
5185.254330418633
 21
1932.693746580042
  0
LINE
  5
16C
100
AcDbEntity
  8
1
  6
CONTINUOUS
 62
           3
100
AcDbLine
 10
5179.389214871942
 20
1917.306253419963
 11
5179.389214871942
 21
1932.693746580042
  0
LINE
  5
16B
100
AcDbEntity
  8
1
  6
CONTINUOUS
 62
           3
100
AcDbLine
 10
5179.389214871942
 20
1932.693746580042
 11
5179.389214871942
 21
1933.250000000002
  0
LINE
  5
16A
100
AcDbEntity
  8
1
  6
CONTINUOUS
 62
           3
100
AcDbLine
 10
5169.714603906643
 20
1925.000000000002
 11
5169.714603906643
 21
1933.250000000002
  0
LINE
  5
169
100
AcDbEntity
  8
1
  6
CONTINUOUS
 62
           3
100
AcDbLine
 10
5169.714603906643
 20
1933.250000000002
 11
5179.389214871942
 21
1933.250000000002
  0
LINE
  5
168
100
AcDbEntity
  8
1
  6
CONTINUOUS
 62
           3
100
AcDbLine
 10
5168.868798384461
 20
1931.000000000002
 11
5169.714603906643
 21
1931.000000000002
  0
LINE
  5
167
100
AcDbEntity
  8
1
  6
CONTINUOUS
 62
           3
100
AcDbLine
 10
5168.868798384461
 20
1925.000000000002
 11
5168.868798384461
 21
1932.693746580042
  0
LINE
  5
166
100
AcDbEntity
  8
1
  6
CONTINUOUS
 62
           3
100
AcDbLine
 10
5168.163567691041
 20
1932.693746580042
 11
5168.868798384461
 21
1932.693746580042
  0
LINE
  5
165
100
AcDbEntity
  8
1
  6
CONTINUOUS
 62
           3
100
AcDbLine
 10
5167.663567691041
 20
1932.193746580042
 11
5167.663567691041
 21
1925.000000000002
  0
LINE
  5
164
100
AcDbEntity
  8
1
  6
CONTINUOUS
 62
           3
100
AcDbLine
 10
5167.663567691041
 20
1925.000000000002
 11
5167.663567691041
 21
1917.806253419963
  0
LINE
  5
163
100
AcDbEntity
  8
1
  6
CONTINUOUS
 62
           3
100
AcDbLine
 10
5168.868798384461
 20
1917.306253419963
 11
5168.163567691041
 21
1917.306253419963
  0
LINE
  5
162
100
AcDbEntity
  8
1
  6
CONTINUOUS
 62
           3
100
AcDbLine
 10
5168.868798384461
 20
1917.306253419963
 11
5168.868798384461
 21
1925.000000000002
  0
LINE
  5
161
100
AcDbEntity
  8
1
  6
CONTINUOUS
 62
           3
100
AcDbLine
 10
5169.714603906643
 20
1919.000000000002
 11
5168.868798384461
 21
1919.000000000002
  0
LINE
  5
160
100
AcDbEntity
  8
1
  6
CONTINUOUS
 62
           3
100
AcDbLine
 10
5169.714603906643
 20
1916.750000000002
 11
5169.714603906643
 21
1925.000000000002
  0
LINE
  5
15F
100
AcDbEntity
  8
1
  6
CONTINUOUS
 62
           3
100
AcDbLine
 10
5179.389214871942
 20
1916.750000000002
 11
5169.714603906643
 21
1916.750000000002
  0
LINE
  5
15E
100
AcDbEntity
  8
1
  6
CONTINUOUS
 62
           3
100
AcDbLine
 10
5179.389214871942
 20
1916.750000000002
 11
5179.389214871942
 21
1917.306253419963
  0
LINE
  5
15D
100
AcDbEntity
  8
1
  6
DOT_CENTER
 62
           3
100
AcDbLine
 10
5166.218519558621
 20
1925.000000000002
 11
5207.66769526244
 21
1925.000000000002
  0
LINE
  5
15C
100
AcDbEntity
  8
1
  6
CONTINUOUS
 62
           3
100
AcDbLine
 10
5184.489527668229
 20
1917.306253419963
 11
5190.163567691041
 21
1914.0303448854
  0
LINE
  5
15B
100
AcDbEntity
  8
1
  6
CONTINUOUS
 62
           3
100
AcDbLine
 10
5190.163567691041
 20
1914.0303448854
 11
5199.663567691041
 21
1919.515172442701
  0
LINE
  5
15A
100
AcDbEntity
  8
1
  6
CONTINUOUS
 62
           3
100
AcDbLine
 10
5199.663567691041
 20
1919.515172442701
 11
5199.663567691041
 21
1930.484827557304
  0
LINE
  5
159
100
AcDbEntity
  8
1
  6
CONTINUOUS
 62
           3
100
AcDbLine
 10
5199.663567691041
 20
1930.484827557304
 11
5190.163567691041
 21
1935.969655114604
  0
LINE
  5
158
100
AcDbEntity
  8
1
  6
CONTINUOUS
 62
           3
100
AcDbLine
 10
5190.163567691041
 20
1935.969655114604
 11
5184.489527668222
 21
1932.693746580042
  0
LINE
  5
157
100
AcDbEntity
  8
1
  6
CONTINUOUS
 62
           7
100
AcDbLine
 10
740.20782566436
 20
2150.0
 11
740.20782566436
 21
2155.683280999348
  0
LINE
  5
156
100
AcDbEntity
  8
1
  6
CONTINUOUS
 62
           7
100
AcDbLine
 10
815.207825664359
 20
2150.0
 11
815.20782566436
 21
2155.683280999348
  0
LINE
  5
155
100
AcDbEntity
  8
1
  6
CONTINUOUS
 62
           7
100
AcDbLine
 10
840.20782566436
 20
2171.000000000001
 11
840.20782566436
 21
2150.000000000001
  0
LINE
  5
154
100
AcDbEntity
  8
1
  6
CONTINUOUS
 62
           7
100
AcDbLine
 10
732.70782566436
 20
2184.000000000001
 11
822.70782566436
 21
2184.000000000001
  0
LINE
  5
153
100
AcDbEntity
  8
1
  6
CONTINUOUS
 62
           7
100
AcDbLine
 10
822.70782566436
 20
2171.000000000001
 11
840.20782566436
 21
2171.000000000001
  0
LINE
  5
152
100
AcDbEntity
  8
1
  6
CONTINUOUS
 62
           7
100
AcDbLine
 10
732.70782566436
 20
2171.000000000001
 11
715.20782566436
 21
2171.000000000001
  0
LINE
  5
151
100
AcDbEntity
  8
1
  6
CONTINUOUS
 62
           7
100
AcDbLine
 10
715.20782566436
 20
2171.000000000001
 11
715.20782566436
 21
2150.000000000001
  0
LINE
  5
150
100
AcDbEntity
  8
1
  6
CONTINUOUS
 62
           7
100
AcDbLine
 10
732.70782566436
 20
2188.000000000001
 11
732.70782566436
 21
2171.000000000001
  0
LINE
  5
14F
100
AcDbEntity
  8
1
  6
CONTINUOUS
 62
           7
100
AcDbLine
 10
814.70782566436
 20
2196.000000000001
 11
740.70782566436
 21
2196.000000000001
  0
LINE
  5
14E
100
AcDbEntity
  8
1
  6
CONTINUOUS
 62
           7
100
AcDbLine
 10
822.70782566436
 20
2188.000000000001
 11
822.70782566436
 21
2171.000000000001
  0
LINE
  5
14D
100
AcDbEntity
  8
1
  6
CONTINUOUS
 62
           7
100
AcDbLine
 10
762.70782566436
 20
2156.000000000001
 11
762.70782566436
 21
2150.000000000001
  0
LINE
  5
14C
100
AcDbEntity
  8
1
  6
CONTINUOUS
 62
           7
100
AcDbLine
 10
792.70782566436
 20
2156.000000000001
 11
792.70782566436
 21
2150.000000000001
  0
LINE
  5
14B
100
AcDbEntity
  8
1
  6
DOT_CENTER
 62
           2
100
AcDbLine
 10
777.70782566436
 20
2202.686878034487
 11
777.70782566436
 21
2107.007003733832
  0
LINE
  5
14A
100
AcDbEntity
  8
1
  6
CONTINUOUS
 62
           7
100
AcDbLine
 10
561.70782566436
 20
3885.0
 11
561.70782566436
 21
4237.000000000002
  0
LINE
  5
149
100
AcDbEntity
  8
1
  6
CONTINUOUS
 62
           7
100
AcDbLine
 10
1893.70782566436
 20
3885.0
 11
561.70782566436
 21
3885.0
  0
LINE
  5
148
100
AcDbEntity
  8
1
  6
CONTINUOUS
 62
           7
100
AcDbLine
 10
611.70782566436
 20
3935.0
 11
611.70782566436
 21
4187.000000000002
  0
LINE
  5
147
100
AcDbEntity
  8
1
  6
CONTINUOUS
 62
           7
100
AcDbLine
 10
1843.70782566436
 20
3935.0
 11
611.70782566436
 21
3935.0
  0
LINE
  5
146
100
AcDbEntity
  8
1
  6
CONTINUOUS
 62
           7
100
AcDbLine
 10
1843.70782566436
 20
4187.000000000002
 11
1843.70782566436
 21
3935.0
  0
LINE
  5
145
100
AcDbEntity
  8
1
  6
CONTINUOUS
 62
           7
100
AcDbLine
 10
611.70782566436
 20
4187.000000000002
 11
1843.70782566436
 21
4187.000000000002
  0
LINE
  5
144
100
AcDbEntity
  8
1
  6
CONTINUOUS
 62
           7
100
AcDbLine
 10
1893.70782566436
 20
4237.000000000002
 11
1893.70782566436
 21
3885.0
  0
LINE
  5
143
100
AcDbEntity
  8
1
  6
CONTINUOUS
 62
           7
100
AcDbLine
 10
561.70782566436
 20
4237.000000000002
 11
1893.70782566436
 21
4237.000000000002
  0
LINE
  5
142
100
AcDbEntity
  8
1
  6
DOT_CENTER
 62
           2
100
AcDbLine
 10
-722.29217433564
 20
2202.686878034487
 11
-722.29217433564
 21
2107.007003733832
  0
LINE
  5
141
100
AcDbEntity
  8
1
  6
CONTINUOUS
 62
           7
100
AcDbLine
 10
4005.000000000002
 20
2136.000000000001
 11
4005.000000000002
 21
2156.000000000001
  0
LINE
  5
140
100
AcDbEntity
  8
1
  6
CONTINUOUS
 62
           7
100
AcDbLine
 10
4035.000000000002
 20
2136.000000000001
 11
4035.000000000002
 21
2156.000000000001
  0
LINE
  5
13F
100
AcDbEntity
  8
1
  6
CONTINUOUS
 62
           7
100
AcDbLine
 10
3975.000000000002
 20
2171.000000000001
 11
3975.000000000002
 21
2188.000000000001
  0
LINE
  5
13E
100
AcDbEntity
  8
1
  6
CONTINUOUS
 62
           7
100
AcDbLine
 10
4057.000000000002
 20
2196.000000000001
 11
3983.000000000002
 21
2196.000000000001
  0
LINE
  5
13D
100
AcDbEntity
  8
1
  6
CONTINUOUS
 62
           7
100
AcDbLine
 10
4065.000000000002
 20
2171.000000000001
 11
4065.000000000002
 21
2188.000000000001
  0
LINE
  5
13C
100
AcDbEntity
  8
1
  6
CONTINUOUS
 62
           7
100
AcDbLine
 10
4082.500000000002
 20
2136.000000000001
 11
4082.500000000002
 21
2171.000000000001
  0
LINE
  5
13B
100
AcDbEntity
  8
1
  6
CONTINUOUS
 62
           7
100
AcDbLine
 10
4082.500000000002
 20
2171.000000000001
 11
4065.000000000002
 21
2171.000000000001
  0
LINE
  5
13A
100
AcDbEntity
  8
1
  6
CONTINUOUS
 62
           7
100
AcDbLine
 10
3957.500000000002
 20
2136.000000000001
 11
3957.500000000002
 21
2171.000000000001
  0
LINE
  5
139
100
AcDbEntity
  8
1
  6
CONTINUOUS
 62
           7
100
AcDbLine
 10
3957.500000000002
 20
2171.000000000001
 11
3975.000000000002
 21
2171.000000000001
  0
LINE
  5
138
100
AcDbEntity
  8
1
  6
CONTINUOUS
 62
           7
100
AcDbLine
 10
4057.500000000002
 20
2155.683280999348
 11
4057.500000000002
 21
2136.000000000001
  0
LINE
  5
137
100
AcDbEntity
  8
1
  6
CONTINUOUS
 62
           7
100
AcDbLine
 10
3982.500000000002
 20
2155.683280999348
 11
3982.500000000002
 21
2136.000000000001
  0
LINE
  5
136
100
AcDbEntity
  8
1
  6
CONTINUOUS
 62
           7
100
AcDbLine
 10
3975.000000000002
 20
2184.000000000001
 11
4065.000000000002
 21
2184.000000000001
  0
LINE
  5
135
100
AcDbEntity
  8
1
  6
CONTINUOUS
 62
           7
100
AcDbLine
 10
4146.000000000002
 20
2136.000000000001
 11
4146.000000000002
 21
2050.000000000001
  0
LINE
  5
134
100
AcDbEntity
  8
1
  6
CONTINUOUS
 62
           7
100
AcDbLine
 10
3894.000000000002
 20
2136.000000000001
 11
4146.000000000002
 21
2136.000000000001
  0
LINE
  5
133
100
AcDbEntity
  8
1
  6
CONTINUOUS
 62
           7
100
AcDbLine
 10
-707.29217433564
 20
2156.000000000001
 11
-707.29217433564
 21
2150.000000000001
  0
LINE
  5
132
100
AcDbEntity
  8
1
  6
CONTINUOUS
 62
           7
100
AcDbLine
 10
-737.29217433564
 20
2156.000000000001
 11
-737.29217433564
 21
2150.000000000001
  0
LINE
  5
131
100
AcDbEntity
  8
1
  6
CONTINUOUS
 62
           7
100
AcDbLine
 10
-677.29217433564
 20
2188.000000000001
 11
-677.29217433564
 21
2171.000000000001
  0
LINE
  5
130
100
AcDbEntity
  8
1
  6
CONTINUOUS
 62
           7
100
AcDbLine
 10
-685.29217433564
 20
2196.000000000001
 11
-759.29217433564
 21
2196.000000000001
  0
LINE
  5
12F
100
AcDbEntity
  8
1
  6
CONTINUOUS
 62
           7
100
AcDbLine
 10
-767.29217433564
 20
2188.000000000001
 11
-767.29217433564
 21
2171.000000000001
  0
LINE
  5
12E
100
AcDbEntity
  8
1
  6
CONTINUOUS
 62
           7
100
AcDbLine
 10
-784.79217433564
 20
2171.000000000001
 11
-784.79217433564
 21
2150.000000000001
  0
LINE
  5
12D
100
AcDbEntity
  8
1
  6
CONTINUOUS
 62
           7
100
AcDbLine
 10
-767.29217433564
 20
2171.000000000001
 11
-784.79217433564
 21
2171.000000000001
  0
LINE
  5
12C
100
AcDbEntity
  8
1
  6
CONTINUOUS
 62
           7
100
AcDbLine
 10
-677.29217433564
 20
2171.000000000001
 11
-659.79217433564
 21
2171.000000000001
  0
LINE
  5
12B
100
AcDbEntity
  8
1
  6
CONTINUOUS
 62
           7
100
AcDbLine
 10
-767.29217433564
 20
2184.000000000001
 11
-677.29217433564
 21
2184.000000000001
  0
LINE
  5
12A
100
AcDbEntity
  8
1
  6
CONTINUOUS
 62
           7
100
AcDbLine
 10
3894.000000000002
 20
2050.000000000001
 11
3894.000000000002
 21
2136.000000000001
  0
LINE
  5
129
100
AcDbEntity
  8
1
  6
CONTINUOUS
 62
           7
100
AcDbLine
 10
-938.29217433564
 20
4237.000000000002
 11
393.70782566436
 21
4237.000000000002
  0
LINE
  5
128
100
AcDbEntity
  8
1
  6
CONTINUOUS
 62
           7
100
AcDbLine
 10
393.70782566436
 20
4237.000000000002
 11
393.70782566436
 21
3885.0
  0
LINE
  5
127
100
AcDbEntity
  8
1
  6
CONTINUOUS
 62
           7
100
AcDbLine
 10
393.70782566436
 20
3885.0
 11
-938.29217433564
 21
3885.0
  0
LINE
  5
126
100
AcDbEntity
  8
1
  6
CONTINUOUS
 62
           7
100
AcDbLine
 10
-938.29217433564
 20
3885.0
 11
-938.29217433564
 21
4237.000000000002
  0
LINE
  5
125
100
AcDbEntity
  8
1
  6
CONTINUOUS
 62
           7
100
AcDbLine
 10
-888.29217433564
 20
4187.000000000002
 11
343.70782566436
 21
4187.000000000002
  0
LINE
  5
124
100
AcDbEntity
  8
1
  6
CONTINUOUS
 62
           7
100
AcDbLine
 10
343.70782566436
 20
4187.000000000002
 11
343.70782566436
 21
3935.0
  0
LINE
  5
123
100
AcDbEntity
  8
1
  6
CONTINUOUS
 62
           7
100
AcDbLine
 10
343.70782566436
 20
3935.0
 11
-888.29217433564
 21
3935.0
  0
LINE
  5
122
100
AcDbEntity
  8
1
  6
CONTINUOUS
 62
           7
100
AcDbLine
 10
-888.29217433564
 20
3935.0
 11
-888.29217433564
 21
4187.000000000002
  0
LINE
  5
121
100
AcDbEntity
  8
1
  6
CONTINUOUS
 62
           7
100
AcDbLine
 10
-659.79217433564
 20
2171.000000000001
 11
-659.79217433564
 21
2150.000000000001
  0
LINE
  5
120
100
AcDbEntity
  8
1
  6
CONTINUOUS
 62
           7
100
AcDbLine
 10
-684.792174335641
 20
2150.0
 11
-684.79217433564
 21
2155.683280999348
  0
LINE
  5
11F
100
AcDbEntity
  8
1
  6
CONTINUOUS
 62
           7
100
AcDbLine
 10
-759.79217433564
 20
2150.000000000001
 11
-759.79217433564
 21
2155.683280999348
  0
LINE
  5
11E
100
AcDbEntity
  8
1
  6
CONTINUOUS
 62
           7
100
AcDbLine
 10
2027.70782566436
 20
3811.0
 11
2027.70782566436
 21
4311.0
  0
LINE
  5
11D
100
AcDbEntity
  8
1
  6
CONTINUOUS
 62
           4
100
AcDbLine
 10
2032.70782566436
 20
4311.0
 11
2027.70782566436
 21
4311.0
  0
LINE
  5
11C
100
AcDbEntity
  8
1
  6
CONTINUOUS
 62
           4
100
AcDbLine
 10
2032.70782566436
 20
3811.0
 11
2032.70782566436
 21
4311.0
  0
LINE
  5
11B
100
AcDbEntity
  8
1
  6
CONTINUOUS
 62
           4
100
AcDbLine
 10
2027.70782566436
 20
3811.0
 11
2032.70782566436
 21
3811.0
  0
LINE
  5
11A
100
AcDbEntity
  8
1
  6
CONTINUOUS
 62
           2
100
AcDbLine
 10
3790.000000000001
 20
1330.000000000001
 11
3790.0
 21
20.0
  0
LINE
  5
119
100
AcDbEntity
  8
1
  6
CONTINUOUS
 62
           2
100
AcDbLine
 10
4250.0
 20
1670.000000000001
 11
4250.0
 21
1980.0
  0
LINE
  5
118
100
AcDbEntity
  8
1
  6
CONTINUOUS
 62
           2
100
AcDbLine
 10
-182.29217433564
 20
5790.999999999999
 11
-1002.292174335641
 21
5790.999999999999
  0
LINE
  5
117
100
AcDbEntity
  8
1
  6
CONTINUOUS
 62
           7
100
AcDbLine
 10
-172.29217433564
 20
5810.999999999999
 11
-1072.292174335641
 21
5810.999999999999
  0
LINE
  5
116
100
AcDbEntity
  8
1
  6
CONTINUOUS
 62
           2
100
AcDbLine
 10
3790.000000000001
 20
1980.0
 11
3790.000000000001
 21
1670.000000000001
  0
LINE
  5
115
100
AcDbEntity
  8
1
  6
DOT_CENTER
 62
           2
100
AcDbLine
 10
4020.000000000001
 20
2213.047564257508
 11
4020.000000000001
 21
1952.971615365412
  0
LINE
  5
114
100
AcDbEntity
  8
1
  6
DOT_CENTER
 62
           2
100
AcDbLine
 10
5069.999999999998
 20
675.0
 11
5069.999999999998
 21
525.0
  0
LINE
  5
113
100
AcDbEntity
  8
1
  6
DOT_CENTER
 62
           2
100
AcDbLine
 10
4994.999999999998
 20
600.0
 11
5144.999999999998
 21
600.0
  0
LINE
  5
112
100
AcDbEntity
  8
1
  6
CONTINUOUS
 62
           7
100
AcDbLine
 10
3770.000000000001
 20
2050.0
 11
5769.999999999998
 21
2050.0
  0
LINE
  5
111
100
AcDbEntity
  8
1
  6
CONTINUOUS
 62
           2
100
AcDbLine
 10
3770.000000000001
 20
2004.0
 11
4770.0
 21
2004.0
  0
LINE
  5
110
100
AcDbEntity
  8
1
  6
CONTINUOUS
 62
           7
100
AcDbLine
 10
5769.999999999998
 20
2000.0
 11
3770.000000000001
 21
2000.0
  0
LINE
  5
10F
100
AcDbEntity
  8
1
  6
CONTINUOUS
 62
           7
100
AcDbLine
 10
5769.999999999998
 20
0.0
 11
5769.999999999998
 21
2075.0
  0
LINE
  5
10E
100
AcDbEntity
  8
1
  6
CONTINUOUS
 62
           7
100
AcDbLine
 10
3770.0
 20
0.0
 11
3770.000000000001
 21
2050.0
  0
LINE
  5
10D
100
AcDbEntity
  8
1
  6
CONTINUOUS
 62
           2
100
AcDbLine
 10
3790.0
 20
20.0
 11
4250.0
 21
20.0
  0
LINE
  5
10C
100
AcDbEntity
  8
1
  6
CONTINUOUS
 62
           2
100
AcDbLine
 10
4250.0
 20
20.0
 11
4250.0
 21
1330.000000000001
  0
LINE
  5
10B
100
AcDbEntity
  8
1
  6
CONTINUOUS
 62
           2
100
AcDbLine
 10
4250.0
 20
1980.0
 11
3790.000000000001
 21
1980.0
  0
LINE
  5
10A
100
AcDbEntity
  8
1
  6
CONTINUOUS
 62
           7
100
AcDbLine
 10
4270.0
 20
0.0
 11
4270.0
 21
2000.0
  0
LINE
  5
109
100
AcDbEntity
  8
1
  6
CONTINUOUS
 62
           7
100
AcDbLine
 10
4270.0
 20
500.0
 11
5769.999999999998
 21
500.0
  0
LINE
  5
108
100
AcDbEntity
  8
1
  6
CONTINUOUS
 62
           2
100
AcDbLine
 10
5749.433325304561
 20
479.385061529882
 11
4290.0
 21
479.385061529882
  0
LINE
  5
107
100
AcDbEntity
  8
1
  6
CONTINUOUS
 62
           2
100
AcDbLine
 10
4290.0
 20
479.385061529882
 11
4290.0
 21
20.0
  0
LINE
  5
106
100
AcDbEntity
  8
1
  6
CONTINUOUS
 62
           2
100
AcDbLine
 10
4290.0
 20
20.0
 11
5749.433325304561
 21
20.0
  0
LINE
  5
105
100
AcDbEntity
  8
1
  6
CONTINUOUS
 62
           2
100
AcDbLine
 10
5749.433325304561
 20
20.0
 11
5749.433325304561
 21
479.385061529882
  0
LINE
  5
104
100
AcDbEntity
  8
1
  6
CONTINUOUS
 62
           2
100
AcDbLine
 10
4750.0
 20
1980.0
 11
4290.0
 21
1980.0
  0
LINE
  5
103
100
AcDbEntity
  8
1
  6
CONTINUOUS
 62
           2
100
AcDbLine
 10
4290.0
 20
1980.0
 11
4290.0
 21
520.0
  0
LINE
  5
102
100
AcDbEntity
  8
1
  6
CONTINUOUS
 62
           2
100
AcDbLine
 10
4290.0
 20
520.0
 11
4750.0
 21
520.0
  0
LINE
  5
101
100
AcDbEntity
  8
1
  6
CONTINUOUS
 62
           2
100
AcDbLine
 10
4790.0
 20
520.0
 11
5749.999999999998
 21
520.0
  0
LINE
  5
100
100
AcDbEntity
  8
1
  6
CONTINUOUS
 62
           2
100
AcDbLine
 10
5749.999999999998
 20
520.0
 11
5749.999999999998
 21
1980.0
  0
LINE
  5
FF
100
AcDbEntity
  8
1
  6
CONTINUOUS
 62
           2
100
AcDbLine
 10
5749.999999999998
 20
1980.0
 11
4790.0
 21
1980.0
  0
LINE
  5
FE
100
AcDbEntity
  8
1
  6
CONTINUOUS
 62
           7
100
AcDbLine
 10
6269.999999999996
 20
0.0
 11
3270.0
 21
0.0
  0
LINE
  5
FD
100
AcDbEntity
  8
1
  6
CONTINUOUS
 62
           7
100
AcDbLine
 10
4500.0
 20
1570.0
 11
4500.0
 21
1330.0
  0
LINE
  5
FC
100
AcDbEntity
  8
1
  6
CONTINUOUS
 62
           7
100
AcDbLine
 10
4320.0
 20
1330.0
 11
4320.0
 21
1570.0
  0
LINE
  5
FB
100
AcDbEntity
  8
1
  6
CONTINUOUS
 62
           7
100
AcDbLine
 10
4320.0
 20
1570.0
 11
4500.0
 21
1570.0
  0
LINE
  5
FA
100
AcDbEntity
  8
1
  6
CONTINUOUS
 62
           7
100
AcDbLine
 10
4500.0
 20
1330.0
 11
4320.0
 21
1330.0
  0
LINE
  5
F9
100
AcDbEntity
  8
1
  6
CONTINUOUS
 62
           7
100
AcDbLine
 10
4010.000000000001
 20
1950.0
 11
3820.000000000001
 21
1950.0
  0
LINE
  5
F8
100
AcDbEntity
  8
1
  6
CONTINUOUS
 62
           7
100
AcDbLine
 10
3820.000000000001
 20
1950.0
 11
3820.000000000001
 21
1862.0
  0
LINE
  5
F7
100
AcDbEntity
  8
1
  6
CONTINUOUS
 62
           7
100
AcDbLine
 10
3820.000000000001
 20
1862.0
 11
4010.000000000001
 21
1862.0
  0
LINE
  5
F6
100
AcDbEntity
  8
1
  6
CONTINUOUS
 62
           7
100
AcDbLine
 10
4010.000000000001
 20
1862.0
 11
4010.000000000001
 21
1950.0
  0
LINE
  5
F5
100
AcDbEntity
  8
1
  6
CONTINUOUS
 62
           7
100
AcDbLine
 10
4770.0
 20
2075.0
 11
5769.999999999998
 21
2075.0
  0
LINE
  5
F4
100
AcDbEntity
  8
1
  6
CONTINUOUS
 62
           7
100
AcDbLine
 10
2107.90928081192
 20
0.0
 11
-1166.15010598093
 21
0.0
  0
LINE
  5
F3
100
AcDbEntity
  8
1
  6
CONTINUOUS
 62
           2
100
AcDbLine
 10
1957.70782566436
 20
4790.999999999999
 11
532.688215936213
 21
4790.999999999997
  0
LINE
  5
F2
100
AcDbEntity
  8
1
  6
CONTINUOUS
 62
           2
100
AcDbLine
 10
1957.70782566436
 20
4790.999999999999
 11
1957.70782566436
 21
3861.0
  0
LINE
  5
F1
100
AcDbEntity
  8
1
  6
CONTINUOUS
 62
           2
100
AcDbLine
 10
997.70782566436
 20
5790.999999999999
 11
1957.70782566436
 21
5790.999999999999
  0
LINE
  5
F0
100
AcDbEntity
  8
1
  6
CONTINUOUS
 62
           2
100
AcDbLine
 10
1957.70782566436
 20
5790.999999999999
 11
1957.70782566436
 21
4830.999999999999
  0
LINE
  5
EF
100
AcDbEntity
  8
1
  6
CONTINUOUS
 62
           7
100
AcDbLine
 10
2027.70782566436
 20
3811.0
 11
2027.70782566436
 21
5810.999999999999
  0
LINE
  5
EE
100
AcDbEntity
  8
1
  6
DOT_CENTER
 62
           2
100
AcDbLine
 10
477.70782566436
 20
3011.015446366161
 11
477.70782566436
 21
-70.871409215039
  0
LINE
  5
ED
100
AcDbEntity
  8
1
  6
CONTINUOUS
 62
           7
100
AcDbLine
 10
1962.70782566436
 20
540.0
 11
492.70782566436
 21
540.0
  0
LINE
  5
EC
100
AcDbEntity
  8
1
  6
CONTINUOUS
 62
           7
100
AcDbLine
 10
-1022.292174335641
 20
500.0
 11
-1007.292174335641
 21
500.0
  0
LINE
  5
EB
100
AcDbEntity
  8
1
  6
CONTINUOUS
 62
           7
100
AcDbLine
 10
1962.70782566436
 20
500.0
 11
1977.70782566436
 21
500.0
  0
LINE
  5
EA
100
AcDbEntity
  8
1
  6
CONTINUOUS
 62
           7
100
AcDbLine
 10
-1022.292174335641
 20
800.0
 11
1977.70782566436
 21
800.0
  0
LINE
  5
E9
100
AcDbEntity
  8
1
  6
CONTINUOUS
 62
           7
100
AcDbLine
 10
492.70782566436
 20
540.0
 11
492.70782566436
 21
475.000000000002
  0
LINE
  5
E8
100
AcDbEntity
  8
1
  6
CONTINUOUS
 62
           7
100
AcDbLine
 10
1962.70782566436
 20
540.0
 11
1962.70782566436
 21
475.000000000002
  0
LINE
  5
E7
100
AcDbEntity
  8
1
  6
CONTINUOUS
 62
           7
100
AcDbLine
 10
-1022.292174335641
 20
400.0
 11
1977.70782566436
 21
400.0
  0
LINE
  5
E6
100
AcDbEntity
  8
1
  6
CONTINUOUS
 62
           7
100
AcDbLine
 10
1977.70782566436
 20
50.0
 11
-1022.292174335641
 21
50.0
  0
LINE
  5
E5
100
AcDbEntity
  8
1
  6
CONTINUOUS
 62
           7
100
AcDbLine
 10
1977.70782566436
 20
1900.0
 11
-1022.292174335641
 21
1900.0
  0
LINE
  5
E4
100
AcDbEntity
  8
1
  6
CONTINUOUS
 62
           7
100
AcDbLine
 10
1977.70782566436
 20
0.0
 11
1977.70782566436
 21
2000.0
  0
LINE
  5
E3
100
AcDbEntity
  8
1
  6
CONTINUOUS
 62
           7
100
AcDbLine
 10
-1022.292174335641
 20
0.0
 11
-1022.292174335641
 21
2000.0
  0
LINE
  5
E2
100
AcDbEntity
  8
1
  6
CONTINUOUS
 62
           7
100
AcDbLine
 10
2027.70782566436
 20
2000.0
 11
-1072.292174335641
 21
2000.0
  0
LINE
  5
E1
100
AcDbEntity
  8
1
  6
CONTINUOUS
 62
           7
100
AcDbLine
 10
-1072.292174335641
 20
2150.0
 11
-1072.292174335641
 21
0.0
  0
LINE
  5
E0
100
AcDbEntity
  8
1
  6
CONTINUOUS
 62
           7
100
AcDbLine
 10
2027.70782566436
 20
2150.0
 11
-1072.292174335641
 21
2150.0
  0
LINE
  5
DF
100
AcDbEntity
  8
1
  6
CONTINUOUS
 62
           7
100
AcDbLine
 10
2027.70782566436
 20
0.0
 11
2027.70782566436
 21
2150.0
  0
LINE
  5
DE
100
AcDbEntity
  8
1
  6
CONTINUOUS
 62
           2
100
AcDbLine
 10
997.70782566436
 20
4830.999999999999
 11
1957.70782566436
 21
4830.999999999999
  0
LINE
  5
DD
100
AcDbEntity
  8
1
  6
CONTINUOUS
 62
           7
100
AcDbLine
 10
2027.70782566436
 20
5810.999999999999
 11
477.70782566436
 21
5810.999999999999
  0
LINE
  5
DC
100
AcDbEntity
  8
1
  6
CONTINUOUS
 62
           2
100
AcDbLine
 10
-1002.292174335641
 20
4830.999999999999
 11
-1002.292174335641
 21
5790.999999999999
  0
LINE
  5
DB
100
AcDbEntity
  8
1
  6
CONTINUOUS
 62
           2
100
AcDbLine
 10
-42.29217433564
 20
4830.999999999999
 11
-42.29217433564
 21
5008.571662593024
  0
LINE
  5
DA
100
AcDbEntity
  8
1
  6
CONTINUOUS
 62
           7
100
AcDbLine
 10
-22.29217433564
 20
4810.999999999999
 11
-22.29217433564
 21
4985.307806183465
  0
LINE
  5
D9
100
AcDbEntity
  8
1
  6
CONTINUOUS
 62
           2
100
AcDbLine
 10
-1002.292174335641
 20
4830.999999999999
 11
-42.29217433564
 21
4830.999999999999
  0
LINE
  5
D8
100
AcDbEntity
  8
1
  6
CONTINUOUS
 62
           7
100
AcDbLine
 10
977.70782566436
 20
4810.999999999999
 11
977.70782566436
 21
5810.999999999999
  0
LINE
  5
D7
100
AcDbEntity
  8
1
  6
CONTINUOUS
 62
           2
100
AcDbLine
 10
1981.70782566436
 20
5810.999999999999
 11
1981.70782566436
 21
3861.0
  0
LINE
  5
D6
100
AcDbEntity
  8
1
  6
CONTINUOUS
 62
           7
100
AcDbLine
 10
1977.70782566436
 20
3861.0
 11
1977.70782566436
 21
5810.999999999999
  0
LINE
  5
D5
100
AcDbEntity
  8
1
  6
CONTINUOUS
 62
           2
100
AcDbLine
 10
-1026.292174335641
 20
5810.999999999999
 11
-1026.292174335641
 21
3861.0
  0
LINE
  5
D4
100
AcDbEntity
  8
1
  6
CONTINUOUS
 62
           7
100
AcDbLine
 10
-1022.292174335641
 20
3861.0
 11
-1022.292174335641
 21
5810.999999999999
  0
LINE
  5
D3
100
AcDbEntity
  8
1
  6
CONTINUOUS
 62
           2
100
AcDbLine
 10
-1002.292174335641
 20
4790.999999999999
 11
-1002.292174335641
 21
3861.0
  0
LINE
  5
D2
100
AcDbEntity
  8
1
  6
CONTINUOUS
 62
           7
100
AcDbLine
 10
-1072.292174335641
 20
3861.0
 11
2027.70782566436
 21
3861.0
  0
LINE
  5
D1
100
AcDbEntity
  8
1
  6
CONTINUOUS
 62
           2
100
AcDbLine
 10
457.70782566436
 20
3861.0
 11
457.70782566436
 21
4781.694745401114
  0
LINE
  5
D0
100
AcDbEntity
  8
1
  6
CONTINUOUS
 62
           7
100
AcDbLine
 10
-1072.292174335641
 20
4810.999999999999
 11
247.182236831774
 21
4810.999999999999
  0
LINE
  5
CF
100
AcDbEntity
  8
1
  6
CONTINUOUS
 62
           7
100
AcDbLine
 10
-1072.292174335641
 20
5810.999999999999
 11
-1072.292174335641
 21
3811.0
  0
LINE
  5
CE
100
AcDbEntity
  8
1
  6
CONTINUOUS
 62
           7
100
AcDbLine
 10
-1072.292174335641
 20
3811.0
 11
2027.70782566436
 21
3811.0
  0
LINE
  5
CD
100
AcDbEntity
  8
1
  6
CONTINUOUS
 62
           7
100
AcDbLine
 10
-684.792174335642
 20
4046.0
 11
-704.865767464447
 21
4046.0
  0
LINE
  5
CC
100
AcDbEntity
  8
1
  6
CONTINUOUS
 62
           7
100
AcDbLine
 10
-762.292174335641
 20
3998.5
 11
-762.292174335641
 21
4018.573593128806
  0
LINE
  5
CB
100
AcDbEntity
  8
1
  6
CONTINUOUS
 62
           7
100
AcDbLine
 10
-809.792174335641
 20
4076.0
 11
-789.718581206833
 21
4076.0
  0
LINE
  5
CA
100
AcDbEntity
  8
1
  6
CONTINUOUS
 62
           7
100
AcDbLine
 10
-684.792174335642
 20
4076.0
 11
-684.792174335642
 21
4046.0
  0
LINE
  5
C9
100
AcDbEntity
  8
1
  6
CONTINUOUS
 62
           7
100
AcDbLine
 10
-732.292174335641
 20
3998.5
 11
-762.292174335641
 21
3998.5
  0
LINE
  5
C8
100
AcDbEntity
  8
1
  6
CONTINUOUS
 62
           7
100
AcDbLine
 10
-809.792174335641
 20
4046.0
 11
-809.792174335641
 21
4076.0
  0
LINE
  5
C7
100
AcDbEntity
  8
1
  6
CONTINUOUS
 62
           7
100
AcDbLine
 10
-704.865767464447
 20
4076.0
 11
-684.792174335642
 21
4076.0
  0
LINE
  5
C6
100
AcDbEntity
  8
1
  6
CONTINUOUS
 62
           7
100
AcDbLine
 10
-732.292174335641
 20
4018.573593128806
 11
-732.292174335641
 21
3998.5
  0
LINE
  5
C5
100
AcDbEntity
  8
1
  6
CONTINUOUS
 62
           7
100
AcDbLine
 10
-789.718581206833
 20
4046.0
 11
-809.792174335641
 21
4046.0
  0
LINE
  5
C4
100
AcDbEntity
  8
1
  6
CONTINUOUS
 62
           7
100
AcDbLine
 10
-732.292174335641
 20
4123.5
 11
-732.292174335641
 21
4103.426406871191
  0
LINE
  5
C3
100
AcDbEntity
  8
1
  6
CONTINUOUS
 62
           7
100
AcDbLine
 10
-762.292174335641
 20
4123.5
 11
-732.292174335641
 21
4123.5
  0
LINE
  5
C2
100
AcDbEntity
  8
1
  6
CONTINUOUS
 62
           7
100
AcDbLine
 10
-762.292174335641
 20
4103.426406871191
 11
-762.292174335641
 21
4123.5
  0
LINE
  5
C1
100
AcDbEntity
  8
1
  6
DOT_CENTER
 62
           2
100
AcDbLine
 10
-978.205098360478
 20
4061.0
 11
407.632495561304
 21
4061.0
  0
LINE
  5
C0
100
AcDbEntity
  8
1
  6
DOT_CENTER
 62
           2
100
AcDbLine
 10
571.794901639522
 20
4061.0
 11
1957.632495561304
 21
4061.0
  0
LINE
  5
BF
100
AcDbEntity
  8
1
  6
CONTINUOUS
 62
           7
100
AcDbLine
 10
787.70782566436
 20
4103.426406871191
 11
787.70782566436
 21
4123.5
  0
LINE
  5
BE
100
AcDbEntity
  8
1
  6
CONTINUOUS
 62
           7
100
AcDbLine
 10
787.70782566436
 20
4123.5
 11
817.70782566436
 21
4123.5
  0
LINE
  5
BD
100
AcDbEntity
  8
1
  6
CONTINUOUS
 62
           7
100
AcDbLine
 10
817.70782566436
 20
4123.5
 11
817.70782566436
 21
4103.426406871191
  0
LINE
  5
BC
100
AcDbEntity
  8
1
  6
CONTINUOUS
 62
           7
100
AcDbLine
 10
760.281418793168
 20
4046.0
 11
740.20782566436
 21
4046.0
  0
LINE
  5
BB
100
AcDbEntity
  8
1
  6
CONTINUOUS
 62
           7
100
AcDbLine
 10
817.70782566436
 20
4018.573593128806
 11
817.70782566436
 21
3998.5
  0
LINE
  5
BA
100
AcDbEntity
  8
1
  6
CONTINUOUS
 62
           7
100
AcDbLine
 10
845.134232535553
 20
4076.0
 11
865.207825664359
 21
4076.0
  0
LINE
  5
B9
100
AcDbEntity
  8
1
  6
CONTINUOUS
 62
           7
100
AcDbLine
 10
740.20782566436
 20
4046.0
 11
740.20782566436
 21
4076.0
  0
LINE
  5
B8
100
AcDbEntity
  8
1
  6
CONTINUOUS
 62
           7
100
AcDbLine
 10
817.70782566436
 20
3998.5
 11
787.70782566436
 21
3998.5
  0
LINE
  5
B7
100
AcDbEntity
  8
1
  6
CONTINUOUS
 62
           7
100
AcDbLine
 10
865.207825664359
 20
4076.0
 11
865.207825664359
 21
4046.0
  0
LINE
  5
B6
100
AcDbEntity
  8
1
  6
CONTINUOUS
 62
           7
100
AcDbLine
 10
740.20782566436
 20
4076.0
 11
760.281418793168
 21
4076.0
  0
LINE
  5
B5
100
AcDbEntity
  8
1
  6
CONTINUOUS
 62
           7
100
AcDbLine
 10
787.70782566436
 20
3998.5
 11
787.70782566436
 21
4018.573593128806
  0
LINE
  5
B4
100
AcDbEntity
  8
1
  6
CONTINUOUS
 62
           7
100
AcDbLine
 10
865.207825664359
 20
4046.0
 11
845.134232535553
 21
4046.0
  0
LINE
  5
B3
100
AcDbEntity
  8
1
  6
CONTINUOUS
 62
           7
100
AcDbLine
 10
477.70782566436
 20
4783.108041752407
 11
477.70782566436
 21
3861.0
  0
LINE
  5
B2
100
AcDbEntity
  8
1
  6
CONTINUOUS
 62
           7
100
AcDbLine
 10
477.70782566436
 20
2000.0
 11
477.70782566436
 21
500.0
  0
LINE
  5
B1
100
AcDbEntity
  8
1
  6
CONTINUOUS
 62
           7
100
AcDbLine
 10
462.70782566436
 20
540.0
 11
-1007.292174335641
 21
540.0
  0
LINE
  5
B0
100
AcDbEntity
  8
1
  6
CONTINUOUS
 62
           7
100
AcDbLine
 10
462.70782566436
 20
500.0
 11
492.70782566436
 21
500.0
  0
LINE
  5
AF
100
AcDbEntity
  8
1
  6
CONTINUOUS
 62
           7
100
AcDbLine
 10
-1022.292174335641
 20
475.000000000002
 11
1977.70782566436
 21
475.000000000002
  0
LINE
  5
AE
100
AcDbEntity
  8
1
  6
CONTINUOUS
 62
           7
100
AcDbLine
 10
-1007.292174335641
 20
475.000000000002
 11
-1007.292174335641
 21
540.0
  0
LINE
  5
AD
100
AcDbEntity
  8
1
  6
CONTINUOUS
 62
           7
100
AcDbLine
 10
462.70782566436
 20
475.000000000002
 11
462.70782566436
 21
540.0
  0
LINE
  5
AC
100
AcDbEntity
  8
1
  6
CONTINUOUS
 62
           7
100
AcDbLine
 10
477.70782566436
 20
475.000000000002
 11
477.70782566436
 21
400.0
  0
LINE
  5
AB
100
AcDbEntity
  8
1
  6
CONTINUOUS
 62
           7
100
AcDbLine
 10
3770.000000000001
 20
2050.0
 11
3770.000000000001
 21
2150.0
  0
LINE
  5
AA
100
AcDbEntity
  8
1
  6
CONTINUOUS
 62
           7
100
AcDbLine
 10
3820.000000000001
 20
2120.0
 11
3820.000000000001
 21
2150.0
  0
LINE
  5
A9
100
AcDbEntity
  8
1
  6
CONTINUOUS
 62
           7
100
AcDbLine
 10
3770.000000000001
 20
2150.0
 11
3820.000000000001
 21
2150.0
  0
LINE
  5
A8
100
AcDbEntity
  8
1
  6
DOT_CENTER
 62
           2
100
AcDbLine
 10
-305.932710240787
 20
5350.999999999999
 11
1110.093156457006
 21
5350.999999999999
  0
LINE
  5
A7
100
AcDbEntity
  8
1
  6
CONTINUOUS
 62
           2
100
AcDbLine
 10
497.70782566436
 20
4785.292788603804
 11
497.70782566436
 21
3861.0
  0
LINE
  5
A6
100
AcDbEntity
  8
1
  6
CONTINUOUS
 62
           2
100
AcDbLine
 10
326.802460600248
 20
4790.999999999999
 11
-1002.292174335641
 21
4790.999999999999
  0
LINE
  5
A5
100
AcDbEntity
  8
1
  6
CONTINUOUS
 62
           7
100
AcDbLine
 10
605.636382509723
 20
4810.999999999999
 11
2027.70782566436
 21
4810.999999999999
  0
LINE
  5
A4
100
AcDbEntity
  8
1
  6
CONTINUOUS
 62
           2
100
AcDbLine
 10
997.70782566436
 20
5790.999999999999
 11
997.70782566436
 21
4830.999999999999
  0
LINE
  5
A3
100
AcDbEntity
  8
1
  6
CONTINUOUS
 62
           2
100
AcDbLine
 10
4012.499999999998
 20
1094.499999999994
 11
4032.573593128804
 21
1094.499999999994
  0
LINE
  5
A2
100
AcDbEntity
  8
1
  6
CONTINUOUS
 62
           2
100
AcDbLine
 10
4012.314185654642
 20
1064.499999999994
 11
4012.314185654642
 21
1094.499999999994
  0
LINE
  5
A1
100
AcDbEntity
  8
1
  6
CONTINUOUS
 62
           2
100
AcDbLine
 10
4085.0
 20
1141.999999999994
 11
4085.0
 21
1161.999999999994
  0
LINE
  5
A0
100
AcDbEntity
  8
1
  6
CONTINUOUS
 62
           2
100
AcDbLine
 10
4065.0
 20
1141.999999999994
 11
4065.0
 21
1161.999999999994
  0
LINE
  5
9F
100
AcDbEntity
  8
1
  6
CONTINUOUS
 62
           2
100
AcDbLine
 10
4032.573593128804
 20
1064.499999999994
 11
4012.499999999998
 21
1064.499999999994
  0
LINE
  5
9E
100
AcDbEntity
  8
1
  6
CONTINUOUS
 62
           2
100
AcDbLine
 10
4060.0
 20
1121.926406871187
 11
4060.0
 21
1141.999999999994
  0
LINE
  5
9D
100
AcDbEntity
  8
1
  6
CONTINUOUS
 62
           2
100
AcDbLine
 10
4060.0
 20
1141.999999999994
 11
4090.0
 21
1141.999999999994
  0
LINE
  5
9C
100
AcDbEntity
  8
1
  6
CONTINUOUS
 62
           2
100
AcDbLine
 10
4090.0
 20
1141.999999999994
 11
4090.0
 21
1121.926406871187
  0
LINE
  5
9B
100
AcDbEntity
  8
1
  6
CONTINUOUS
 62
           2
100
AcDbLine
 10
4090.0
 20
1016.999999999994
 11
4060.0
 21
1016.999999999994
  0
LINE
  5
9A
100
AcDbEntity
  8
1
  6
CONTINUOUS
 62
           2
100
AcDbLine
 10
4090.0
 20
1037.073593128801
 11
4090.0
 21
1016.999999999994
  0
LINE
  5
99
100
AcDbEntity
  8
1
  6
CONTINUOUS
 62
           2
100
AcDbLine
 10
4060.0
 20
1016.999999999994
 11
4060.0
 21
1037.073593128801
  0
LINE
  5
98
100
AcDbEntity
  8
1
  6
CONTINUOUS
 62
           7
100
AcDbLine
 10
4200.0
 20
1329.999999999997
 11
4269.999999999999
 21
1329.999999999997
  0
LINE
  5
97
100
AcDbEntity
  8
1
  6
CONTINUOUS
 62
           7
100
AcDbLine
 10
4200.000000000001
 20
1669.999999999991
 11
4269.999999999999
 21
1669.999999999992
  0
LINE
  5
96
100
AcDbEntity
  8
1
  6
CONTINUOUS
 62
           7
100
AcDbLine
 10
3770.0
 20
1329.999999999997
 11
3845.0
 21
1329.999999999997
  0
LINE
  5
95
100
AcDbEntity
  8
1
  6
CONTINUOUS
 62
           7
100
AcDbLine
 10
3770.0
 20
1669.999999999992
 11
3950.0
 21
1669.999999999992
  0
LINE
  5
94
100
AcDbEntity
  8
1
  6
CONTINUOUS
 62
           4
100
AcDbLine
 10
2032.70782566436
 20
1330.000000000001
 11
2027.70782566436
 21
1329.999999999998
  0
LINE
  5
93
100
AcDbEntity
  8
1
  6
CONTINUOUS
 62
           4
100
AcDbLine
 10
2027.70782566436
 20
1670.000000000008
 11
2032.70782566436
 21
1670.000000000008
  0
LINE
  5
92
100
AcDbEntity
  8
1
  6
CONTINUOUS
 62
           4
100
AcDbLine
 10
2032.70782566436
 20
1670.000000000008
 11
2032.70782566436
 21
1330.000000000001
  0
LINE
  5
91
100
AcDbEntity
  8
1
  6
CONTINUOUS
 62
           2
100
AcDbLine
 10
2185.70782566436
 20
1107.249999999984
 11
2185.70782566436
 21
1116.499999999984
  0
LINE
  5
90
100
AcDbEntity
  8
1
  6
CONTINUOUS
 62
           2
100
AcDbLine
 10
2185.70782566436
 20
1046.749999999984
 11
2185.70782566436
 21
1042.499999999984
  0
LINE
  5
8F
100
AcDbEntity
  8
1
  6
CONTINUOUS
 62
           2
100
AcDbLine
 10
2185.70782566436
 20
1046.749999999984
 11
2185.70782566436
 21
1107.249999999984
  0
LINE
  5
8E
100
AcDbEntity
  8
1
  6
CONTINUOUS
 62
           2
100
AcDbLine
 10
2112.70782566436
 20
1107.249999999984
 11
2112.70782566436
 21
1141.999999999984
  0
LINE
  5
8D
100
AcDbEntity
  8
1
  6
CONTINUOUS
 62
           2
100
AcDbLine
 10
2112.70782566436
 20
1046.749999999984
 11
2112.70782566436
 21
1016.999999999984
  0
LINE
  5
8C
100
AcDbEntity
  8
1
  6
CONTINUOUS
 62
           2
100
AcDbLine
 10
2168.70782566436
 20
1046.749999999984
 11
2168.70782566436
 21
1034.499999999984
  0
LINE
  5
8B
100
AcDbEntity
  8
1
  6
CONTINUOUS
 62
           2
100
AcDbLine
 10
2168.70782566436
 20
1107.249999999984
 11
2168.70782566436
 21
1124.499999999984
  0
LINE
  5
8A
100
AcDbEntity
  8
1
  6
CONTINUOUS
 62
           2
100
AcDbLine
 10
2168.70782566436
 20
1107.249999999984
 11
2168.70782566436
 21
1046.749999999984
  0
LINE
  5
89
100
AcDbEntity
  8
1
  6
CONTINUOUS
 62
           2
100
AcDbLine
 10
2112.70782566436
 20
1107.249999999984
 11
2112.70782566436
 21
1046.749999999984
  0
LINE
  5
88
100
AcDbEntity
  8
1
  6
CONTINUOUS
 62
           2
100
AcDbLine
 10
2142.70782566436
 20
1141.999999999984
 11
2142.70782566436
 21
1161.999999999984
  0
LINE
  5
87
100
AcDbEntity
  8
1
  6
CONTINUOUS
 62
           2
100
AcDbLine
 10
2122.70782566436
 20
1141.999999999984
 11
2122.70782566436
 21
1161.999999999984
  0
LINE
  5
86
100
AcDbEntity
  8
1
  6
CONTINUOUS
 62
           2
100
AcDbLine
 10
2112.70782566436
 20
1094.499999999984
 11
2145.70782566436
 21
1094.499999999984
  0
LINE
  5
85
100
AcDbEntity
  8
1
  6
CONTINUOUS
 62
           2
100
AcDbLine
 10
2112.70782566436
 20
1064.499999999984
 11
2145.70782566436
 21
1064.499999999984
  0
LINE
  5
84
100
AcDbEntity
  8
1
  6
CONTINUOUS
 62
           2
100
AcDbLine
 10
2160.70782566436
 20
1124.499999999984
 11
2177.70782566436
 21
1124.499999999984
  0
LINE
  5
83
100
AcDbEntity
  8
1
  6
CONTINUOUS
 62
           2
100
AcDbLine
 10
2160.70782566436
 20
1034.499999999984
 11
2177.70782566436
 21
1034.499999999984
  0
LINE
  5
82
100
AcDbEntity
  8
1
  6
CONTINUOUS
 62
           2
100
AcDbLine
 10
2112.70782566436
 20
1016.999999999984
 11
2160.70782566436
 21
1016.999999999984
  0
LINE
  5
81
100
AcDbEntity
  8
1
  6
CONTINUOUS
 62
           2
100
AcDbLine
 10
2160.70782566436
 20
1016.999999999984
 11
2160.70782566436
 21
1034.499999999984
  0
LINE
  5
80
100
AcDbEntity
  8
1
  6
CONTINUOUS
 62
           2
100
AcDbLine
 10
2112.70782566436
 20
1141.999999999984
 11
2160.70782566436
 21
1141.999999999984
  0
LINE
  5
7F
100
AcDbEntity
  8
1
  6
CONTINUOUS
 62
           2
100
AcDbLine
 10
2160.70782566436
 20
1141.999999999984
 11
2160.70782566436
 21
1124.499999999984
  0
LINE
  5
7E
100
AcDbEntity
  8
1
  6
CONTINUOUS
 62
           2
100
AcDbLine
 10
2145.39110666371
 20
1041.999999999984
 11
2112.70782566436
 21
1041.999999999984
  0
LINE
  5
7D
100
AcDbEntity
  8
1
  6
CONTINUOUS
 62
           2
100
AcDbLine
 10
2145.39110666371
 20
1116.999999999984
 11
2112.70782566436
 21
1116.999999999984
  0
LINE
  5
7C
100
AcDbEntity
  8
1
  6
CONTINUOUS
 62
           4
100
AcDbLine
 10
3865.0
 20
1430.000000000003
 11
3845.0
 21
1430.000000000003
  0
LINE
  5
7B
100
AcDbEntity
  8
1
  6
CONTINUOUS
 62
           4
100
AcDbLine
 10
3845.0
 20
1430.000000000003
 11
3845.0
 21
1119.435182228534
  0
LINE
  5
7A
100
AcDbEntity
  8
1
  6
CONTINUOUS
 62
           4
100
AcDbLine
 10
3895.0
 20
1069.435182228534
 11
4012.314185654643
 21
1069.435182228534
  0
LINE
  5
79
100
AcDbEntity
  8
1
  6
CONTINUOUS
 62
           4
100
AcDbLine
 10
4012.314185654643
 20
1069.435182228534
 11
4012.314185654643
 21
1089.435182228534
  0
LINE
  5
78
100
AcDbEntity
  8
1
  6
CONTINUOUS
 62
           4
100
AcDbLine
 10
4012.314185654643
 20
1089.435182228534
 11
3895.0
 21
1089.435182228534
  0
LINE
  5
77
100
AcDbEntity
  8
1
  6
CONTINUOUS
 62
           4
100
AcDbLine
 10
3865.0
 20
1119.435182228534
 11
3865.0
 21
1430.000000000003
  0
LINE
  5
76
100
AcDbEntity
  8
1
  6
CONTINUOUS
 62
           7
100
AcDbLine
 10
3865.0
 20
1329.999999999997
 11
3950.0
 21
1329.999999999997
  0
LINE
  5
75
100
AcDbEntity
  8
1
  6
DOT_CENTER
 62
           2
100
AcDbLine
 10
477.70782566436
 20
5927.009236400511
 11
477.70782566436
 21
3706.16210390977
  0
LINE
  5
74
100
AcDbEntity
  8
1
  6
CONTINUOUS
 62
           7
100
AcDbLine
 10
4770.0
 20
2000.0
 11
4770.0
 21
2075.0
  0
LINE
  5
73
100
AcDbEntity
  8
1
  6
CONTINUOUS
 62
           7
100
AcDbLine
 10
4319.999999999999
 20
1733.0
 11
4320.0
 21
1620.0
  0
LINE
  5
72
100
AcDbEntity
  8
1
  6
CONTINUOUS
 62
           7
100
AcDbLine
 10
4499.999999999999
 20
1733.0
 11
4319.999999999999
 21
1733.0
  0
LINE
  5
71
100
AcDbEntity
  8
1
  6
CONTINUOUS
 62
           7
100
AcDbLine
 10
4499.999999999999
 20
1620.0
 11
4499.999999999999
 21
1733.0
  0
LINE
  5
70
100
AcDbEntity
  8
1
  6
CONTINUOUS
 62
           7
100
AcDbLine
 10
4320.0
 20
1620.0
 11
4499.999999999999
 21
1620.0
  0
LINE
  5
6F
100
AcDbEntity
  8
1
  6
CONTINUOUS
 62
           2
100
AcDbLine
 10
4789.999999999998
 20
1800.831132334582
 11
4789.999999999998
 21
520.000000000002
  0
LINE
  5
6E
100
AcDbEntity
  8
1
  6
CONTINUOUS
 62
           7
100
AcDbLine
 10
4769.999999999999
 20
1784.157226830839
 11
4769.999999999999
 21
2000.000000000002
  0
LINE
  5
6D
100
AcDbEntity
  8
1
  6
CONTINUOUS
 62
           2
100
AcDbLine
 10
4749.999999999999
 20
1741.488764155297
 11
4749.999999999999
 21
1980.000000000002
  0
LINE
  5
6C
100
AcDbEntity
  8
1
  6
CONTINUOUS
 62
           7
100
AcDbLine
 10
-841.789865872248
 20
986.51352679837
 11
302.707825664361
 21
986.51352679837
  0
LINE
  5
6B
100
AcDbEntity
  8
___S__
  6
DOT_CENTER
 62
           3
100
AcDbLine
 10
-847.292174335639
 20
1067.063266596461
 11
-847.29217433564
 21
982.067556365336
  0
LINE
  5
6A
100
AcDbEntity
  8
____
  6
CONTINUOUS
 62
           3
100
AcDbLine
 10
-841.888121380519
 20
1060.459504816179
 11
-841.888121380519
 21
1058.581574068056
  0
LINE
  5
69
100
AcDbEntity
  8
____
  6
CONTINUOUS
 62
           3
100
AcDbLine
 10
-852.204949749383
 20
1060.92898750321
 11
-842.379398921894
 21
1060.92898750321
  0
LINE
  5
68
100
AcDbEntity
  8
____
  6
CONTINUOUS
 62
           3
100
AcDbLine
 10
-852.696227290757
 20
1058.581574068056
 11
-852.696227290757
 21
1060.459504816179
  0
LINE
  5
67
100
AcDbEntity
  8
____
  6
CONTINUOUS
 62
           3
100
AcDbLine
 10
-841.789865872247
 20
1022.900889853723
 11
-852.794482799024
 21
1022.900889853724
  0
LINE
  5
66
100
AcDbEntity
  8
____
  6
CONTINUOUS
 62
           3
100
AcDbLine
 10
-841.789865872246
 20
1058.581574068056
 11
-841.789865872247
 21
1022.900889853723
  0
LINE
  5
65
100
AcDbEntity
  8
____
  6
CONTINUOUS
 62
           3
100
AcDbLine
 10
-852.794482799023
 20
1058.581574068056
 11
-841.789865872246
 21
1058.581574068056
  0
LINE
  5
64
100
AcDbEntity
  8
____
  6
CONTINUOUS
 62
           3
100
AcDbLine
 10
-852.794482799024
 20
1022.900889853724
 11
-852.794482799023
 21
1058.581574068056
  0
LINE
  5
63
100
AcDbEntity
  8
____
  6
CONTINUOUS
 62
           3
100
AcDbLine
 10
-852.696227290759
 20
984.403309517207
 11
-852.696227290759
 21
986.28124026533
  0
LINE
  5
62
100
AcDbEntity
  8
____
  6
CONTINUOUS
 62
           3
100
AcDbLine
 10
-842.379398921896
 20
983.933826830175
 11
-852.204949749385
 21
983.933826830175
  0
LINE
  5
61
100
AcDbEntity
  8
____
  6
CONTINUOUS
 62
           3
100
AcDbLine
 10
-841.888121380521
 20
986.28124026533
 11
-841.888121380521
 21
984.403309517207
  0
LINE
  5
60
100
AcDbEntity
  8
____
  6
CONTINUOUS
 62
           3
100
AcDbLine
 10
-852.450588520071
 20
1022.900889853724
 11
-852.450588520071
 21
1021.961924479662
  0
LINE
  5
5F
100
AcDbEntity
  8
____
  6
CONTINUOUS
 62
           3
100
AcDbLine
 10
-842.133760151208
 20
1022.900889853723
 11
-852.450588520071
 21
1022.900889853724
  0
LINE
  5
5E
100
AcDbEntity
  8
____
  6
CONTINUOUS
 62
           3
100
AcDbLine
 10
-842.133760151208
 20
1021.961924479662
 11
-842.133760151208
 21
1022.900889853723
  0
LINE
  5
5D
100
AcDbEntity
  8
____
  6
CONTINUOUS
 62
           3
100
AcDbLine
 10
-852.696227290757
 20
1060.459504816179
 11
-841.888121380519
 21
1060.459504816179
  0
LINE
  5
5C
100
AcDbEntity
  8
____
  6
CONTINUOUS
 62
           3
100
AcDbLine
 10
-852.794482799024
 20
1021.961924479662
 11
-841.789865872247
 21
1021.961924479662
  0
LINE
  5
5B
100
AcDbEntity
  8
____
  6
CONTINUOUS
 62
           3
100
AcDbLine
 10
-852.794482799024
 20
986.28124026533
 11
-852.794482799024
 21
1021.961924479662
  0
LINE
  5
5A
100
AcDbEntity
  8
____
  6
CONTINUOUS
 62
           3
100
AcDbLine
 10
-841.789865872248
 20
986.28124026533
 11
-852.794482799024
 21
986.28124026533
  0
LINE
  5
59
100
AcDbEntity
  8
____
  6
CONTINUOUS
 62
           3
100
AcDbLine
 10
-841.789865872247
 20
1021.961924479662
 11
-841.789865872248
 21
986.28124026533
  0
LINE
  5
58
100
AcDbEntity
  8
____
  6
CONTINUOUS
 62
           3
100
AcDbLine
 10
-852.696227290757
 20
1060.459504816179
 11
-852.204949749383
 21
1060.92898750321
  0
LINE
  5
57
100
AcDbEntity
  8
____
  6
CONTINUOUS
 62
           3
100
AcDbLine
 10
-842.379398921894
 20
1060.92898750321
 11
-841.888121380519
 21
1060.459504816179
  0
LINE
  5
56
100
AcDbEntity
  8
____
  6
CONTINUOUS
 62
           3
100
AcDbLine
 10
-852.204949749385
 20
983.933826830175
 11
-852.696227290759
 21
984.403309517207
  0
LINE
  5
55
100
AcDbEntity
  8
____
  6
CONTINUOUS
 62
           3
100
AcDbLine
 10
-841.888121380521
 20
984.403309517207
 11
-842.379398921896
 21
983.933826830175
  0
LINE
  5
54
100
AcDbEntity
  8
____
  6
CONTINUOUS
 62
           3
100
AcDbLine
 10
-852.696227290759
 20
984.403309517207
 11
-841.888121380521
 21
984.403309517207
  0
LINE
  5
53
100
AcDbEntity
  8
____
  6
CONTINUOUS
 62
           3
100
AcDbLine
 10
-852.696227290735
 20
1538.392880207261
 11
-841.888121380497
 21
1538.392880207261
  0
LINE
  5
52
100
AcDbEntity
  8
____
  6
CONTINUOUS
 62
           3
100
AcDbLine
 10
-841.888121380497
 20
1538.392880207261
 11
-842.379398921871
 21
1537.923397520231
  0
LINE
  5
51
100
AcDbEntity
  8
____
  6
CONTINUOUS
 62
           3
100
AcDbLine
 10
-852.20494974936
 20
1537.923397520231
 11
-852.696227290735
 21
1538.392880207261
  0
LINE
  5
50
100
AcDbEntity
  8
____
  6
CONTINUOUS
 62
           3
100
AcDbLine
 10
-842.379398921871
 20
1614.918558193264
 11
-841.888121380496
 21
1614.449075506233
  0
LINE
  5
4F
100
AcDbEntity
  8
____
  6
CONTINUOUS
 62
           3
100
AcDbLine
 10
-852.696227290734
 20
1614.449075506233
 11
-852.204949749359
 21
1614.918558193264
  0
LINE
  5
4E
100
AcDbEntity
  8
____
  6
CONTINUOUS
 62
           3
100
AcDbLine
 10
-841.789865872231
 20
1575.951495169717
 11
-841.789865872231
 21
1540.270810955383
  0
LINE
  5
4D
100
AcDbEntity
  8
____
  6
CONTINUOUS
 62
           3
100
AcDbLine
 10
-841.789865872231
 20
1540.270810955383
 11
-852.794482799008
 21
1540.270810955383
  0
LINE
  5
4C
100
AcDbEntity
  8
____
  6
CONTINUOUS
 62
           3
100
AcDbLine
 10
-852.794482799008
 20
1540.270810955383
 11
-852.794482799008
 21
1575.951495169717
  0
LINE
  5
4B
100
AcDbEntity
  8
____
  6
CONTINUOUS
 62
           3
100
AcDbLine
 10
-852.794482799008
 20
1575.951495169717
 11
-841.789865872231
 21
1575.951495169717
  0
LINE
  5
4A
100
AcDbEntity
  8
____
  6
CONTINUOUS
 62
           3
100
AcDbLine
 10
-852.696227290734
 20
1614.449075506233
 11
-841.888121380496
 21
1614.449075506233
  0
LINE
  5
49
100
AcDbEntity
  8
____
  6
CONTINUOUS
 62
           3
100
AcDbLine
 10
-842.133760151184
 20
1575.951495169717
 11
-842.133760151184
 21
1576.890460543777
  0
LINE
  5
48
100
AcDbEntity
  8
____
  6
CONTINUOUS
 62
           3
100
AcDbLine
 10
-842.133760151184
 20
1576.890460543777
 11
-852.450588520047
 21
1576.890460543777
  0
LINE
  5
47
100
AcDbEntity
  8
____
  6
CONTINUOUS
 62
           3
100
AcDbLine
 10
-852.450588520047
 20
1576.890460543777
 11
-852.450588520047
 21
1575.951495169717
  0
LINE
  5
46
100
AcDbEntity
  8
____
  6
CONTINUOUS
 62
           3
100
AcDbLine
 10
-841.888121380497
 20
1540.270810955383
 11
-841.888121380497
 21
1538.392880207261
  0
LINE
  5
45
100
AcDbEntity
  8
____
  6
CONTINUOUS
 62
           3
100
AcDbLine
 10
-842.379398921871
 20
1537.923397520231
 11
-852.20494974936
 21
1537.923397520231
  0
LINE
  5
44
100
AcDbEntity
  8
____
  6
CONTINUOUS
 62
           3
100
AcDbLine
 10
-852.696227290735
 20
1538.392880207261
 11
-852.696227290735
 21
1540.270810955383
  0
LINE
  5
43
100
AcDbEntity
  8
____
  6
CONTINUOUS
 62
           3
100
AcDbLine
 10
-852.794482799008
 20
1576.890460543777
 11
-852.794482799007
 21
1612.57114475811
  0
LINE
  5
42
100
AcDbEntity
  8
____
  6
CONTINUOUS
 62
           3
100
AcDbLine
 10
-852.794482799007
 20
1612.57114475811
 11
-841.78986587223
 21
1612.571144758109
  0
LINE
  5
41
100
AcDbEntity
  8
____
  6
CONTINUOUS
 62
           3
100
AcDbLine
 10
-841.78986587223
 20
1612.571144758109
 11
-841.789865872231
 21
1576.890460543777
  0
LINE
  5
40
100
AcDbEntity
  8
____
  6
CONTINUOUS
 62
           3
100
AcDbLine
 10
-841.789865872231
 20
1576.890460543777
 11
-852.794482799008
 21
1576.890460543777
  0
LINE
  5
3F
100
AcDbEntity
  8
____
  6
CONTINUOUS
 62
           3
100
AcDbLine
 10
-852.696227290734
 20
1612.57114475811
 11
-852.696227290734
 21
1614.449075506233
  0
LINE
  5
3E
100
AcDbEntity
  8
____
  6
CONTINUOUS
 62
           3
100
AcDbLine
 10
-852.204949749359
 20
1614.918558193264
 11
-842.379398921871
 21
1614.918558193264
  0
LINE
  5
3D
100
AcDbEntity
  8
____
  6
CONTINUOUS
 62
           3
100
AcDbLine
 10
-841.888121380496
 20
1614.449075506233
 11
-841.888121380496
 21
1612.571144758109
  0
LINE
  5
3C
100
AcDbEntity
  8
___S__
  6
DOT_CENTER
 62
           3
100
AcDbLine
 10
-847.292174335615
 20
1621.052837286498
 11
-847.292174335616
 21
1536.05712705539
  0
LINE
  5
3B
100
AcDbEntity
  8
1
  6
CONTINUOUS
 62
           7
100
AcDbLine
 10
-847.292174335639
 20
941.513526798367
 11
302.707825664361
 21
941.513526798367
  0
LINE
  5
3A
100
AcDbEntity
  8
1
  6
CONTINUOUS
 62
           7
100
AcDbLine
 10
302.707825664361
 20
941.513526798367
 11
302.707825664361
 21
1646.282992387804
  0
LINE
  5
39
100
AcDbEntity
  8
1
  6
CONTINUOUS
 62
           7
100
AcDbLine
 10
-847.292174335639
 20
941.513526798367
 11
-847.292174335639
 21
1646.282992387804
  0
LINE
  5
38
100
AcDbEntity
  8
1
  6
CONTINUOUS
 62
           7
100
AcDbLine
 10
302.707825664361
 20
1646.282992387804
 11
-847.292174335639
 21
1646.282992387804
  0
LINE
  5
37
100
AcDbEntity
  8
1
  6
CONTINUOUS
 62
           3
100
AcDbLine
 10
242.103621986235
 20
1294.328109327062
 11
239.715675986254
 21
1267.07098532706
  0
LINE
  5
36
100
AcDbEntity
  8
1
  6
CONTINUOUS
 62
           3
100
AcDbLine
 10
239.715675986254
 20
1323.330711327061
 11
242.103621986235
 21
1296.073587327061
  0
LINE
  5
35
100
AcDbEntity
  8
1
  6
CONTINUOUS
 62
           3
100
AcDbLine
 10
230.256539986235
 20
1294.328109327062
 11
232.644485986245
 21
1267.07098532706
  0
LINE
  5
34
100
AcDbEntity
  8
1
  6
CONTINUOUS
 62
           3
100
AcDbLine
 10
232.644485986245
 20
1323.330711327061
 11
230.256539986235
 21
1296.073587327061
  0
LINE
  5
33
100
AcDbEntity
  8
1
  6
DOT_CENTER
 62
           3
100
AcDbLine
 10
281.180080986239
 20
1295.200848327051
 11
191.182625986234
 21
1295.200848327051
  0
LINE
  5
32
100
AcDbEntity
  8
1
  6
DOT_CENTER
 62
           3
100
AcDbLine
 10
236.180080986239
 20
1340.200848327051
 11
236.180080986239
 21
1250.202277327051
  0
LINE
  5
31
100
AcDbEntity
  8
1
  6
CONTINUOUS
 62
           2
100
AcDbLine
 10
4789.999999999998
 20
1980.000000000002
 11
4789.999999999998
 21
1814.464669216337
  0
LINE
  5
30
100
AcDbEntity
  8
1
  6
CONTINUOUS
 62
           2
100
AcDbLine
 10
4749.999999999999
 20
520.000000000002
 11
4749.999999999999
 21
1715.525103244269
  0
LINE
  5
2F
100
AcDbEntity
  8
1
  6
CONTINUOUS
 62
           7
100
AcDbLine
 10
4769.999999999999
 20
500.000000000002
 11
4769.999999999999
 21
1766.511414670412
  0
LINE
  5
2E
100
AcDbEntity
  8
1
  6
CONTINUOUS
 62
           7
100
AcDbLine
 10
1977.707825664361
 20
1763.744569986046
 11
-1022.292174335639
 21
1763.744569986046
  0
POINT
  5
2D
100
AcDbEntity
  8
0
 62
           3
100
AcDbPoint
 10
4603.399996721732
 20
1365.000000000119
  0
ENDSEC
  0
SECTION
  2
OBJECTS
  0
DICTIONARY
  5
19
100
AcDbDictionary
  3
ACAD_GROUP
350
1A
  3
ACAD_MLINESTYLE
350
1B
  0
DICTIONARY
  5
1A
102
{ACAD_REACTORS
330
19
102
}
100
AcDbDictionary
  0
DICTIONARY
  5
1B
102
{ACAD_REACTORS
330
19
102
}
100
AcDbDictionary
  3
STANDARD
350
1C
  0
MLINESTYLE
  5
1C
102
{ACAD_REACTORS
330
1B
102
}
100
AcDbMlineStyle
  2
STANDARD
 70
           0
  3

 62
           0
 51
90.0
 52
90.0
 71
           2
 49
0.5
 62
         256
  6
BYLAYER
 49
-0.5
 62
         256
  6
BYLAYER
  0
ENDSEC
  0
EOF
