  0
SECTION
  2
HEADER
  9
$ACADVER
  1
AC1014
  9
$ACADMAINTVER
 70
           0
  9
$DWGCODEPAGE
  3
DOS932
  9
$INSBASE
 10
0.0
 20
0.0
 30
0.0
  9
$EXTMIN
 10
1.000000000000E+20
 20
1.000000000000E+20
 30
1.000000000000E+20
  9
$EXTMAX
 10
-1.000000000000E+20
 20
-1.000000000000E+20
 30
-1.000000000000E+20
  9
$LIMMIN
 10
0.0
 20
0.0
  9
$LIMMAX
 10
0.0
 20
0.0
  9
$ORTHOMODE
 70
           0
  9
$REGENMODE
 70
           1
  9
$FILLMODE
 70
           1
  9
$QTEXTMODE
 70
           0
  9
$MIRRTEXT
 70
           1
  9
$DRAGMODE
 70
           2
  9
$LTSCALE
 40
1.0
  9
$OSMODE
 70
           0
  9
$ATTMODE
 70
           1
  9
$TEXTSIZE
 40
0.2
  9
$TRACEWID
 40
0.05
  9
$TEXTSTYLE
  7
STANDARD
  9
$CLAYER
  8
0
  9
$CELTYPE
  6
CONTINUOUS
  9
$CECOLOR
 62
         256
  9
$CELTSCALE
 40
1.0
  9
$DELOBJ
 70
           1
  9
$DISPSILH
 70
           0
  9
$DIMSCALE
 40
1.0
  9
$DIMASZ
 40
0.18
  9
$DIMEXO
 40
0.0625
  9
$DIMDLI
 40
0.38
  9
$DIMRND
 40
0.0
  9
$DIMDLE
 40
0.0
  9
$DIMEXE
 40
0.18
  9
$DIMTP
 40
0.0
  9
$DIMTM
 40
0.0
  9
$DIMTXT
 40
0.18
  9
$DIMCEN
 40
0.09
  9
$DIMTSZ
 40
0.0
  9
$DIMTOL
 70
           0
  9
$DIMLIM
 70
           0
  9
$DIMTIH
 70
           1
  9
$DIMTOH
 70
           1
  9
$DIMSE1
 70
           0
  9
$DIMSE2
 70
           0
  9
$DIMTAD
 70
           0
  9
$DIMZIN
 70
           0
  9
$DIMBLK
  1

  9
$DIMASO
 70
           1
  9
$DIMSHO
 70
           1
  9
$DIMPOST
  1

  9
$DIMAPOST
  1

  9
$DIMALT
 70
           0
  9
$DIMALTD
 70
           2
  9
$DIMALTF
 40
25.4
  9
$DIMLFAC
 40
1.0
  9
$DIMTOFL
 70
           0
  9
$DIMTVP
 40
0.0
  9
$DIMTIX
 70
           0
  9
$DIMSOXD
 70
           0
  9
$DIMSAH
 70
           0
  9
$DIMBLK1
  1

  9
$DIMBLK2
  1

  9
$DIMSTYLE
  2
STANDARD
  9
$DIMCLRD
 70
           0
  9
$DIMCLRE
 70
           0
  9
$DIMCLRT
 70
           0
  9
$DIMTFAC
 40
1.0
  9
$DIMGAP
 40
0.09
  9
$DIMJUST
 70
           0
  9
$DIMSD1
 70
           0
  9
$DIMSD2
 70
           0
  9
$DIMTOLJ
 70
           1
  9
$DIMTZIN
 70
           0
  9
$DIMALTZ
 70
           0
  9
$DIMALTTZ
 70
           0
  9
$DIMFIT
 70
           3
  9
$DIMUPT
 70
           0
  9
$DIMUNIT
 70
           2
  9
$DIMDEC
 70
           4
  9
$DIMTDEC
 70
           4
  9
$DIMALTU
 70
           2
  9
$DIMALTTD
 70
           2
  9
$DIMTXSTY
  7
STANDARD
  9
$DIMAUNIT
 70
           0
  9
$LUNITS
 70
           2
  9
$LUPREC
 70
           4
  9
$SKETCHINC
 40
0.1
  9
$FILLETRAD
 40
0.0
  9
$AUNITS
 70
           0
  9
$AUPREC
 70
           0
  9
$MENU
  1
acad
  9
$ELEVATION
 40
0.0
  9
$PELEVATION
 40
0.0
  9
$THICKNESS
 40
0.0
  9
$LIMCHECK
 70
           0
  9
$BLIPMODE
 70
           1
  9
$CHAMFERA
 40
0.0
  9
$CHAMFERB
 40
0.0
  9
$CHAMFERC
 40
0.0
  9
$CHAMFERD
 40
0.0
  9
$SKPOLY
 70
           0
  9
$TDCREATE
 40
0.000000000
  9
$TDUPDATE
 40
0.000000000
  9
$TDINDWG
 40
0.0000000000
  9
$TDUSRTIMER
 40
0.0000000000
  9
$USRTIMER
 70
           1
  9
$ANGBASE
 50
0.0
  9
$ANGDIR
 70
           0
  9
$PDMODE
 70
           0
  9
$PDSIZE
 40
0.0
  9
$PLINEWID
 40
0.0
  9
$COORDS
 70
           0
  9
$SPLFRAME
 70
           0
  9
$SPLINETYPE
 70
           6
  9
$SPLINESEGS
 70
           8
  9
$ATTDIA
 70
           0
  9
$ATTREQ
 70
           1
  9
$HANDLING
 70
           1
  9
$HANDSEED
  5
780
  9
$SURFTAB1
 70
           6
  9
$SURFTAB2
 70
           6
  9
$SURFTYPE
 70
           6
  9
$SURFU
 70
           6
  9
$SURFV
 70
           6
  9
$UCSNAME
  2

  9
$UCSORG
 10
0.0
 20
0.0
 30
0.0
  9
$UCSXDIR
 10
1.0
 20
0.0
 30
0.0
  9
$UCSYDIR
 10
0.0
 20
1.0
 30
0.0
  9
$PUCSNAME
  2

  9
$PUCSORG
 10
0.0
 20
0.0
 30
0.0
  9
$PUCSXDIR
 10
1.0
 20
0.0
 30
0.0
  9
$PUCSYDIR
 10
0.0
 20
1.0
 30
0.0
  9
$USERI1
 70
           0
  9
$USERI2
 70
           0
  9
$USERI3
 70
           0
  9
$USERI4
 70
           0
  9
$USERI5
 70
           0
  9
$USERR1
 40
0.0
  9
$USERR2
 40
0.0
  9
$USERR3
 40
0.0
  9
$USERR4
 40
0.0
  9
$USERR5
 40
0.0
  9
$WORLDVIEW
 70
           1
  9
$SHADEDGE
 70
           3
  9
$SHADEDIF
 70
          70
  9
$TILEMODE
 70
           1
  9
$MAXACTVP
 70
          16
  9
$PINSBASE
 10
0.0
 20
0.0
 30
0.0
  9
$PLIMCHECK
 70
           0
  9
$PEXTMIN
 10
1.000000000000E+20
 20
1.000000000000E+20
 30
1.000000000000E+20
  9
$PEXTMAX
 10
-1.000000000000E+20
 20
-1.000000000000E+20
 30
-1.000000000000E+20
  9
$PLIMMIN
 10
0.0
 20
0.0
  9
$PLIMMAX
 10
12.0
 20
9.0
  9
$UNITMODE
 70
           0
  9
$VISRETAIN
 70
           0
  9
$PLINEGEN
 70
           1
  9
$PSLTSCALE
 70
           0
  9
$TREEDEPTH
 70
        3020
  9
$PICKSTYLE
 70
           1
  9
$CMLSTYLE
  2
STANDARD
  9
$CMLJUST
 70
           0
  9
$CMLSCALE
 40
1.0
  9
$PROXYGRAPHICS
 70
           0
  9
$MEASUREMENT
 70
           0
  0
ENDSEC
  0
SECTION
  2
CLASSES
  0
CLASS
  1
LWPOLYLINE
  2
AcDbPolyline
  3
"AutoCAD"
 90
        0
280
           0
281
           1
  0
CLASS
  1
IMAGE
  2
AcDbRasterImage
  3
ISM
 90
      127
280
           0
281
           1
  0
CLASS
  1
OLE2FRAME
  2
AcDbOle2Frame
  3
""
 90
        0
280
           0
281
           1
  0
CLASS
  1
HATCH
  2
AcDbHatch
  3
"ACAD_SEDONA"
 90
        0
280
           0
281
           1
  0
CLASS
  1
DICTIONARYVAR
  2
AcDbDictionaryVar
  3
"AutoCAD"
 90
        0
280
           0
281
           0
  0
CLASS
  1
RASTERVARIABLES
  2
AcDbRasterVariables
  3
ISM
 90
        0
280
           0
281
           0
  0
CLASS
  1
IMAGEDEF
  2
AcDbRasterImageDef
  3
ISM
 90
        0
280
           0
281
           0
  0
CLASS
  1
IMAGEDEF_REACTOR
  2
AcDbRasterImageDefReactor
  3
ISM
 90
        1
280
           0
281
           0
  0
CLASS
  1
IDBUFFER
  2
AcDbIdBuffer
  3
"Acad"
 90
        0
280
           0
281
           0
  0
CLASS
  1
SPATIAL_FILTER
  2
AcDbSpatialFilter
  3
"Acad"
 90
        0
280
           0
281
           0
  0
CLASS
  1
XRECORD
  2
AcDbXrecord
  3
"<Built In>"
 90
        0
280
           0
281
           0
  0
CLASS
  1
SORTENTSTABLE
  2
AcDbSortentsTable
  3
"AutoCAD"
 90
        0
280
           0
281
           0
  0
CLASS
  1
LAYER_INDEX
  2
AcDbLayerIndex
  3
"Acad"
 90
        0
280
           0
281
           0
  0
CLASS
  1
SPATIAL_INDEX
  2
AcDbSpatialIndex
  3
"Acad"
 90
        0
280
           0
281
           0
  0
CLASS
  1
OBJECT_PTR
  2
CAseDLPNTableRecord
  3
"ASE-LPNTableRecord"
 90
        1
280
           0
281
           0
  0
CLASS
  1
LAYOUT
  2
AcDbLayout
  3
"AutoCAD 2000"
 90
        1
280
           0
281
           0
  0
CLASS
  1
PLOTSETTINGS
  2
AcDbPlotSettings
  3
"AutoCAD 2000"
 90
        1
280
           0
281
           0
  0
CLASS
  1
ACDBDICTIONARYWDFLT
  2
AcDbDictionaryWithDefault
  3
"AutoCAD 2000"
 90
        1
280
           0
281
           0
  0
CLASS
  1
ACDBPLACEHOLDER
  2
AcDbPlaceHolder
  3
"AutoCAD 2000"
 90
        1
280
           0
281
           0
  0
CLASS
  1
VBA_PROJECT
  2
AcDbVbaProject
  3
"acadvba"
 90
        1
280
           0
281
           0
  0
CLASS
  1
WIPEOUT
  2
AcDbWipeout
  3
WipeOut|AutoCAD Express Tool|expresstools@autodesk.com
 90
      127
280
           0
281
           1
  0
CLASS
  1
WIPEOUTVARIABLES
  2
AcDbWipeoutVariables
  3
WipeOut|AutoCAD Express Tool|expresstools@autodesk.com
 90
        0
280
           0
281
           0
  0
CLASS
  1
RTEXT
  2
RText
  3
RText|AutoCAD Express Tool|expresstools@autodesk.com
 90
        0
280
           0
281
           1
  0
CLASS
  1
ARCALIGNEDTEXT
  2
AcDbArcAlignedText
  3
ATEXT|AutoCAD Express Tool|expresstools@autodesk.com
 90
        0
280
           0
281
           1
  0
ENDSEC
  0
SECTION
  2
TABLES
  0
TABLE
  2
VPORT
  5
7
100
AcDbSymbolTable
 70
           1
  0
VPORT
  5
15
100
AcDbSymbolTableRecord
100
AcDbViewportTableRecord
  2
*ACTIVE
 70
           0
 10
0.0
 20
0.0
 11
1.0
 21
1.0
 12
6.591288
 22
4.579184
 13
0.0
 23
0.0
 14
1.0
 24
1.0
 15
0.0
 25
0.0
 16
0.0
 26
0.0
 36
1.0
 17
0.0
 27
0.0
 37
0.0
 40
9.158369
 41
0.688564
 42
50.0
 43
0.0
 44
0.0
 50
0.0
 51
0.0
 71
           0
 72
         100
 73
           1
 74
           1
 75
           0
 76
           0
 77
           0
 78
           0
  0
ENDTAB
  0
TABLE
  2
LTYPE
  5
4
100
AcDbSymbolTable
 70
          10
  0
LTYPE
  5
11
100
AcDbSymbolTableRecord
100
AcDbLinetypeTableRecord
  2
BYBLOCK
 70
          64
  3

 72
          65
 73
           0
 40
0.0
  0
LTYPE
  5
12
100
AcDbSymbolTableRecord
100
AcDbLinetypeTableRecord
  2
BYLAYER
 70
          64
  3

 72
          65
 73
           0
 40
0.0
  0
LTYPE
  5
13
100
AcDbSymbolTableRecord
100
AcDbLinetypeTableRecord
  2
CONTINUOUS
 70
          64
  3
Solid line
 72
          65
 73
           0
 40
0.0
  0
LTYPE
  5
1D
100
AcDbSymbolTableRecord
100
AcDbLinetypeTableRecord
  2
DASHED
 70
          64
  3
Dashed
 72
          65
 73
           2
 40
15.0
 49
12.0
 74
           0
 49
-3.0
 74
           0
  0
LTYPE
  5
1E
100
AcDbSymbolTableRecord
100
AcDbLinetypeTableRecord
  2
DOTTED
 70
          64
  3
Dotted
 72
          65
 73
           2
 40
3.5
 49
0.5
 74
           0
 49
-3.0
 74
           0
  0
LTYPE
  5
1F
100
AcDbSymbolTableRecord
100
AcDbLinetypeTableRecord
  2
DOT_CENTER
 70
          64
  3
Dot_Center
 72
          65
 73
           4
 40
2.0
 49
1.25
 74
           0
 49
-0.25
 74
           0
 49
0.25
 74
           0
 49
-0.25
 74
           0
  0
LTYPE
  5
20
100
AcDbSymbolTableRecord
100
AcDbLinetypeTableRecord
  2
LONG_DASHED
 70
          64
  3
Long_Dashed
 72
          65
 73
           2
 40
2.0
 49
1.5
 74
           0
 49
-0.5
 74
           0
  0
LTYPE
  5
21
100
AcDbSymbolTableRecord
100
AcDbLinetypeTableRecord
  2
DASH_CENTER
 70
          64
  3
Dash_Center
 72
          65
 73
           4
 40
36.0
 49
24.0
 74
           0
 49
-3.0
 74
           0
 49
6.0
 74
           0
 49
-3.0
 74
           0
  0
LTYPE
  5
22
100
AcDbSymbolTableRecord
100
AcDbLinetypeTableRecord
  2
PHANTOM
 70
          64
  3
Phantom
 72
          65
 73
           6
 40
2.5
 49
1.25
 74
           0
 49
-0.25
 74
           0
 49
0.25
 74
           0
 49
-0.25
 74
           0
 49
0.25
 74
           0
 49
-0.25
 74
           0
  0
LTYPE
  5
23
100
AcDbSymbolTableRecord
100
AcDbLinetypeTableRecord
  2
CENTER_DASH_DASH
 70
          64
  3
Center_Dash_Dash
 72
          65
 73
           6
 40
22.0
 49
12.0
 74
           0
 49
-3.0
 74
           0
 49
0.5
 74
           0
 49
-3.0
 74
           0
 49
0.5
 74
           0
 49
-3.0
 74
           0
  0
ENDTAB
  0
TABLE
  2
LAYER
  5
2
100
AcDbSymbolTable
 70
           2
  0
LAYER
  5
14
100
AcDbSymbolTableRecord
100
AcDbLayerTableRecord
  2
0
 70
           0
 62
           7
  6
CONTINUOUS
  0
LAYER
  5
24
100
AcDbSymbolTableRecord
100
AcDbLayerTableRecord
  2
1
 70
           0
 62
           7
  6
CONTINUOUS
  0
ENDTAB
  0
TABLE
  2
STYLE
  5
3
100
AcDbSymbolTable
 70
           1
  0
STYLE
  5
17
100
AcDbSymbolTableRecord
100
AcDbTextStyleTableRecord
  2
STANDARD
 70
           0
 40
0.0
 41
1.0
 50
0.0
 71
           0
 42
0.0
  3
txt
  4

  0
ENDTAB
  0
TABLE
  2
VIEW
  5
5
100
AcDbSymbolTable
 70
           0
  0
ENDTAB
  0
TABLE
  2
UCS
  5
6
100
AcDbSymbolTable
 70
           0
  0
ENDTAB
  0
TABLE
  2
APPID
  5
8
100
AcDbSymbolTable
 70
           1
  0
APPID
  5
16
100
AcDbSymbolTableRecord
100
AcDbRegAppTableRecord
  2
ACAD
 70
           0
  0
ENDTAB
  0
TABLE
  2
DIMSTYLE
  5
9
100
AcDbSymbolTable
 70
           1
  0
DIMSTYLE
105
18
100
AcDbSymbolTableRecord
100
AcDbDimStyleTableRecord
  2
STANDARD
 70
           0
  3

  4

  5

  6

  7

 40
1.0
 41
0.18
 42
0.0625
 43
0.38
 44
0.18
 45
0.0
 46
0.0
 47
0.0
 48
0.0
 71
           0
 72
           0
 73
           1
 74
           1
 75
           0
 76
           0
 77
           0
 78
           0
140
0.18
141
0.09
142
0.0
143
25.4
144
1.0
145
0.0
146
1.0
147
0.09
170
           0
171
           2
172
           0
173
           0
174
           0
175
           0
176
           0
177
           0
178
           0
270
           2
271
           4
272
           4
273
           2
274
           2
275
           0
280
           0
281
           0
282
           0
283
           1
284
           0
285
           0
286
           0
287
           0
288
           0
340
17
  0
ENDTAB
  0
TABLE
  2
BLOCK_RECORD
  5
1
100
AcDbSymbolTable
 70
           0
  0
BLOCK_RECORD
  5
A
100
AcDbSymbolTableRecord
100
AcDbBlockTableRecord
  2
*MODEL_SPACE
  0
BLOCK_RECORD
  5
B
100
AcDbSymbolTableRecord
100
AcDbBlockTableRecord
  2
*PAPER_SPACE
  0
ENDTAB
  0
ENDSEC
  0
SECTION
  2
BLOCKS
  0
BLOCK
  5
D
100
AcDbEntity
  8
0
100
AcDbBlockBegin
  2
*MODEL_SPACE
 70
           0
 10
0.0
 20
0.0
 30
0.0
  3
*MODEL_SPACE
  1

  0
ENDBLK
  5
E
100
AcDbEntity
  8
0
100
AcDbBlockEnd
  0
BLOCK
  5
F
100
AcDbEntity
 67
           1
  8
0
100
AcDbBlockBegin
  2
*PAPER_SPACE
 70
           0
 10
0.0
 20
0.0
 30
0.0
  3
*PAPER_SPACE
  1

  0
ENDBLK
  5
10
100
AcDbEntity
 67
           1
  8
0
100
AcDbBlockEnd
  0
ENDSEC
  0
SECTION
  2
ENTITIES
  0
HATCH
  5
77E
100
AcDbEntity
  8
0
  6
CONTINUOUS
 62
           3
100
AcDbHatch
 10
0.0
 20
0.0
 30
0.0
210
0.0
220
0.0
230
1.0
  2
USER
 70
           0
 71
           1
 91
        1
 92
        1
 93
        4
 72
           1
 10
3520.6612870168378
 20
-1155.159560114349
 11
3520.6612870168378
 21
-1405.159560114349
 72
           1
 10
3520.6612870168378
 20
-1405.159560114349
 11
3270.6612870168401
 21
-1405.159560114349
 72
           1
 10
3270.6612870168392
 20
-1155.159560114349
 11
3270.6612870168401
 21
-1405.159560114349
 72
           1
 10
3270.6612870168392
 20
-1155.159560114349
 11
3520.6612870168378
 21
-1155.159560114349
 97
        4
330
28B
330
28C
330
28D
330
28A
 75
           1
 76
           0
 52
45.0
 41
20.0
 77
           0
 78
           2
 53
135.0
 43
0.0
 44
0.0
 45
-14.142135623730946
 46
-14.142135623730956
 79
           0
 53
45.0
 43
0.0
 44
0.0
 45
-14.142135623730949
 46
14.142135623730951
 79
           0
 98
        1
 10
0.0
 20
0.0
  0
ARC
  5
77D
100
AcDbEntity
  8
1
  6
CONTINUOUS
 62
           2
100
AcDbCircle
 10
-85.220935087346
 20
-1536.036560114351
 40
1.123000000004
100
AcDbArc
 50
-134.999999999745
 51
-90.0
  0
ARC
  5
77C
100
AcDbEntity
  8
1
  6
CONTINUOUS
 62
           2
100
AcDbCircle
 10
-144.791258748436
 20
-1536.036560114351
 40
1.122999999999
100
AcDbArc
 50
-90.0
 51
-45.000000000212
  0
ARC
  5
77B
100
AcDbEntity
  8
1
  6
CONTINUOUS
 62
           3
100
AcDbCircle
 10
-3319.247297421607
 20
-2885.159560114348
 40
5.0
100
AcDbArc
 50
90.0
 51
180.0
  0
ARC
  5
77A
100
AcDbEntity
  8
1
  6
CONTINUOUS
 62
           3
100
AcDbCircle
 10
-3319.247297421607
 20
-2895.159560114348
 40
5.0
100
AcDbArc
 50
180.0
 51
-90.0
  0
ARC
  5
779
100
AcDbEntity
  8
1
  6
CONTINUOUS
 62
           3
100
AcDbCircle
 10
-1030.752702578392
 20
-2885.159560114348
 40
5.0
100
AcDbArc
 50
0.0
 51
90.0
  0
ARC
  5
778
100
AcDbEntity
  8
1
  6
CONTINUOUS
 62
           3
100
AcDbCircle
 10
-1030.752702578392
 20
-2895.159560114348
 40
4.999999999999
100
AcDbArc
 50
-90.0
 51
0.0
  0
ARC
  5
777
100
AcDbEntity
  8
1
  6
CONTINUOUS
 62
           3
100
AcDbCircle
 10
-1790.752702578392
 20
-2885.159560114348
 40
5.0
100
AcDbArc
 50
0.0
 51
90.0
  0
ARC
  5
776
100
AcDbEntity
  8
1
  6
CONTINUOUS
 62
           3
100
AcDbCircle
 10
-1790.752702578392
 20
-2895.159560114348
 40
4.999999999999
100
AcDbArc
 50
-90.0
 51
0.0
  0
ARC
  5
775
100
AcDbEntity
  8
1
  6
PHANTOM
 62
           3
100
AcDbCircle
 10
1466.661287016839
 20
-3516.499716779927
 40
10.0
100
AcDbArc
 50
0.0
 51
90.0
  0
ARC
  5
774
100
AcDbEntity
  8
1
  6
PHANTOM
 62
           3
100
AcDbCircle
 10
1466.661287016839
 20
-3516.499716779927
 40
5.0
100
AcDbArc
 50
0.0
 51
90.0
  0
ARC
  5
773
100
AcDbEntity
  8
1
  6
PHANTOM
 62
           3
100
AcDbCircle
 10
1359.161287016839
 20
-3577.959560114347
 40
3.0
100
AcDbArc
 50
180.0
 51
-90.0
  0
ARC
  5
772
100
AcDbEntity
  8
1
  6
PHANTOM
 62
           3
100
AcDbCircle
 10
1334.161287016839
 20
-3552.959560114347
 40
3.0
100
AcDbArc
 50
180.0
 51
-90.0
  0
ARC
  5
771
100
AcDbEntity
  8
1
  6
PHANTOM
 62
           3
100
AcDbCircle
 10
1353.161287016839
 20
-3558.959560114347
 40
3.0
100
AcDbArc
 50
0.0
 51
90.0
  0
ARC
  5
770
100
AcDbEntity
  8
1
  6
PHANTOM
 62
           3
100
AcDbCircle
 10
1206.661811754983
 20
-3532.459035376204
 40
4.0
100
AcDbArc
 50
-129.997138764899
 51
-90.0
  0
ARC
  5
76F
100
AcDbEntity
  8
1
  6
PHANTOM
 62
           3
100
AcDbCircle
 10
1214.161287016839
 20
-3321.597214906318
 40
5.000000000001
100
AcDbArc
 50
91.301952672596
 51
179.999999999984
  0
ARC
  5
76E
100
AcDbEntity
  8
1
  6
PHANTOM
 62
           3
100
AcDbCircle
 10
1214.161287016837
 20
-3375.821905322378
 40
5.0
100
AcDbArc
 50
180.0
 51
-91.301952672573
  0
ARC
  5
76D
100
AcDbEntity
  8
1
  6
PHANTOM
 62
           3
100
AcDbCircle
 10
1267.161287016839
 20
-3359.709560114347
 40
3.0
100
AcDbArc
 50
90.0
 51
180.0
  0
ARC
  5
76C
100
AcDbEntity
  8
1
  6
PHANTOM
 62
           3
100
AcDbCircle
 10
1267.161287016839
 20
-3333.709560114347
 40
3.000000000002
100
AcDbArc
 50
180.0
 51
-90.000000000039
  0
ARC
  5
76B
100
AcDbEntity
  8
1
  6
PHANTOM
 62
           3
100
AcDbCircle
 10
1305.911287016839
 20
-3503.459560114348
 40
3.0
100
AcDbArc
 50
-0.000000000026
 51
90.0
  0
ARC
  5
76A
100
AcDbEntity
  8
1
  6
PHANTOM
 62
           3
100
AcDbCircle
 10
1276.411287016839
 20
-3503.459560114348
 40
3.000000000001
100
AcDbArc
 50
90.0
 51
179.999999999982
  0
ARC
  5
769
100
AcDbEntity
  8
1
  6
PHANTOM
 62
           3
100
AcDbCircle
 10
1171.660762278694
 20
-3532.459035376204
 40
4.000000000002
100
AcDbArc
 50
-90.000000000029
 51
0.0
  0
ARC
  5
768
100
AcDbEntity
  8
1
  6
PHANTOM
 62
           3
100
AcDbCircle
 10
1206.661811754983
 20
-3532.459035376204
 40
4.0
100
AcDbArc
 50
180.0
 51
-129.997138764899
  0
ARC
  5
767
100
AcDbEntity
  8
1
  6
CONTINUOUS
 62
           3
100
AcDbCircle
 10
-3844.999999999999
 20
-1642.15956011435
 40
3.400000000002
100
AcDbArc
 50
180.0
 51
-90.0
  0
ARC
  5
766
100
AcDbEntity
  8
1
  6
CONTINUOUS
 62
           3
100
AcDbCircle
 10
-3844.999999999999
 20
-1577.15956011435
 40
3.399999999999
100
AcDbArc
 50
90.0
 51
180.0
  0
ARC
  5
765
100
AcDbEntity
  8
1
  6
CONTINUOUS
 62
           2
100
AcDbCircle
 10
-3844.999999999999
 20
-1642.15956011435
 40
5.0
100
AcDbArc
 50
180.0
 51
-90.0
  0
ARC
  5
764
100
AcDbEntity
  8
1
  6
CONTINUOUS
 62
           2
100
AcDbCircle
 10
-3844.999999999999
 20
-1577.15956011435
 40
5.0
100
AcDbArc
 50
90.0
 51
180.0
  0
ARC
  5
763
100
AcDbEntity
  8
1
  6
CONTINUOUS
 62
           3
100
AcDbCircle
 10
-4315.0
 20
-1642.15956011435
 40
3.4
100
AcDbArc
 50
-90.0
 51
0.0
  0
ARC
  5
762
100
AcDbEntity
  8
1
  6
CONTINUOUS
 62
           3
100
AcDbCircle
 10
-4315.0
 20
-1577.15956011435
 40
3.4
100
AcDbArc
 50
0.0
 51
90.0
  0
ARC
  5
761
100
AcDbEntity
  8
1
  6
CONTINUOUS
 62
           2
100
AcDbCircle
 10
-4315.0
 20
-1642.15956011435
 40
5.0
100
AcDbArc
 50
-90.0
 51
0.0
  0
ARC
  5
760
100
AcDbEntity
  8
1
  6
CONTINUOUS
 62
           2
100
AcDbCircle
 10
-4315.0
 20
-1577.15956011435
 40
5.0
100
AcDbArc
 50
0.0
 51
90.0
  0
ARC
  5
75F
100
AcDbEntity
  8
1
  6
CONTINUOUS
 62
           2
100
AcDbCircle
 10
-4243.0
 20
2728.951634196141
 40
5.0
100
AcDbArc
 50
90.0
 51
180.0
  0
ARC
  5
75E
100
AcDbEntity
  8
1
  6
CONTINUOUS
 62
           3
100
AcDbCircle
 10
-4237.300000000001
 20
2725.972472409201
 40
5.0
100
AcDbArc
 50
90.0
 51
180.0
  0
ARC
  5
75D
100
AcDbEntity
  8
1
  6
CONTINUOUS
 62
           3
100
AcDbCircle
 10
-4159.7
 20
2725.972472409201
 40
5.0
100
AcDbArc
 50
0.0
 51
90.0
  0
ARC
  5
75C
100
AcDbEntity
  8
1
  6
CONTINUOUS
 62
           2
100
AcDbCircle
 10
-4154.0
 20
2728.951634196141
 40
5.0
100
AcDbArc
 50
0.0
 51
90.0
  0
ARC
  5
75B
100
AcDbEntity
  8
1
  6
CONTINUOUS
 62
           2
100
AcDbCircle
 10
-4154.0
 20
2658.068322235611
 40
5.0
100
AcDbArc
 50
-90.0
 51
0.0
  0
ARC
  5
75A
100
AcDbEntity
  8
1
  6
CONTINUOUS
 62
           3
100
AcDbCircle
 10
-4159.7
 20
2664.147065499061
 40
5.0
100
AcDbArc
 50
-90.0
 51
0.0
  0
ARC
  5
759
100
AcDbEntity
  8
1
  6
CONTINUOUS
 62
           3
100
AcDbCircle
 10
-4237.300000000001
 20
2664.147065499061
 40
5.0
100
AcDbArc
 50
180.0
 51
-90.0
  0
ARC
  5
758
100
AcDbEntity
  8
1
  6
CONTINUOUS
 62
           2
100
AcDbCircle
 10
-4243.0
 20
2658.068322235611
 40
5.0
100
AcDbArc
 50
180.0
 51
-90.0
  0
ARC
  5
757
100
AcDbEntity
  8
1
  6
CONTINUOUS
 62
           2
100
AcDbCircle
 10
-107.0
 20
1668.951584387544
 40
5.0
100
AcDbArc
 50
-90.0
 51
0.0
  0
ARC
  5
756
100
AcDbEntity
  8
1
  6
CONTINUOUS
 62
           3
100
AcDbCircle
 10
-112.7
 20
1671.930746174483
 40
5.0
100
AcDbArc
 50
-90.0
 51
0.0
  0
ARC
  5
755
100
AcDbEntity
  8
1
  6
CONTINUOUS
 62
           3
100
AcDbCircle
 10
-190.300000000001
 20
1671.930746174483
 40
5.0
100
AcDbArc
 50
180.0
 51
-90.0
  0
ARC
  5
754
100
AcDbEntity
  8
1
  6
CONTINUOUS
 62
           2
100
AcDbCircle
 10
-196.0
 20
1668.951584387544
 40
5.0
100
AcDbArc
 50
180.0
 51
-90.0
  0
ARC
  5
753
100
AcDbEntity
  8
1
  6
CONTINUOUS
 62
           2
100
AcDbCircle
 10
-196.0
 20
1739.834896348073
 40
5.0
100
AcDbArc
 50
90.0
 51
180.0
  0
ARC
  5
752
100
AcDbEntity
  8
1
  6
CONTINUOUS
 62
           3
100
AcDbCircle
 10
-190.300000000001
 20
1733.756153084623
 40
5.0
100
AcDbArc
 50
90.0
 51
180.0
  0
ARC
  5
751
100
AcDbEntity
  8
1
  6
CONTINUOUS
 62
           3
100
AcDbCircle
 10
-112.7
 20
1733.756153084623
 40
5.0
100
AcDbArc
 50
0.0
 51
90.0
  0
ARC
  5
750
100
AcDbEntity
  8
1
  6
CONTINUOUS
 62
           2
100
AcDbCircle
 10
-107.0
 20
1739.834896348073
 40
5.0
100
AcDbArc
 50
0.0
 51
90.0
  0
ARC
  5
74F
100
AcDbEntity
  8
1
  6
CONTINUOUS
 62
           3
100
AcDbCircle
 10
-107.0
 20
-1469.157954344931
 40
5.0
100
AcDbArc
 50
-90.0
 51
0.0
  0
ARC
  5
74E
100
AcDbEntity
  8
1
  6
CONTINUOUS
 62
           3
100
AcDbCircle
 10
-196.0
 20
-1469.157954344931
 40
5.0
100
AcDbArc
 50
180.0
 51
-90.0
  0
ARC
  5
74D
100
AcDbEntity
  8
1
  6
CONTINUOUS
 62
           3
100
AcDbCircle
 10
-196.0
 20
-1395.95956011435
 40
5.0
100
AcDbArc
 50
90.0
 51
180.0
  0
ARC
  5
74C
100
AcDbEntity
  8
1
  6
CONTINUOUS
 62
           3
100
AcDbCircle
 10
-107.0
 20
-1395.95956011435
 40
5.0
100
AcDbArc
 50
0.0
 51
90.0
  0
ARC
  5
74B
100
AcDbEntity
  8
1
  6
CONTINUOUS
 62
           3
100
AcDbCircle
 10
-111.7
 20
-1400.65956011435
 40
4.0
100
AcDbArc
 50
0.0
 51
90.0
  0
ARC
  5
74A
100
AcDbEntity
  8
1
  6
CONTINUOUS
 62
           3
100
AcDbCircle
 10
-191.300000000001
 20
-1400.65956011435
 40
4.0
100
AcDbArc
 50
90.0
 51
180.0
  0
ARC
  5
749
100
AcDbEntity
  8
1
  6
CONTINUOUS
 62
           3
100
AcDbCircle
 10
-191.300000000001
 20
-1464.45795434493
 40
4.0
100
AcDbArc
 50
180.0
 51
-90.0
  0
ARC
  5
748
100
AcDbEntity
  8
1
  6
CONTINUOUS
 62
           3
100
AcDbCircle
 10
-111.7
 20
-1464.45795434493
 40
4.0
100
AcDbArc
 50
-90.0
 51
0.0
  0
ARC
  5
747
100
AcDbEntity
  8
1
  6
CONTINUOUS
 62
           3
100
AcDbCircle
 10
-192.866042620195
 20
-1472.85795434493
 40
7.0
100
AcDbArc
 50
-164.094737186574
 51
-90.0
  0
ARC
  5
746
100
AcDbEntity
  8
1
  6
CONTINUOUS
 62
           3
100
AcDbCircle
 10
-110.134072819924
 20
-1472.85795434493
 40
7.0
100
AcDbArc
 50
-90.0
 51
-15.904058987882
  0
ARC
  5
745
100
AcDbEntity
  8
1
  6
CONTINUOUS
 62
           2
100
AcDbCircle
 10
-169.743406849358
 20
-1528.982655527541
 40
5.000000000004
100
AcDbArc
 50
93.601026959842
 51
162.897271030907
  0
ARC
  5
744
100
AcDbEntity
  8
1
  6
CONTINUOUS
 62
           2
100
AcDbCircle
 10
-176.506096917892
 20
-1534.95956011435
 40
1.0
100
AcDbArc
 50
90.0
 51
180.0
  0
ARC
  5
743
100
AcDbEntity
  8
1
  6
CONTINUOUS
 62
           2
100
AcDbCircle
 10
-176.506096917892
 20
-1536.15956011435
 40
1.0
100
AcDbArc
 50
180.0
 51
-90.0
  0
ARC
  5
742
100
AcDbEntity
  8
1
  6
CONTINUOUS
 62
           2
100
AcDbCircle
 10
-145.4816228111
 20
-1530.95956011435
 40
3.0
100
AcDbArc
 50
-90.0
 51
-4.86451443792
  0
ARC
  5
741
100
AcDbEntity
  8
1
  6
CONTINUOUS
 62
           2
100
AcDbCircle
 10
-136.133553762542
 20
-1515.45956011435
 40
5.0
100
AcDbArc
 50
90.0
 51
175.135485562277
  0
ARC
  5
740
100
AcDbEntity
  8
1
  6
CONTINUOUS
 62
           2
100
AcDbCircle
 10
-93.878640073241
 20
-1515.45956011435
 40
5.000000000001
100
AcDbArc
 50
4.864514437721
 51
90.0
  0
ARC
  5
73F
100
AcDbEntity
  8
1
  6
CONTINUOUS
 62
           2
100
AcDbCircle
 10
-84.53057102468
 20
-1530.95956011435
 40
3.000000000003
100
AcDbArc
 50
-175.135485562085
 51
-90.0
  0
ARC
  5
73E
100
AcDbEntity
  8
1
  6
CONTINUOUS
 62
           2
100
AcDbCircle
 10
-142.260922903017
 20
-1536.68259050809
 40
1.123030711889
100
AcDbArc
 50
89.956872248435
 51
135.059455819025
  0
ARC
  5
73D
100
AcDbEntity
  8
1
  6
CONTINUOUS
 62
           2
100
AcDbCircle
 10
-87.751258748435
 20
-1536.68256011435
 40
1.122999999998
100
AcDbArc
 50
44.999999999926
 51
90.0
  0
ARC
  5
73C
100
AcDbEntity
  8
1
  6
CONTINUOUS
 62
           2
100
AcDbCircle
 10
-60.268786986424
 20
-1528.982655527541
 40
5.000000000002
100
AcDbArc
 50
17.102728969086
 51
86.398973040158
  0
ARC
  5
73B
100
AcDbEntity
  8
1
  6
CONTINUOUS
 62
           2
100
AcDbCircle
 10
-53.506096917892
 20
-1536.15956011435
 40
1.0
100
AcDbArc
 50
-90.0
 51
0.0
  0
ARC
  5
73A
100
AcDbEntity
  8
1
  6
CONTINUOUS
 62
           2
100
AcDbCircle
 10
-53.506096917892
 20
-1534.95956011435
 40
1.0
100
AcDbArc
 50
0.0
 51
90.0
  0
ARC
  5
739
100
AcDbEntity
  8
1
  6
CONTINUOUS
 62
           3
100
AcDbCircle
 10
-505.0
 20
-1642.15956011435
 40
3.4
100
AcDbArc
 50
-90.0
 51
0.0
  0
ARC
  5
738
100
AcDbEntity
  8
1
  6
CONTINUOUS
 62
           3
100
AcDbCircle
 10
-505.0
 20
-1577.15956011435
 40
3.400000000001
100
AcDbArc
 50
0.0
 51
90.0
  0
ARC
  5
737
100
AcDbEntity
  8
1
  6
CONTINUOUS
 62
           2
100
AcDbCircle
 10
-505.0
 20
-1642.15956011435
 40
5.0
100
AcDbArc
 50
-90.0
 51
0.0
  0
ARC
  5
736
100
AcDbEntity
  8
1
  6
CONTINUOUS
 62
           2
100
AcDbCircle
 10
-505.0
 20
-1577.15956011435
 40
5.0
100
AcDbArc
 50
0.0
 51
90.0
  0
ARC
  5
735
100
AcDbEntity
  8
1
  6
CONTINUOUS
 62
           3
100
AcDbCircle
 10
-35.0
 20
-1642.15956011435
 40
3.4
100
AcDbArc
 50
180.0
 51
-90.0
  0
ARC
  5
734
100
AcDbEntity
  8
1
  6
CONTINUOUS
 62
           3
100
AcDbCircle
 10
-35.0
 20
-1577.15956011435
 40
3.399999999999
100
AcDbArc
 50
90.0
 51
180.0
  0
ARC
  5
733
100
AcDbEntity
  8
1
  6
CONTINUOUS
 62
           2
100
AcDbCircle
 10
-35.0
 20
-1642.15956011435
 40
5.0
100
AcDbArc
 50
180.0
 51
-90.0
  0
ARC
  5
732
100
AcDbEntity
  8
1
  6
CONTINUOUS
 62
           2
100
AcDbCircle
 10
-35.0
 20
-1577.15956011435
 40
5.0
100
AcDbArc
 50
90.0
 51
180.0
  0
ARC
  5
731
100
AcDbEntity
  8
1
  6
CONTINUOUS
 62
           2
100
AcDbCircle
 10
3522.661287016838
 20
-960.159560114347
 40
3.0
100
AcDbArc
 50
0.0
 51
90.0
  0
ARC
  5
730
100
AcDbEntity
  8
1
  6
CONTINUOUS
 62
           2
100
AcDbCircle
 10
3501.661287016838
 20
-954.159560114347
 40
3.0
100
AcDbArc
 50
180.0
 51
-90.0
  0
ARC
  5
72F
100
AcDbEntity
  8
1
  6
CONTINUOUS
 62
           2
100
AcDbCircle
 10
3495.661287016838
 20
-933.159560114347
 40
3.0
100
AcDbArc
 50
0.0
 51
90.0
  0
ARC
  5
72E
100
AcDbEntity
  8
1
  6
CONTINUOUS
 62
           2
100
AcDbCircle
 10
3295.661287016839
 20
-933.159560114347
 40
3.0
100
AcDbArc
 50
90.0
 51
180.0
  0
ARC
  5
72D
100
AcDbEntity
  8
1
  6
CONTINUOUS
 62
           2
100
AcDbCircle
 10
3289.661287016839
 20
-954.159560114347
 40
3.0
100
AcDbArc
 50
-90.0
 51
0.0
  0
ARC
  5
72C
100
AcDbEntity
  8
1
  6
CONTINUOUS
 62
           2
100
AcDbCircle
 10
3268.661287016839
 20
-960.159560114347
 40
3.0
100
AcDbArc
 50
90.0
 51
180.0
  0
ARC
  5
72B
100
AcDbEntity
  8
1
  6
CONTINUOUS
 62
           2
100
AcDbCircle
 10
3522.661287016838
 20
-960.159560114347
 40
3.0
100
AcDbArc
 50
-90.0
 51
0.0
  0
ARC
  5
72A
100
AcDbEntity
  8
1
  6
CONTINUOUS
 62
           2
100
AcDbCircle
 10
3501.661287016838
 20
-966.159560114347
 40
3.0
100
AcDbArc
 50
90.0
 51
180.0
  0
ARC
  5
729
100
AcDbEntity
  8
1
  6
CONTINUOUS
 62
           2
100
AcDbCircle
 10
3495.661287016838
 20
-987.159560114347
 40
3.0
100
AcDbArc
 50
-90.0
 51
0.0
  0
ARC
  5
728
100
AcDbEntity
  8
1
  6
CONTINUOUS
 62
           2
100
AcDbCircle
 10
3295.661287016839
 20
-987.159560114347
 40
3.0
100
AcDbArc
 50
180.0
 51
-90.0
  0
ARC
  5
727
100
AcDbEntity
  8
1
  6
CONTINUOUS
 62
           2
100
AcDbCircle
 10
3289.661287016839
 20
-966.159560114347
 40
3.0
100
AcDbArc
 50
0.0
 51
90.0
  0
ARC
  5
726
100
AcDbEntity
  8
1
  6
CONTINUOUS
 62
           2
100
AcDbCircle
 10
3268.661287016839
 20
-960.159560114347
 40
3.0
100
AcDbArc
 50
180.0
 51
-90.0
  0
CIRCLE
  5
725
100
AcDbEntity
  8
1
  6
PHANTOM
 62
           3
100
AcDbCircle
 10
-480.0
 20
786.451609291846
 40
12.499999999999
  0
CIRCLE
  5
724
100
AcDbEntity
  8
1
  6
CONTINUOUS
 62
           3
100
AcDbCircle
 10
-3059.999999999999
 20
-2890.159560114348
 40
4.464352242047
  0
CIRCLE
  5
723
100
AcDbEntity
  8
1
  6
CONTINUOUS
 62
           3
100
AcDbCircle
 10
-1290.0
 20
-2890.159560114348
 40
4.464352242047
  0
CIRCLE
  5
722
100
AcDbEntity
  8
1
  6
CONTINUOUS
 62
           3
100
AcDbCircle
 10
-2050.0
 20
-2890.159560114348
 40
4.464352242047
  0
CIRCLE
  5
721
100
AcDbEntity
  8
1
  6
CONTINUOUS
 62
           2
100
AcDbCircle
 10
-3600.0
 20
2148.951609291842
 40
25.0
  0
CIRCLE
  5
720
100
AcDbEntity
  8
1
  6
CONTINUOUS
 62
           2
100
AcDbCircle
 10
-750.0
 20
2298.951609291842
 40
25.0
  0
CIRCLE
  5
71F
100
AcDbEntity
  8
1
  6
PHANTOM
 62
           3
100
AcDbCircle
 10
2885.661287016839
 20
-1280.15956011435
 40
50.0
  0
CIRCLE
  5
71E
100
AcDbEntity
  8
1
  6
PHANTOM
 62
           3
100
AcDbCircle
 10
2395.661287016839
 20
-1455.15956011435
 40
82.0
  0
CIRCLE
  5
71D
100
AcDbEntity
  8
1
  6
PHANTOM
 62
           3
100
AcDbCircle
 10
-4234.0
 20
786.451609291846
 40
12.499999999999
  0
CIRCLE
  5
71C
100
AcDbEntity
  8
1
  6
PHANTOM
 62
           3
100
AcDbCircle
 10
-480.0
 20
-3264.959560114347
 40
42.0
  0
CIRCLE
  5
71B
100
AcDbEntity
  8
1
  6
PHANTOM
 62
           3
100
AcDbCircle
 10
-480.0
 20
-3264.959560114347
 40
37.0
  0
CIRCLE
  5
71A
100
AcDbEntity
  8
1
  6
PHANTOM
 62
           3
100
AcDbCircle
 10
-298.0
 20
-3595.959560114347
 40
46.0
  0
CIRCLE
  5
719
100
AcDbEntity
  8
1
  6
PHANTOM
 62
           3
100
AcDbCircle
 10
-4232.0
 20
-3264.959560114347
 40
42.0
  0
CIRCLE
  5
718
100
AcDbEntity
  8
1
  6
PHANTOM
 62
           3
100
AcDbCircle
 10
-4232.0
 20
-3264.959560114347
 40
37.0
  0
CIRCLE
  5
717
100
AcDbEntity
  8
1
  6
PHANTOM
 62
           3
100
AcDbCircle
 10
-4050.0
 20
-3595.959560114347
 40
46.0
  0
ARC
  5
716
100
AcDbEntity
  8
1
  6
PHANTOM
 62
           3
100
AcDbCircle
 10
1436.661287016839
 20
-3420.459560114347
 40
104.999999999999
100
AcDbArc
 50
71.145230571494
 51
74.802129601451
  0
ARC
  5
715
100
AcDbEntity
  8
1
  6
PHANTOM
 62
           3
100
AcDbCircle
 10
1436.661287016839
 20
-3420.459560114347
 40
110.0
100
AcDbArc
 50
77.620350448954
 51
82.291479370944
  0
ARC
  5
714
100
AcDbEntity
  8
1
  6
PHANTOM
 62
           3
100
AcDbCircle
 10
1436.661287016839
 20
-3420.459560114347
 40
104.999999999999
100
AcDbArc
 50
78.050291104622
 51
90.0
  0
ARC
  5
713
100
AcDbEntity
  8
1
  6
PHANTOM
 62
           3
100
AcDbCircle
 10
1406.661287016839
 20
-3420.459560114347
 40
110.000000000002
100
AcDbArc
 50
-94.431819082368
 51
-90.0
  0
ARC
  5
712
100
AcDbEntity
  8
1
  6
PHANTOM
 62
           3
100
AcDbCircle
 10
1406.661287016839
 20
-3420.459560114347
 40
110.000000000001
100
AcDbArc
 50
-107.184795901087
 51
-94.431819082368
  0
ARC
  5
711
100
AcDbEntity
  8
1
  6
PHANTOM
 62
           3
100
AcDbCircle
 10
1406.661287016839
 20
-3420.459560114347
 40
105.000000000001
100
AcDbArc
 50
-108.55951093958
 51
-94.643310710572
  0
ARC
  5
710
100
AcDbEntity
  8
1
  6
PHANTOM
 62
           3
100
AcDbCircle
 10
1406.661287016839
 20
-3420.459560114347
 40
105.000000000001
100
AcDbArc
 50
-94.643310710572
 51
-90.0
  0
ARC
  5
70F
100
AcDbEntity
  8
1
  6
PHANTOM
 62
           3
100
AcDbCircle
 10
1406.661287016839
 20
-3423.459560114347
 40
47.0
100
AcDbArc
 50
-104.162973809369
 51
0.0
  0
ARC
  5
70E
100
AcDbEntity
  8
1
  6
PHANTOM
 62
           3
100
AcDbCircle
 10
1406.661287016839
 20
-3423.459560114347
 40
47.0
100
AcDbArc
 50
-168.338593579459
 51
-104.162973809369
  0
ARC
  5
70D
100
AcDbEntity
  8
1
  6
PHANTOM
 62
           3
100
AcDbCircle
 10
1406.661287016839
 20
-3423.459560114347
 40
40.000000000001
100
AcDbArc
 50
-168.463040967181
 51
-103.002878162914
  0
ARC
  5
70C
100
AcDbEntity
  8
1
  6
PHANTOM
 62
           3
100
AcDbCircle
 10
1406.661287016839
 20
-3423.459560114347
 40
40.0
100
AcDbArc
 50
-103.002878162914
 51
0.0
  0
ARC
  5
70B
100
AcDbEntity
  8
1
  6
PHANTOM
 62
           3
100
AcDbCircle
 10
1406.661287016839
 20
-3423.459560114347
 40
19.999999999999
100
AcDbArc
 50
-116.743683950404
 51
0.0
  0
ARC
  5
70A
100
AcDbEntity
  8
1
  6
PHANTOM
 62
           3
100
AcDbCircle
 10
1406.661287016839
 20
-3423.459560114347
 40
15.000000000001
100
AcDbArc
 50
-126.869897645842
 51
0.0
  0
ARC
  5
709
100
AcDbEntity
  8
1
  6
PHANTOM
 62
           3
100
AcDbCircle
 10
1406.661287016839
 20
-3423.459560114347
 40
15.0
100
AcDbArc
 50
0.0
 51
140.055494810186
  0
ARC
  5
708
100
AcDbEntity
  8
1
  6
PHANTOM
 62
           3
100
AcDbCircle
 10
1406.661287016839
 20
-3423.459560114347
 40
15.0
100
AcDbArc
 50
140.055494810186
 51
-126.869897645842
  0
ARC
  5
707
100
AcDbEntity
  8
1
  6
PHANTOM
 62
           3
100
AcDbCircle
 10
1406.661287016839
 20
-3423.459560114347
 40
20.0
100
AcDbArc
 50
0.0
 51
116.743683950402
  0
ARC
  5
706
100
AcDbEntity
  8
1
  6
PHANTOM
 62
           3
100
AcDbCircle
 10
1406.661287016839
 20
-3423.459560114347
 40
20.0
100
AcDbArc
 50
116.743683950402
 51
-116.743683950404
  0
ARC
  5
705
100
AcDbEntity
  8
1
  6
PHANTOM
 62
           3
100
AcDbCircle
 10
1406.661287016839
 20
-3423.459560114347
 40
40.0
100
AcDbArc
 50
143.130102354156
 51
-168.463040967181
  0
ARC
  5
704
100
AcDbEntity
  8
1
  6
PHANTOM
 62
           3
100
AcDbCircle
 10
1406.661287016839
 20
-3423.459560114347
 40
40.0
100
AcDbArc
 50
0.0
 51
103.002878162914
  0
ARC
  5
703
100
AcDbEntity
  8
1
  6
PHANTOM
 62
           3
100
AcDbCircle
 10
1406.661287016839
 20
-3423.459560114347
 40
39.999999999999
100
AcDbArc
 50
103.002878162914
 51
143.130102354156
  0
ARC
  5
702
100
AcDbEntity
  8
1
  6
PHANTOM
 62
           3
100
AcDbCircle
 10
1406.661287016839
 20
-3423.459560114347
 40
46.999999999999
100
AcDbArc
 50
101.039714414033
 51
132.910184021677
  0
ARC
  5
701
100
AcDbEntity
  8
1
  6
PHANTOM
 62
           3
100
AcDbCircle
 10
1406.661287016839
 20
-3423.459560114347
 40
47.0
100
AcDbArc
 50
0.0
 51
101.039714414033
  0
ARC
  5
700
100
AcDbEntity
  8
1
  6
PHANTOM
 62
           3
100
AcDbCircle
 10
1406.661287016839
 20
-3423.459560114347
 40
46.999999999999
100
AcDbArc
 50
132.910184021677
 51
-168.338593579459
  0
ARC
  5
6FF
100
AcDbEntity
  8
1
  6
PHANTOM
 62
           3
100
AcDbCircle
 10
1406.661287016839
 20
-3423.459560114347
 40
59.999999999999
100
AcDbArc
 50
98.626926558679
 51
122.230952635501
  0
ARC
  5
6FE
100
AcDbEntity
  8
1
  6
PHANTOM
 62
           3
100
AcDbCircle
 10
1406.661287016839
 20
-3423.459560114347
 40
60.0
100
AcDbArc
 50
0.0
 51
98.626926558679
  0
ARC
  5
6FD
100
AcDbEntity
  8
1
  6
PHANTOM
 62
           3
100
AcDbCircle
 10
1406.661287016839
 20
-3420.459560114347
 40
110.0
100
AcDbArc
 50
154.147739917023
 51
-107.184795901087
  0
ARC
  5
6FC
100
AcDbEntity
  8
1
  6
PHANTOM
 62
           3
100
AcDbCircle
 10
1406.661287016839
 20
-3420.459560114347
 40
104.999999999999
100
AcDbArc
 50
155.376933525152
 51
-108.55951093958
  0
ARC
  5
6FB
100
AcDbEntity
  8
1
  6
PHANTOM
 62
           3
100
AcDbCircle
 10
1406.661287016839
 20
-3420.459560114347
 40
105.0
100
AcDbArc
 50
118.774146998027
 51
155.376933525152
  0
ARC
  5
6FA
100
AcDbEntity
  8
1
  6
PHANTOM
 62
           3
100
AcDbCircle
 10
1406.661287016839
 20
-3420.459560114347
 40
110.000000000001
100
AcDbArc
 50
118.136558786945
 51
154.147739917023
  0
ARC
  5
6F9
100
AcDbEntity
  8
1
  6
PHANTOM
 62
           3
100
AcDbCircle
 10
1436.661287016839
 20
-3420.459560114347
 40
109.999999999999
100
AcDbArc
 50
82.291479370944
 51
90.0
  0
ARC
  5
6F8
100
AcDbEntity
  8
1
  6
PHANTOM
 62
           3
100
AcDbCircle
 10
1436.661287016839
 20
-3420.459560114347
 40
104.999999999999
100
AcDbArc
 50
74.802129601451
 51
78.050291104622
  0
ARC
  5
6F7
100
AcDbEntity
  8
1
  6
PHANTOM
 62
           3
100
AcDbCircle
 10
1436.661287016839
 20
-3420.459560114347
 40
105.0
100
AcDbArc
 50
0.0
 51
71.145230571494
  0
ARC
  5
6F6
100
AcDbEntity
  8
1
  6
PHANTOM
 62
           3
100
AcDbCircle
 10
1406.661287016839
 20
-3420.459560114347
 40
105.0
100
AcDbArc
 50
90.0
 51
118.774146998027
  0
ARC
  5
6F5
100
AcDbEntity
  8
1
  6
PHANTOM
 62
           3
100
AcDbCircle
 10
1406.661287016839
 20
-3432.151723642443
 40
93.307836471904
100
AcDbArc
 50
-90.0
 51
-52.825916331166
  0
ARC
  5
6F4
100
AcDbEntity
  8
1
  6
PHANTOM
 62
           3
100
AcDbCircle
 10
1406.661287016839
 20
-3437.151723642443
 40
93.307836471904
100
AcDbArc
 50
-90.0
 51
-52.825916331166
  0
ARC
  5
6F3
100
AcDbEntity
  8
1
  6
PHANTOM
 62
           3
100
AcDbCircle
 10
1436.661287016839
 20
-3420.459560114347
 40
110.0
100
AcDbArc
 50
0.0
 51
77.620350448954
  0
ARC
  5
6F2
100
AcDbEntity
  8
1
  6
PHANTOM
 62
           3
100
AcDbCircle
 10
1406.661287016839
 20
-3420.459560114347
 40
110.0
100
AcDbArc
 50
90.0
 51
118.136558786945
  0
ARC
  5
6F1
100
AcDbEntity
  8
1
  6
PHANTOM
 62
           3
100
AcDbCircle
 10
1391.161287016839
 20
-3565.959560114347
 40
4.0
100
AcDbArc
 50
-90.0
 51
90.0
  0
ARC
  5
6F0
100
AcDbEntity
  8
1
  6
PHANTOM
 62
           3
100
AcDbCircle
 10
1338.163481714201
 20
-3550.959560114348
 40
5.696404625771
100
AcDbArc
 50
-61.371724811978
 51
0.000000000009
  0
ARC
  5
6EF
100
AcDbEntity
  8
1
  6
PHANTOM
 62
           3
100
AcDbCircle
 10
1338.163481714201
 20
-3550.959560114348
 40
5.696404625772
100
AcDbArc
 50
-115.720207600234
 51
-61.371724811978
  0
ARC
  5
6EE
100
AcDbEntity
  8
1
  6
PHANTOM
 62
           3
100
AcDbCircle
 10
1338.163481714201
 20
-3550.959560114348
 40
5.029124131179
100
AcDbArc
 50
180.0
 51
-0.000000000016
  0
ARC
  5
6ED
100
AcDbEntity
  8
1
  6
PHANTOM
 62
           3
100
AcDbCircle
 10
1338.163481714201
 20
-3550.959560114348
 40
5.029124131179
100
AcDbArc
 50
-0.000000000016
 51
180.0
  0
ARC
  5
6EC
100
AcDbEntity
  8
1
  6
PHANTOM
 62
           3
100
AcDbCircle
 10
1338.163481714201
 20
-3550.959560114348
 40
5.696404625772
100
AcDbArc
 50
179.99999999999
 51
-115.720207600234
  0
ARC
  5
6EB
100
AcDbEntity
  8
1
  6
PHANTOM
 62
           3
100
AcDbCircle
 10
1338.163481714201
 20
-3550.959560114348
 40
5.696404625773
100
AcDbArc
 50
0.000000000009
 51
179.99999999999
  0
ARC
  5
6EA
100
AcDbEntity
  8
1
  6
PHANTOM
 62
           3
100
AcDbCircle
 10
1338.163481714201
 20
-3550.959560114348
 40
7.5
100
AcDbArc
 50
-41.810314895776
 51
0.0
  0
ARC
  5
6E9
100
AcDbEntity
  8
1
  6
PHANTOM
 62
           3
100
AcDbCircle
 10
1338.163481714201
 20
-3550.959560114348
 40
7.5
100
AcDbArc
 50
0.0
 51
90.0
  0
ARC
  5
6E8
100
AcDbEntity
  8
1
  6
PHANTOM
 62
           3
100
AcDbCircle
 10
1311.661287016839
 20
-3494.959560114348
 40
12.999999999998
100
AcDbArc
 50
0.000000000004
 51
90.000000000009
  0
ARC
  5
6E7
100
AcDbEntity
  8
1
  6
DOT_CENTER
 62
           3
100
AcDbCircle
 10
1311.661287016839
 20
-3494.959560114348
 40
7.999999999998
100
AcDbArc
 50
0.000000000007
 51
90.0
  0
ARC
  5
6E6
100
AcDbEntity
  8
1
  6
PHANTOM
 62
           3
100
AcDbCircle
 10
1311.661287016839
 20
-3494.959560114348
 40
3.0
100
AcDbArc
 50
0.0
 51
90.000000000039
  0
ARC
  5
6E5
100
AcDbEntity
  8
1
  6
PHANTOM
 62
           3
100
AcDbCircle
 10
1219.161287016839
 20
-3494.959560114347
 40
13.0
100
AcDbArc
 50
90.000000000009
 51
180.0
  0
ARC
  5
6E4
100
AcDbEntity
  8
1
  6
PHANTOM
 62
           3
100
AcDbCircle
 10
1219.161287016839
 20
-3494.959560114347
 40
7.999999999999
100
AcDbArc
 50
90.0
 51
180.0
  0
ARC
  5
6E3
100
AcDbEntity
  8
1
  6
PHANTOM
 62
           3
100
AcDbCircle
 10
1219.161287016839
 20
-3494.959560114347
 40
2.999999999998
100
AcDbArc
 50
90.0
 51
180.0
  0
ARC
  5
6E2
100
AcDbEntity
  8
1
  6
PHANTOM
 62
           3
100
AcDbCircle
 10
1319.661287016839
 20
-3595.959560114348
 40
9.5
100
AcDbArc
 50
180.0
 51
0.000000000005
  0
ARC
  5
6E1
100
AcDbEntity
  8
1
  6
PHANTOM
 62
           3
100
AcDbCircle
 10
1338.163481714201
 20
-3550.959560114348
 40
7.5
100
AcDbArc
 50
-90.0
 51
-41.810314895776
  0
ARC
  5
6E0
100
AcDbEntity
  8
1
  6
PHANTOM
 62
           3
100
AcDbCircle
 10
1338.163481714201
 20
-3550.959560114348
 40
7.499999999999
100
AcDbArc
 50
90.0
 51
-90.0
  0
ARC
  5
6DF
100
AcDbEntity
  8
1
  6
PHANTOM
 62
           3
100
AcDbCircle
 10
1299.161287016839
 20
-3556.963635803959
 40
4.997555649874
100
AcDbArc
 50
-143.167483801628
 51
-36.832516198385
  0
ARC
  5
6DE
100
AcDbEntity
  8
1
  6
PHANTOM
 62
           3
100
AcDbCircle
 10
1283.161287016839
 20
-3556.963635803958
 40
4.997555649874
100
AcDbArc
 50
-143.167483801598
 51
-36.832516198402
  0
ARC
  5
6DD
100
AcDbEntity
  8
1
  6
PHANTOM
 62
           3
100
AcDbCircle
 10
1190.73517302142
 20
-3442.959560114347
 40
11.607201090505
100
AcDbArc
 50
97.793064982075
 51
-97.793064982075
  0
ARC
  5
6DC
100
AcDbEntity
  8
1
  6
PHANTOM
 62
           3
100
AcDbCircle
 10
1406.661287016839
 20
-3423.459560114347
 40
60.000000000001
100
AcDbArc
 50
122.230952635501
 51
180.0
  0
ARC
  5
6DB
100
AcDbEntity
  8
1
  6
PHANTOM
 62
           3
100
AcDbCircle
 10
1406.661287016839
 20
-3423.459560114347
 40
60.0
100
AcDbArc
 50
-98.626926558678
 51
0.0
  0
ARC
  5
6DA
100
AcDbEntity
  8
1
  6
PHANTOM
 62
           3
100
AcDbCircle
 10
1406.661287016839
 20
-3423.459560114347
 40
60.0
100
AcDbArc
 50
180.0
 51
-122.230952635503
  0
ARC
  5
6D9
100
AcDbEntity
  8
1
  6
PHANTOM
 62
           3
100
AcDbCircle
 10
1406.661287016839
 20
-3423.459560114347
 40
59.999999999998
100
AcDbArc
 50
-122.230952635503
 51
-98.626926558678
  0
ARC
  5
6D8
100
AcDbEntity
  8
1
  6
PHANTOM
 62
           3
100
AcDbCircle
 10
1406.661287016839
 20
-3423.459560114347
 40
60.0
100
AcDbArc
 50
-98.626926558678
 51
0.0
  0
ARC
  5
6D7
100
AcDbEntity
  8
1
  6
CONTINUOUS
 62
           3
100
AcDbCircle
 10
-154.5
 20
-1468.45795434493
 40
5.699999999999
100
AcDbArc
 50
0.0
 51
90.0
  0
ARC
  5
6D6
100
AcDbEntity
  8
1
  6
CONTINUOUS
 62
           3
100
AcDbCircle
 10
-154.5
 20
-1468.45795434493
 40
5.7
100
AcDbArc
 50
90.0
 51
180.0
  0
ARC
  5
6D5
100
AcDbEntity
  8
1
  6
CONTINUOUS
 62
           3
100
AcDbCircle
 10
-648.0
 20
445.951609291842
 40
10.0
100
AcDbArc
 50
-90.0
 51
-146.632987030765
  0
ARC
  5
6D4
100
AcDbEntity
  8
1
  6
CONTINUOUS
 62
           3
100
AcDbCircle
 10
-648.0
 20
445.951609291842
 40
5.5
100
AcDbArc
 50
-90.0
 51
-139.834651369463
  0
ARC
  5
6D3
100
AcDbEntity
  8
1
  6
CONTINUOUS
 62
           3
100
AcDbCircle
 10
-3700.0
 20
445.951609291842
 40
10.0
100
AcDbArc
 50
-33.367012969232
 51
-90.0
  0
ARC
  5
6D2
100
AcDbEntity
  8
1
  6
CONTINUOUS
 62
           3
100
AcDbCircle
 10
-3700.0
 20
445.951609291842
 40
5.5
100
AcDbArc
 50
-40.165348630529
 51
-90.0
  0
ARC
  5
6D1
100
AcDbEntity
  8
1
  6
PHANTOM
 62
           3
100
AcDbCircle
 10
-480.0
 20
-3440.459560114346
 40
12.0
100
AcDbArc
 50
90.0
 51
-90.0
  0
ARC
  5
6D0
100
AcDbEntity
  8
1
  6
PHANTOM
 62
           3
100
AcDbCircle
 10
-4232.0
 20
-3440.459560114346
 40
12.0
100
AcDbArc
 50
90.0
 51
-90.0
  0
ARC
  5
6CF
100
AcDbEntity
  8
1
  6
PHANTOM
 62
           3
100
AcDbCircle
 10
-652.084247499175
 20
444.461469008643
 40
768.520712511753
100
AcDbArc
 50
-89.695504308571
 51
-49.606444768396
  0
ARC
  5
6CE
100
AcDbEntity
  8
1
  6
PHANTOM
 62
           3
100
AcDbCircle
 10
-1415.0
 20
440.451609291842
 40
760.0
100
AcDbArc
 50
180.0
 51
-30.0
  0
ARC
  5
6CD
100
AcDbEntity
  8
1
  6
PHANTOM
 62
           3
100
AcDbCircle
 10
-2935.0
 20
440.451609291842
 40
759.999999999999
100
AcDbArc
 50
-150.0
 51
0.0
  0
ARC
  5
6CC
100
AcDbEntity
  8
1
  6
PHANTOM
 62
           3
100
AcDbCircle
 10
-3703.50086408539
 20
444.461469008643
 40
768.511325274351
100
AcDbArc
 50
-89.888104144271
 51
-0.298953409178
  0
ARC
  5
6CB
100
AcDbEntity
  8
1
  6
PHANTOM
 62
           3
100
AcDbCircle
 10
-3697.915752500825
 20
444.461469008642
 40
768.520712511752
100
AcDbArc
 50
-130.393555231604
 51
-90.304495691429
  0
ARC
  5
6CA
100
AcDbEntity
  8
1
  6
PHANTOM
 62
           3
100
AcDbCircle
 10
-646.49913591461
 20
444.461469008642
 40
768.511325274351
100
AcDbArc
 50
-179.701046590822
 51
-90.111895855729
  0
LINE
  5
6C9
100
AcDbEntity
  8
1
  6
CONTINUOUS
 62
           7
100
AcDbLine
 10
-4897.11937596659
 20
-4327.43500406341
 11
-4897.11937596659
 21
3922.327979362
  0
LINE
  5
6C8
100
AcDbEntity
  8
1
  6
CONTINUOUS
 62
           7
100
AcDbLine
 10
4775.01653563562
 20
-4327.43500406341
 11
-4897.11937596659
 21
-4327.43500406341
  0
LINE
  5
6C7
100
AcDbEntity
  8
1
  6
CONTINUOUS
 62
           7
100
AcDbLine
 10
4775.01653563562
 20
3922.327979362
 11
4775.01653563562
 21
-4327.43500406341
  0
LINE
  5
6C6
100
AcDbEntity
  8
1
  6
CONTINUOUS
 62
           7
100
AcDbLine
 10
-4897.11937596659
 20
3922.327979362
 11
4775.01653563562
 21
3922.327979362
  0
LINE
  5
6C5
100
AcDbEntity
  8
1
  6
CONTINUOUS
 62
           3
100
AcDbLine
 10
3635.66128701684
 20
-1094.159560114348
 11
3635.66128701684
 21
-2645.159560114349
  0
LINE
  5
6C4
100
AcDbEntity
  8
1
  6
CONTINUOUS
 62
           3
100
AcDbLine
 10
3187.580487533721
 20
-1469.159560114348
 11
3635.66128701684
 21
-1469.159560114348
  0
LINE
  5
6C3
100
AcDbEntity
  8
1
  6
CONTINUOUS
 62
           3
100
AcDbLine
 10
1635.661287016839
 20
-1469.159560114348
 11
2237.828106439121
 21
-1469.159560114348
  0
LINE
  5
6C2
100
AcDbEntity
  8
1
  6
CONTINUOUS
 62
           3
100
AcDbLine
 10
3135.661287016839
 20
-2144.159560114348
 11
3635.66128701684
 21
-2144.159560114348
  0
LINE
  5
6C1
100
AcDbEntity
  8
1
  6
CONTINUOUS
 62
           3
100
AcDbLine
 10
1635.661287016839
 20
-2144.159560114348
 11
2235.66128701684
 21
-2144.159560114348
  0
LINE
  5
6C0
100
AcDbEntity
  8
1
  6
CONTINUOUS
 62
           2
100
AcDbLine
 10
-525.0
 20
-1017.159560114349
 11
-525.0
 21
-4097.159560114348
  0
LINE
  5
6BF
100
AcDbEntity
  8
1
  6
CONTINUOUS
 62
           2
100
AcDbLine
 10
1635.661287016839
 20
-4097.159560114346
 11
1635.661287016839
 21
-2645.159560114349
  0
LINE
  5
6BE
100
AcDbEntity
  8
1
  6
CONTINUOUS
 62
           2
100
AcDbLine
 10
-2974.999999999999
 20
-1155.159560114349
 11
-2135.000000000001
 21
-1155.159560114349
  0
LINE
  5
6BD
100
AcDbEntity
  8
1
  6
CONTINUOUS
 62
           2
100
AcDbLine
 10
-1345.0
 20
-1155.159560114349
 11
-660.0
 21
-1155.159560114349
  0
LINE
  5
6BC
100
AcDbEntity
  8
1
  6
CONTINUOUS
 62
           2
100
AcDbLine
 10
-7.0
 20
-1445.645681925691
 11
-7.0
 21
-1448.145681925691
  0
LINE
  5
6BB
100
AcDbEntity
  8
1
  6
CONTINUOUS
 62
           2
100
AcDbLine
 10
-15.0
 20
-1537.15956011435
 11
-215.0
 21
-1537.15956011435
  0
LINE
  5
6BA
100
AcDbEntity
  8
1
  6
CONTINUOUS
 62
           2
100
AcDbLine
 10
4210.661287016837
 20
-4097.159560114347
 11
4210.661287016838
 21
-1017.159560114349
  0
LINE
  5
6B9
100
AcDbEntity
  8
1
  6
CONTINUOUS
 62
           2
100
AcDbLine
 10
-600.0
 20
3623.951609291844
 11
-3749.999999999999
 21
3623.951609291844
  0
LINE
  5
6B8
100
AcDbEntity
  8
1
  6
CONTINUOUS
 62
           3
100
AcDbLine
 10
-675.0
 20
3549.951609291842
 11
-3675.0
 21
3549.951609291842
  0
LINE
  5
6B7
100
AcDbEntity
  8
1
  6
PHANTOM
 62
           3
100
AcDbLine
 10
-112.293970901607
 20
551.451609291846
 11
-523.0
 21
551.451609291844
  0
LINE
  5
6B6
100
AcDbEntity
  8
1
  6
DOT_CENTER
 62
           3
100
AcDbLine
 10
-497.5
 20
786.451609291846
 11
-462.5
 21
786.451609291846
  0
LINE
  5
6B5
100
AcDbEntity
  8
1
  6
PHANTOM
 62
           3
100
AcDbLine
 10
-480.0
 20
768.951609291846
 11
-480.0
 21
803.951609291846
  0
LINE
  5
6B4
100
AcDbEntity
  8
1
  6
PHANTOM
 62
           3
100
AcDbLine
 10
-517.0
 20
663.45160929185
 11
-442.999999999999
 21
663.45160929185
  0
LINE
  5
6B3
100
AcDbEntity
  8
1
  6
PHANTOM
 62
           3
100
AcDbLine
 10
-442.999999999999
 20
663.45160929185
 11
-443.0
 21
609.451609291847
  0
LINE
  5
6B2
100
AcDbEntity
  8
1
  6
PHANTOM
 62
           3
100
AcDbLine
 10
-443.0
 20
609.451609291847
 11
-517.0
 21
609.451609291847
  0
LINE
  5
6B1
100
AcDbEntity
  8
1
  6
PHANTOM
 62
           3
100
AcDbLine
 10
-517.0
 20
609.451609291847
 11
-517.0
 21
663.45160929185
  0
LINE
  5
6B0
100
AcDbEntity
  8
1
  6
DOT_CENTER
 62
           3
100
AcDbLine
 10
-480.0
 20
587.627946440645
 11
-480.0
 21
786.451609291846
  0
LINE
  5
6AF
100
AcDbEntity
  8
1
  6
DOT_CENTER
 62
           3
100
AcDbLine
 10
-504.32456752108
 20
599.451609291846
 11
-77.73373399308
 21
599.451609291846
  0
LINE
  5
6AE
100
AcDbEntity
  8
1
  6
PHANTOM
 62
           3
100
AcDbLine
 10
-286.0
 20
736.433145106941
 11
-286.0
 21
579.691669178441
  0
LINE
  5
6AD
100
AcDbEntity
  8
1
  6
PHANTOM
 62
           3
100
AcDbLine
 10
-321.0
 20
714.451609291848
 11
-143.0
 21
714.451609291848
  0
LINE
  5
6AC
100
AcDbEntity
  8
1
  6
PHANTOM
 62
           3
100
AcDbLine
 10
-271.0
 20
714.451609291848
 11
-271.0
 21
964.451609291848
  0
LINE
  5
6AB
100
AcDbEntity
  8
1
  6
PHANTOM
 62
           3
100
AcDbLine
 10
-143.0
 20
964.451609291848
 11
-321.0
 21
964.451609291848
  0
LINE
  5
6AA
100
AcDbEntity
  8
1
  6
PHANTOM
 62
           3
100
AcDbLine
 10
-321.0
 20
964.451609291848
 11
-321.0
 21
714.451609291848
  0
LINE
  5
6A9
100
AcDbEntity
  8
1
  6
PHANTOM
 62
           3
100
AcDbLine
 10
-207.0
 20
714.451609291848
 11
-207.0
 21
964.451609291848
  0
LINE
  5
6A8
100
AcDbEntity
  8
1
  6
PHANTOM
 62
           3
100
AcDbLine
 10
-257.0
 20
964.451609291848
 11
-257.0
 21
714.451609291848
  0
LINE
  5
6A7
100
AcDbEntity
  8
1
  6
PHANTOM
 62
           3
100
AcDbLine
 10
-143.0
 20
714.451609291848
 11
-143.0
 21
964.451609291848
  0
LINE
  5
6A6
100
AcDbEntity
  8
1
  6
PHANTOM
 62
           3
100
AcDbLine
 10
-192.999999999999
 20
964.451609291848
 11
-193.0
 21
714.451609291848
  0
LINE
  5
6A5
100
AcDbEntity
  8
1
  6
DOT_CENTER
 62
           3
100
AcDbLine
 10
-135.999999999999
 20
569.771322600644
 11
-135.999999999999
 21
805.875571151244
  0
LINE
  5
6A4
100
AcDbEntity
  8
1
  6
PHANTOM
 62
           3
100
AcDbLine
 10
-159.999999999999
 20
580.45160929185
 11
-111.999999999999
 21
580.45160929185
  0
LINE
  5
6A3
100
AcDbEntity
  8
1
  6
PHANTOM
 62
           3
100
AcDbLine
 10
-111.999999999999
 20
580.45160929185
 11
-111.999999999999
 21
618.451609291847
  0
LINE
  5
6A2
100
AcDbEntity
  8
1
  6
PHANTOM
 62
           3
100
AcDbLine
 10
-111.999999999999
 20
618.451609291847
 11
-159.999999999999
 21
618.451609291847
  0
LINE
  5
6A1
100
AcDbEntity
  8
1
  6
PHANTOM
 62
           3
100
AcDbLine
 10
-159.999999999999
 20
618.451609291847
 11
-159.999999999999
 21
580.45160929185
  0
LINE
  5
6A0
100
AcDbEntity
  8
1
  6
PHANTOM
 62
           3
100
AcDbLine
 10
-95.0
 20
632.766292160435
 11
-95.0
 21
686.766292160437
  0
LINE
  5
69F
100
AcDbEntity
  8
1
  6
PHANTOM
 62
           3
100
AcDbLine
 10
-376.0
 20
884.451609291848
 11
-321.0
 21
884.451609291848
  0
LINE
  5
69E
100
AcDbEntity
  8
1
  6
CONTINUOUS
 62
           3
100
AcDbLine
 10
-793.0
 20
-1270.159560114349
 11
-628.0
 21
-1270.159560114349
  0
LINE
  5
69D
100
AcDbEntity
  8
1
  6
CONTINUOUS
 62
           3
100
AcDbLine
 10
-793.0
 20
-1370.159560114349
 11
-558.0
 21
-1370.159560114349
  0
LINE
  5
69C
100
AcDbEntity
  8
1
  6
CONTINUOUS
 62
           3
100
AcDbLine
 10
-658.0
 20
-1470.159560114349
 11
-558.0
 21
-1470.159560114349
  0
LINE
  5
69B
100
AcDbEntity
  8
1
  6
CONTINUOUS
 62
           3
100
AcDbLine
 10
-558.0
 20
-1370.159560114349
 11
-558.0
 21
-1470.159560114349
  0
LINE
  5
69A
100
AcDbEntity
  8
1
  6
CONTINUOUS
 62
           3
100
AcDbLine
 10
-628.0
 20
-1270.159560114349
 11
-628.0
 21
-1470.159560114349
  0
LINE
  5
699
100
AcDbEntity
  8
1
  6
CONTINUOUS
 62
           3
100
AcDbLine
 10
-658.0
 20
-1270.159560114349
 11
-658.0
 21
-1470.159560114349
  0
LINE
  5
698
100
AcDbEntity
  8
1
  6
CONTINUOUS
 62
           3
100
AcDbLine
 10
-793.0
 20
-1270.159560114349
 11
-793.0
 21
-1370.159560114349
  0
LINE
  5
697
100
AcDbEntity
  8
1
  6
CONTINUOUS
 62
           3
100
AcDbLine
 10
-793.0
 20
-3760.159560114348
 11
-628.0
 21
-3760.159560114348
  0
LINE
  5
696
100
AcDbEntity
  8
1
  6
CONTINUOUS
 62
           3
100
AcDbLine
 10
-793.0
 20
-3860.159560114348
 11
-558.0
 21
-3860.159560114348
  0
LINE
  5
695
100
AcDbEntity
  8
1
  6
CONTINUOUS
 62
           3
100
AcDbLine
 10
-658.0
 20
-3960.159560114348
 11
-558.0
 21
-3960.159560114348
  0
LINE
  5
694
100
AcDbEntity
  8
1
  6
CONTINUOUS
 62
           3
100
AcDbLine
 10
-558.0
 20
-3860.159560114348
 11
-558.0
 21
-3960.159560114348
  0
LINE
  5
693
100
AcDbEntity
  8
1
  6
CONTINUOUS
 62
           3
100
AcDbLine
 10
-628.0
 20
-3760.159560114348
 11
-628.0
 21
-3960.159560114348
  0
LINE
  5
692
100
AcDbEntity
  8
1
  6
CONTINUOUS
 62
           3
100
AcDbLine
 10
-658.0
 20
-3760.159560114348
 11
-658.0
 21
-3960.159560114348
  0
LINE
  5
691
100
AcDbEntity
  8
1
  6
CONTINUOUS
 62
           3
100
AcDbLine
 10
-793.0
 20
-3760.159560114348
 11
-793.0
 21
-3860.159560114348
  0
LINE
  5
690
100
AcDbEntity
  8
1
  6
CONTINUOUS
 62
           3
100
AcDbLine
 10
-793.0
 20
-2930.159560114349
 11
-628.0
 21
-2930.159560114349
  0
LINE
  5
68F
100
AcDbEntity
  8
1
  6
CONTINUOUS
 62
           3
100
AcDbLine
 10
-793.0
 20
-3030.15956011435
 11
-558.0
 21
-3030.159560114348
  0
LINE
  5
68E
100
AcDbEntity
  8
1
  6
CONTINUOUS
 62
           3
100
AcDbLine
 10
-658.0
 20
-3130.159560114348
 11
-558.0
 21
-3130.159560114348
  0
LINE
  5
68D
100
AcDbEntity
  8
1
  6
CONTINUOUS
 62
           3
100
AcDbLine
 10
-558.0
 20
-3030.159560114348
 11
-558.0
 21
-3130.159560114348
  0
LINE
  5
68C
100
AcDbEntity
  8
1
  6
CONTINUOUS
 62
           3
100
AcDbLine
 10
-628.0
 20
-2930.159560114349
 11
-628.0
 21
-3130.159560114348
  0
LINE
  5
68B
100
AcDbEntity
  8
1
  6
CONTINUOUS
 62
           3
100
AcDbLine
 10
-658.0
 20
-2930.159560114349
 11
-658.0
 21
-3130.159560114348
  0
LINE
  5
68A
100
AcDbEntity
  8
1
  6
CONTINUOUS
 62
           3
100
AcDbLine
 10
-793.0
 20
-2930.159560114349
 11
-793.0
 21
-3030.15956011435
  0
LINE
  5
689
100
AcDbEntity
  8
1
  6
CONTINUOUS
 62
           3
100
AcDbLine
 10
-793.0
 20
-2100.159560114349
 11
-628.0
 21
-2100.159560114349
  0
LINE
  5
688
100
AcDbEntity
  8
1
  6
CONTINUOUS
 62
           3
100
AcDbLine
 10
-793.0
 20
-2200.159560114349
 11
-558.0
 21
-2200.159560114349
  0
LINE
  5
687
100
AcDbEntity
  8
1
  6
CONTINUOUS
 62
           3
100
AcDbLine
 10
-658.0
 20
-2300.159560114349
 11
-558.0
 21
-2300.159560114349
  0
LINE
  5
686
100
AcDbEntity
  8
1
  6
CONTINUOUS
 62
           3
100
AcDbLine
 10
-558.0
 20
-2200.159560114349
 11
-558.0
 21
-2300.159560114349
  0
LINE
  5
685
100
AcDbEntity
  8
1
  6
CONTINUOUS
 62
           3
100
AcDbLine
 10
-628.0
 20
-2100.159560114349
 11
-628.0
 21
-2300.159560114349
  0
LINE
  5
684
100
AcDbEntity
  8
1
  6
CONTINUOUS
 62
           3
100
AcDbLine
 10
-658.0
 20
-2100.159560114349
 11
-658.0
 21
-2300.159560114349
  0
LINE
  5
683
100
AcDbEntity
  8
1
  6
CONTINUOUS
 62
           3
100
AcDbLine
 10
-793.0
 20
-2100.159560114349
 11
-793.0
 21
-2200.159560114349
  0
LINE
  5
682
100
AcDbEntity
  8
1
  6
CONTINUOUS
 62
           3
100
AcDbLine
 10
-3722.0
 20
-1270.159560114349
 11
-3557.0
 21
-1270.159560114349
  0
LINE
  5
681
100
AcDbEntity
  8
1
  6
CONTINUOUS
 62
           3
100
AcDbLine
 10
-3792.0
 20
-1370.159560114349
 11
-3557.0
 21
-1370.159560114349
  0
LINE
  5
680
100
AcDbEntity
  8
1
  6
CONTINUOUS
 62
           3
100
AcDbLine
 10
-3792.0
 20
-1470.159560114349
 11
-3692.0
 21
-1470.159560114349
  0
LINE
  5
67F
100
AcDbEntity
  8
1
  6
CONTINUOUS
 62
           3
100
AcDbLine
 10
-3792.0
 20
-1470.159560114349
 11
-3792.0
 21
-1370.159560114349
  0
LINE
  5
67E
100
AcDbEntity
  8
1
  6
CONTINUOUS
 62
           3
100
AcDbLine
 10
-3722.0
 20
-1470.159560114349
 11
-3722.0
 21
-1270.159560114349
  0
LINE
  5
67D
100
AcDbEntity
  8
1
  6
CONTINUOUS
 62
           3
100
AcDbLine
 10
-3692.0
 20
-1470.159560114349
 11
-3692.0
 21
-1270.159560114349
  0
LINE
  5
67C
100
AcDbEntity
  8
1
  6
CONTINUOUS
 62
           3
100
AcDbLine
 10
-3557.0
 20
-1370.159560114349
 11
-3557.0
 21
-1270.159560114349
  0
LINE
  5
67B
100
AcDbEntity
  8
1
  6
CONTINUOUS
 62
           3
100
AcDbLine
 10
-3722.0
 20
-3760.159560114348
 11
-3557.0
 21
-3760.159560114348
  0
LINE
  5
67A
100
AcDbEntity
  8
1
  6
CONTINUOUS
 62
           3
100
AcDbLine
 10
-3792.0
 20
-3860.159560114348
 11
-3557.0
 21
-3860.159560114348
  0
LINE
  5
679
100
AcDbEntity
  8
1
  6
CONTINUOUS
 62
           3
100
AcDbLine
 10
-3792.0
 20
-3960.159560114348
 11
-3692.0
 21
-3960.159560114348
  0
LINE
  5
678
100
AcDbEntity
  8
1
  6
CONTINUOUS
 62
           3
100
AcDbLine
 10
-3792.0
 20
-3960.159560114348
 11
-3792.0
 21
-3860.159560114348
  0
LINE
  5
677
100
AcDbEntity
  8
1
  6
CONTINUOUS
 62
           3
100
AcDbLine
 10
-3722.0
 20
-3960.159560114348
 11
-3722.0
 21
-3760.159560114348
  0
LINE
  5
676
100
AcDbEntity
  8
1
  6
CONTINUOUS
 62
           3
100
AcDbLine
 10
-3692.0
 20
-3960.159560114348
 11
-3692.0
 21
-3760.159560114348
  0
LINE
  5
675
100
AcDbEntity
  8
1
  6
CONTINUOUS
 62
           3
100
AcDbLine
 10
-3557.0
 20
-3860.159560114348
 11
-3557.0
 21
-3760.159560114348
  0
LINE
  5
674
100
AcDbEntity
  8
1
  6
CONTINUOUS
 62
           3
100
AcDbLine
 10
-3722.0
 20
-2930.159560114349
 11
-3557.0
 21
-2930.159560114349
  0
LINE
  5
673
100
AcDbEntity
  8
1
  6
CONTINUOUS
 62
           3
100
AcDbLine
 10
-3792.0
 20
-3030.159560114348
 11
-3557.0
 21
-3030.159560114348
  0
LINE
  5
672
100
AcDbEntity
  8
1
  6
CONTINUOUS
 62
           3
100
AcDbLine
 10
-3792.0
 20
-3130.159560114348
 11
-3692.0
 21
-3130.159560114348
  0
LINE
  5
671
100
AcDbEntity
  8
1
  6
CONTINUOUS
 62
           3
100
AcDbLine
 10
-3792.0
 20
-3130.159560114348
 11
-3792.0
 21
-3030.159560114348
  0
LINE
  5
670
100
AcDbEntity
  8
1
  6
CONTINUOUS
 62
           3
100
AcDbLine
 10
-3722.0
 20
-3130.159560114348
 11
-3722.0
 21
-2930.159560114349
  0
LINE
  5
66F
100
AcDbEntity
  8
1
  6
CONTINUOUS
 62
           3
100
AcDbLine
 10
-3692.0
 20
-3130.159560114348
 11
-3692.0
 21
-2930.159560114349
  0
LINE
  5
66E
100
AcDbEntity
  8
1
  6
CONTINUOUS
 62
           3
100
AcDbLine
 10
-3557.0
 20
-3030.159560114348
 11
-3557.0
 21
-2930.159560114349
  0
LINE
  5
66D
100
AcDbEntity
  8
1
  6
CONTINUOUS
 62
           3
100
AcDbLine
 10
-3084.999999999999
 20
-1445.159560114349
 11
-3004.999999999999
 21
-1445.159560114348
  0
LINE
  5
66C
100
AcDbEntity
  8
1
  6
CONTINUOUS
 62
           3
100
AcDbLine
 10
-3084.999999999999
 20
-1370.159560114349
 11
-3004.999999999999
 21
-1370.159560114349
  0
LINE
  5
66B
100
AcDbEntity
  8
1
  6
CONTINUOUS
 62
           3
100
AcDbLine
 10
-3084.999999999999
 20
-2275.159560114349
 11
-3004.999999999999
 21
-2275.159560114348
  0
LINE
  5
66A
100
AcDbEntity
  8
1
  6
CONTINUOUS
 62
           3
100
AcDbLine
 10
-3084.999999999999
 20
-2200.159560114349
 11
-3004.999999999999
 21
-2200.159560114349
  0
LINE
  5
669
100
AcDbEntity
  8
1
  6
CONTINUOUS
 62
           3
100
AcDbLine
 10
-3084.999999999999
 20
-1445.159560114349
 11
-3084.999999999999
 21
-1370.159560114349
  0
LINE
  5
668
100
AcDbEntity
  8
1
  6
CONTINUOUS
 62
           3
100
AcDbLine
 10
-2974.999999999999
 20
-1370.159560114349
 11
-2785.0
 21
-1370.159560114349
  0
LINE
  5
667
100
AcDbEntity
  8
1
  6
CONTINUOUS
 62
           3
100
AcDbLine
 10
-2974.999999999999
 20
-1445.159560114348
 11
-2927.0
 21
-1445.159560114348
  0
LINE
  5
666
100
AcDbEntity
  8
1
  6
CONTINUOUS
 62
           3
100
AcDbLine
 10
-2943.0
 20
-1295.159560114348
 11
-2785.0
 21
-1295.159560114349
  0
LINE
  5
665
100
AcDbEntity
  8
1
  6
CONTINUOUS
 62
           3
100
AcDbLine
 10
-2785.0
 20
-1370.159560114349
 11
-2785.0
 21
-1295.159560114349
  0
LINE
  5
664
100
AcDbEntity
  8
1
  6
CONTINUOUS
 62
           3
100
AcDbLine
 10
-2943.0
 20
-1445.159560114348
 11
-2943.0
 21
-1295.159560114348
  0
LINE
  5
663
100
AcDbEntity
  8
1
  6
CONTINUOUS
 62
           3
100
AcDbLine
 10
-2927.0
 20
-1295.159560114348
 11
-2927.0
 21
-1445.159560114348
  0
LINE
  5
662
100
AcDbEntity
  8
1
  6
CONTINUOUS
 62
           3
100
AcDbLine
 10
-3084.999999999999
 20
-2275.159560114349
 11
-3084.999999999999
 21
-2200.159560114349
  0
LINE
  5
661
100
AcDbEntity
  8
1
  6
CONTINUOUS
 62
           3
100
AcDbLine
 10
-2974.999999999999
 20
-2200.159560114349
 11
-2785.0
 21
-2200.159560114349
  0
LINE
  5
660
100
AcDbEntity
  8
1
  6
CONTINUOUS
 62
           3
100
AcDbLine
 10
-2974.999999999999
 20
-2275.159560114348
 11
-2927.0
 21
-2275.159560114348
  0
LINE
  5
65F
100
AcDbEntity
  8
1
  6
CONTINUOUS
 62
           3
100
AcDbLine
 10
-2943.0
 20
-2125.159560114348
 11
-2785.0
 21
-2125.159560114349
  0
LINE
  5
65E
100
AcDbEntity
  8
1
  6
CONTINUOUS
 62
           3
100
AcDbLine
 10
-2785.0
 20
-2200.159560114349
 11
-2785.0
 21
-2125.159560114349
  0
LINE
  5
65D
100
AcDbEntity
  8
1
  6
CONTINUOUS
 62
           3
100
AcDbLine
 10
-2943.0
 20
-2275.159560114348
 11
-2943.0
 21
-2125.159560114348
  0
LINE
  5
65C
100
AcDbEntity
  8
1
  6
CONTINUOUS
 62
           3
100
AcDbLine
 10
-2927.0
 20
-2125.159560114348
 11
-2927.0
 21
-2275.159560114348
  0
LINE
  5
65B
100
AcDbEntity
  8
1
  6
CONTINUOUS
 62
           3
100
AcDbLine
 10
-2943.0
 20
-2955.159560114348
 11
-2785.0
 21
-2955.159560114349
  0
LINE
  5
65A
100
AcDbEntity
  8
1
  6
CONTINUOUS
 62
           3
100
AcDbLine
 10
-3084.999999999999
 20
-3105.159560114348
 11
-2927.0
 21
-3105.159560114347
  0
LINE
  5
659
100
AcDbEntity
  8
1
  6
CONTINUOUS
 62
           3
100
AcDbLine
 10
-3084.999999999999
 20
-3030.159560114348
 11
-2785.0
 21
-3030.159560114348
  0
LINE
  5
658
100
AcDbEntity
  8
1
  6
CONTINUOUS
 62
           3
100
AcDbLine
 10
-3084.999999999999
 20
-3105.159560114348
 11
-3084.999999999999
 21
-3030.159560114348
  0
LINE
  5
657
100
AcDbEntity
  8
1
  6
CONTINUOUS
 62
           3
100
AcDbLine
 10
-2943.0
 20
-3105.159560114347
 11
-2943.0
 21
-2955.159560114348
  0
LINE
  5
656
100
AcDbEntity
  8
1
  6
CONTINUOUS
 62
           3
100
AcDbLine
 10
-2785.0
 20
-3030.159560114348
 11
-2785.0
 21
-2955.159560114349
  0
LINE
  5
655
100
AcDbEntity
  8
1
  6
CONTINUOUS
 62
           3
100
AcDbLine
 10
-2927.0
 20
-2955.159560114348
 11
-2927.0
 21
-3105.159560114347
  0
LINE
  5
654
100
AcDbEntity
  8
1
  6
DOT_CENTER
 62
           3
100
AcDbLine
 10
-3327.342616110216
 20
-2890.159560114348
 11
-2993.915659139428
 21
-2890.159560114348
  0
LINE
  5
653
100
AcDbEntity
  8
1
  6
CONTINUOUS
 62
           3
100
AcDbLine
 10
-3059.999999999999
 20
-2900.103740376298
 11
-3059.999999999999
 21
-2880.791553607397
  0
LINE
  5
652
100
AcDbEntity
  8
1
  6
CONTINUOUS
 62
           3
100
AcDbLine
 10
-2964.999999999999
 20
-1114.736700847579
 11
-2854.999999999999
 21
-1114.736700847579
  0
LINE
  5
651
100
AcDbEntity
  8
1
  6
CONTINUOUS
 62
           3
100
AcDbLine
 10
-2964.999999999999
 20
-1146.736700847579
 11
-2854.999999999999
 21
-1146.736700847579
  0
LINE
  5
650
100
AcDbEntity
  8
1
  6
CONTINUOUS
 62
           3
100
AcDbLine
 10
-2964.999999999999
 20
-1146.736700847579
 11
-2964.999999999999
 21
-1114.736700847579
  0
LINE
  5
64F
100
AcDbEntity
  8
1
  6
CONTINUOUS
 62
           3
100
AcDbLine
 10
-2854.999999999999
 20
-1146.736700847579
 11
-2854.999999999999
 21
-1114.736700847579
  0
LINE
  5
64E
100
AcDbEntity
  8
1
  6
CONTINUOUS
 62
           3
100
AcDbLine
 10
-2932.796816523018
 20
-1146.736700847579
 11
-2932.796816523018
 21
-1114.736700847579
  0
LINE
  5
64D
100
AcDbEntity
  8
1
  6
CONTINUOUS
 62
           3
100
AcDbLine
 10
-3029.999999999999
 20
-2970.159560114347
 11
-2949.999999999999
 21
-2970.159560114348
  0
LINE
  5
64C
100
AcDbEntity
  8
1
  6
CONTINUOUS
 62
           3
100
AcDbLine
 10
-3029.999999999999
 20
-3010.159560114348
 11
-2949.999999999999
 21
-3010.159560114348
  0
LINE
  5
64B
100
AcDbEntity
  8
1
  6
CONTINUOUS
 62
           3
100
AcDbLine
 10
-3029.999999999999
 20
-3010.159560114348
 11
-3029.999999999999
 21
-2970.159560114347
  0
LINE
  5
64A
100
AcDbEntity
  8
1
  6
CONTINUOUS
 62
           3
100
AcDbLine
 10
-2949.999999999999
 20
-3010.159560114348
 11
-2949.999999999999
 21
-2970.159560114348
  0
LINE
  5
649
100
AcDbEntity
  8
1
  6
CONTINUOUS
 62
           3
100
AcDbLine
 10
-3029.999999999999
 20
-1235.159560114349
 11
-2949.999999999999
 21
-1235.159560114349
  0
LINE
  5
648
100
AcDbEntity
  8
1
  6
CONTINUOUS
 62
           3
100
AcDbLine
 10
-3029.999999999999
 20
-1275.159560114349
 11
-2949.999999999999
 21
-1275.159560114349
  0
LINE
  5
647
100
AcDbEntity
  8
1
  6
CONTINUOUS
 62
           3
100
AcDbLine
 10
-3029.999999999999
 20
-1275.159560114349
 11
-3029.999999999999
 21
-1235.159560114349
  0
LINE
  5
646
100
AcDbEntity
  8
1
  6
CONTINUOUS
 62
           3
100
AcDbLine
 10
-2949.999999999999
 20
-1275.159560114349
 11
-2949.999999999999
 21
-1235.159560114349
  0
LINE
  5
645
100
AcDbEntity
  8
1
  6
CONTINUOUS
 62
           3
100
AcDbLine
 10
-3014.999999999999
 20
-1225.159560114349
 11
-2964.999999999999
 21
-1225.159560114349
  0
LINE
  5
644
100
AcDbEntity
  8
1
  6
CONTINUOUS
 62
           3
100
AcDbLine
 10
-3014.999999999999
 20
-1235.159560114349
 11
-3014.999999999999
 21
-1224.322058135269
  0
LINE
  5
643
100
AcDbEntity
  8
1
  6
CONTINUOUS
 62
           3
100
AcDbLine
 10
-2964.999999999999
 20
-1235.159560114349
 11
-2964.999999999999
 21
-1225.159560114349
  0
LINE
  5
642
100
AcDbEntity
  8
1
  6
CONTINUOUS
 62
           3
100
AcDbLine
 10
-3009.759338752598
 20
-1119.76896589303
 11
-2964.999999999999
 21
-1119.76896589303
  0
LINE
  5
641
100
AcDbEntity
  8
1
  6
CONTINUOUS
 62
           3
100
AcDbLine
 10
-3009.759338752598
 20
-1142.659560114349
 11
-2964.999999999999
 21
-1142.659560114349
  0
LINE
  5
640
100
AcDbEntity
  8
1
  6
CONTINUOUS
 62
           3
100
AcDbLine
 10
-3009.759338752598
 20
-1142.659560114349
 11
-3009.759338752598
 21
-1119.76896589303
  0
LINE
  5
63F
100
AcDbEntity
  8
1
  6
CONTINUOUS
 62
           3
100
AcDbLine
 10
-3004.999999999999
 20
-1225.159560114349
 11
-3004.999999999999
 21
-1142.659560114349
  0
LINE
  5
63E
100
AcDbEntity
  8
1
  6
CONTINUOUS
 62
           3
100
AcDbLine
 10
-2974.999999999999
 20
-1275.159560114349
 11
-2975.0
 21
-3010.159560114348
  0
LINE
  5
63D
100
AcDbEntity
  8
1
  6
CONTINUOUS
 62
           3
100
AcDbLine
 10
-2974.999999999999
 20
-1142.659560114349
 11
-2974.999999999999
 21
-1225.159560114349
  0
LINE
  5
63C
100
AcDbEntity
  8
1
  6
CONTINUOUS
 62
           3
100
AcDbLine
 10
-3005.0
 20
-3010.159560114347
 11
-3004.999999999999
 21
-1275.159560114349
  0
LINE
  5
63B
100
AcDbEntity
  8
1
  6
CONTINUOUS
 62
           3
100
AcDbLine
 10
-3149.999999999999
 20
-2850.159560114348
 11
-3129.999999999999
 21
-2850.159560114348
  0
LINE
  5
63A
100
AcDbEntity
  8
1
  6
CONTINUOUS
 62
           3
100
AcDbLine
 10
-3149.999999999999
 20
-2910.159560114347
 11
-3149.999999999999
 21
-2850.159560114348
  0
LINE
  5
639
100
AcDbEntity
  8
1
  6
CONTINUOUS
 62
           3
100
AcDbLine
 10
-3129.999999999999
 20
-2910.159560114347
 11
-3149.999999999999
 21
-2910.159560114347
  0
LINE
  5
638
100
AcDbEntity
  8
1
  6
CONTINUOUS
 62
           3
100
AcDbLine
 10
-3129.999999999999
 20
-2850.159560114348
 11
-3129.999999999999
 21
-2910.159560114347
  0
LINE
  5
637
100
AcDbEntity
  8
1
  6
CONTINUOUS
 62
           3
100
AcDbLine
 10
-3069.999999999999
 20
-2875.159560114348
 11
-3004.999999999999
 21
-2875.159560114348
  0
LINE
  5
636
100
AcDbEntity
  8
1
  6
CONTINUOUS
 62
           3
100
AcDbLine
 10
-3069.999999999999
 20
-2905.159560114347
 11
-3004.999999999999
 21
-2905.159560114347
  0
LINE
  5
635
100
AcDbEntity
  8
1
  6
CONTINUOUS
 62
           3
100
AcDbLine
 10
-3079.999999999999
 20
-2880.159560114348
 11
-3069.999999999999
 21
-2875.159560114348
  0
LINE
  5
634
100
AcDbEntity
  8
1
  6
CONTINUOUS
 62
           3
100
AcDbLine
 10
-3079.999999999999
 20
-2900.159560114347
 11
-3069.999999999999
 21
-2905.159560114347
  0
LINE
  5
633
100
AcDbEntity
  8
1
  6
CONTINUOUS
 62
           3
100
AcDbLine
 10
-3129.999999999999
 20
-2880.159560114348
 11
-3079.999999999999
 21
-2880.159560114348
  0
LINE
  5
632
100
AcDbEntity
  8
1
  6
CONTINUOUS
 62
           3
100
AcDbLine
 10
-3129.999999999999
 20
-2900.159560114347
 11
-3079.999999999999
 21
-2900.159560114347
  0
LINE
  5
631
100
AcDbEntity
  8
1
  6
CONTINUOUS
 62
           3
100
AcDbLine
 10
-3319.247297421607
 20
-2880.159560114348
 11
-3150.0
 21
-2880.159560114348
  0
LINE
  5
630
100
AcDbEntity
  8
1
  6
CONTINUOUS
 62
           3
100
AcDbLine
 10
-3319.247297421607
 20
-2900.159560114347
 11
-3150.0
 21
-2900.159560114347
  0
LINE
  5
62F
100
AcDbEntity
  8
1
  6
CONTINUOUS
 62
           3
100
AcDbLine
 10
-3324.247297421607
 20
-2895.159560114348
 11
-3324.247297421607
 21
-2885.159560114348
  0
LINE
  5
62E
100
AcDbEntity
  8
1
  6
CONTINUOUS
 62
           3
100
AcDbLine
 10
-2943.0
 20
-3785.159560114348
 11
-2785.0
 21
-3785.159560114348
  0
LINE
  5
62D
100
AcDbEntity
  8
1
  6
CONTINUOUS
 62
           3
100
AcDbLine
 10
-3084.999999999999
 20
-3935.159560114348
 11
-2927.0
 21
-3935.159560114348
  0
LINE
  5
62C
100
AcDbEntity
  8
1
  6
CONTINUOUS
 62
           3
100
AcDbLine
 10
-3084.999999999999
 20
-3860.159560114348
 11
-2785.0
 21
-3860.159560114348
  0
LINE
  5
62B
100
AcDbEntity
  8
1
  6
CONTINUOUS
 62
           3
100
AcDbLine
 10
-3084.999999999999
 20
-3935.159560114348
 11
-3084.999999999999
 21
-3860.159560114348
  0
LINE
  5
62A
100
AcDbEntity
  8
1
  6
CONTINUOUS
 62
           3
100
AcDbLine
 10
-2943.0
 20
-3935.159560114348
 11
-2943.0
 21
-3785.159560114348
  0
LINE
  5
629
100
AcDbEntity
  8
1
  6
CONTINUOUS
 62
           3
100
AcDbLine
 10
-2785.0
 20
-3860.159560114348
 11
-2785.0
 21
-3785.159560114348
  0
LINE
  5
628
100
AcDbEntity
  8
1
  6
CONTINUOUS
 62
           3
100
AcDbLine
 10
-2927.0
 20
-3785.159560114348
 11
-2927.0
 21
-3935.159560114348
  0
LINE
  5
627
100
AcDbEntity
  8
1
  6
CONTINUOUS
 62
           3
100
AcDbLine
 10
-1345.0
 20
-1445.159560114348
 11
-1265.000000000001
 21
-1445.159560114349
  0
LINE
  5
626
100
AcDbEntity
  8
1
  6
CONTINUOUS
 62
           3
100
AcDbLine
 10
-1345.0
 20
-1370.159560114349
 11
-1265.0
 21
-1370.159560114349
  0
LINE
  5
625
100
AcDbEntity
  8
1
  6
CONTINUOUS
 62
           3
100
AcDbLine
 10
-1345.0
 20
-2275.159560114348
 11
-1265.000000000001
 21
-2275.159560114349
  0
LINE
  5
624
100
AcDbEntity
  8
1
  6
CONTINUOUS
 62
           3
100
AcDbLine
 10
-1345.0
 20
-2200.159560114349
 11
-1265.0
 21
-2200.159560114349
  0
LINE
  5
623
100
AcDbEntity
  8
1
  6
CONTINUOUS
 62
           3
100
AcDbLine
 10
-1265.0
 20
-1370.159560114349
 11
-1265.000000000001
 21
-1445.159560114349
  0
LINE
  5
622
100
AcDbEntity
  8
1
  6
CONTINUOUS
 62
           3
100
AcDbLine
 10
-1423.0
 20
-1445.159560114348
 11
-1375.0
 21
-1445.159560114348
  0
LINE
  5
621
100
AcDbEntity
  8
1
  6
CONTINUOUS
 62
           3
100
AcDbLine
 10
-1565.0
 20
-1295.159560114349
 11
-1407.0
 21
-1295.159560114348
  0
LINE
  5
620
100
AcDbEntity
  8
1
  6
CONTINUOUS
 62
           3
100
AcDbLine
 10
-1565.0
 20
-1370.159560114349
 11
-1375.0
 21
-1370.159560114349
  0
LINE
  5
61F
100
AcDbEntity
  8
1
  6
CONTINUOUS
 62
           3
100
AcDbLine
 10
-1565.0
 20
-1295.159560114349
 11
-1565.0
 21
-1370.159560114349
  0
LINE
  5
61E
100
AcDbEntity
  8
1
  6
CONTINUOUS
 62
           3
100
AcDbLine
 10
-1407.0
 20
-1295.159560114348
 11
-1407.0
 21
-1445.159560114348
  0
LINE
  5
61D
100
AcDbEntity
  8
1
  6
CONTINUOUS
 62
           3
100
AcDbLine
 10
-1423.0
 20
-1445.159560114348
 11
-1423.0
 21
-1295.159560114348
  0
LINE
  5
61C
100
AcDbEntity
  8
1
  6
CONTINUOUS
 62
           3
100
AcDbLine
 10
-1265.0
 20
-2200.159560114349
 11
-1265.000000000001
 21
-2275.159560114349
  0
LINE
  5
61B
100
AcDbEntity
  8
1
  6
CONTINUOUS
 62
           3
100
AcDbLine
 10
-1423.0
 20
-2275.159560114348
 11
-1375.0
 21
-2275.159560114348
  0
LINE
  5
61A
100
AcDbEntity
  8
1
  6
CONTINUOUS
 62
           3
100
AcDbLine
 10
-1565.0
 20
-2125.159560114349
 11
-1407.0
 21
-2125.159560114348
  0
LINE
  5
619
100
AcDbEntity
  8
1
  6
CONTINUOUS
 62
           3
100
AcDbLine
 10
-1565.0
 20
-2125.159560114349
 11
-1565.0
 21
-2200.159560114349
  0
LINE
  5
618
100
AcDbEntity
  8
1
  6
CONTINUOUS
 62
           3
100
AcDbLine
 10
-1407.0
 20
-2125.159560114348
 11
-1407.0
 21
-2275.159560114348
  0
LINE
  5
617
100
AcDbEntity
  8
1
  6
CONTINUOUS
 62
           3
100
AcDbLine
 10
-1423.0
 20
-2275.159560114348
 11
-1423.0
 21
-2125.159560114348
  0
LINE
  5
616
100
AcDbEntity
  8
1
  6
CONTINUOUS
 62
           3
100
AcDbLine
 10
-1565.0
 20
-2955.159560114349
 11
-1407.0
 21
-2955.159560114349
  0
LINE
  5
615
100
AcDbEntity
  8
1
  6
CONTINUOUS
 62
           3
100
AcDbLine
 10
-1565.0
 20
-3030.159560114348
 11
-1265.0
 21
-3030.159560114348
  0
LINE
  5
614
100
AcDbEntity
  8
1
  6
CONTINUOUS
 62
           3
100
AcDbLine
 10
-1423.0
 20
-3105.159560114347
 11
-1265.000000000001
 21
-3105.159560114348
  0
LINE
  5
613
100
AcDbEntity
  8
1
  6
CONTINUOUS
 62
           3
100
AcDbLine
 10
-1265.0
 20
-3030.159560114348
 11
-1265.000000000001
 21
-3105.159560114348
  0
LINE
  5
612
100
AcDbEntity
  8
1
  6
CONTINUOUS
 62
           3
100
AcDbLine
 10
-1407.0
 20
-2955.159560114349
 11
-1407.0
 21
-3105.159560114347
  0
LINE
  5
611
100
AcDbEntity
  8
1
  6
CONTINUOUS
 62
           3
100
AcDbLine
 10
-1565.0
 20
-2955.159560114349
 11
-1565.0
 21
-3030.159560114348
  0
LINE
  5
610
100
AcDbEntity
  8
1
  6
CONTINUOUS
 62
           3
100
AcDbLine
 10
-1423.0
 20
-3105.159560114347
 11
-1423.0
 21
-2955.159560114349
  0
LINE
  5
60F
100
AcDbEntity
  8
1
  6
CONTINUOUS
 62
           3
100
AcDbLine
 10
-1565.0
 20
-3785.159560114348
 11
-1407.0
 21
-3785.159560114348
  0
LINE
  5
60E
100
AcDbEntity
  8
1
  6
CONTINUOUS
 62
           3
100
AcDbLine
 10
-1565.0
 20
-3860.159560114348
 11
-1265.0
 21
-3860.159560114348
  0
LINE
  5
60D
100
AcDbEntity
  8
1
  6
CONTINUOUS
 62
           3
100
AcDbLine
 10
-1423.0
 20
-3935.159560114348
 11
-1265.000000000001
 21
-3935.159560114348
  0
LINE
  5
60C
100
AcDbEntity
  8
1
  6
CONTINUOUS
 62
           3
100
AcDbLine
 10
-1265.0
 20
-3860.159560114348
 11
-1265.000000000001
 21
-3935.159560114348
  0
LINE
  5
60B
100
AcDbEntity
  8
1
  6
CONTINUOUS
 62
           3
100
AcDbLine
 10
-1407.0
 20
-3785.159560114348
 11
-1407.0
 21
-3935.159560114348
  0
LINE
  5
60A
100
AcDbEntity
  8
1
  6
CONTINUOUS
 62
           3
100
AcDbLine
 10
-1565.0
 20
-3785.159560114348
 11
-1565.0
 21
-3860.159560114348
  0
LINE
  5
609
100
AcDbEntity
  8
1
  6
CONTINUOUS
 62
           3
100
AcDbLine
 10
-1423.0
 20
-3935.159560114348
 11
-1423.0
 21
-3785.159560114347
  0
LINE
  5
608
100
AcDbEntity
  8
1
  6
DOT_CENTER
 62
           3
100
AcDbLine
 10
-1356.084340860572
 20
-2890.159560114348
 11
-1022.657383889783
 21
-2890.159560114348
  0
LINE
  5
607
100
AcDbEntity
  8
1
  6
DOT_CENTER
 62
           3
100
AcDbLine
 10
-1290.0
 20
-2880.791553607397
 11
-1290.0
 21
-2900.103740376298
  0
LINE
  5
606
100
AcDbEntity
  8
1
  6
CONTINUOUS
 62
           3
100
AcDbLine
 10
-1495.0
 20
-1114.736700847579
 11
-1385.0
 21
-1114.736700847579
  0
LINE
  5
605
100
AcDbEntity
  8
1
  6
CONTINUOUS
 62
           3
100
AcDbLine
 10
-1495.0
 20
-1146.736700847579
 11
-1385.0
 21
-1146.736700847579
  0
LINE
  5
604
100
AcDbEntity
  8
1
  6
CONTINUOUS
 62
           3
100
AcDbLine
 10
-1385.0
 20
-1114.736700847579
 11
-1385.0
 21
-1146.736700847579
  0
LINE
  5
603
100
AcDbEntity
  8
1
  6
CONTINUOUS
 62
           3
100
AcDbLine
 10
-1495.0
 20
-1114.736700847579
 11
-1495.0
 21
-1146.736700847579
  0
LINE
  5
602
100
AcDbEntity
  8
1
  6
CONTINUOUS
 62
           3
100
AcDbLine
 10
-1417.203183476983
 20
-1114.736700847579
 11
-1417.203183476983
 21
-1146.736700847579
  0
LINE
  5
601
100
AcDbEntity
  8
1
  6
CONTINUOUS
 62
           3
100
AcDbLine
 10
-1400.0
 20
-2970.159560114348
 11
-1320.0
 21
-2970.159560114348
  0
LINE
  5
600
100
AcDbEntity
  8
1
  6
CONTINUOUS
 62
           3
100
AcDbLine
 10
-1400.0
 20
-3010.159560114348
 11
-1320.0
 21
-3010.159560114348
  0
LINE
  5
5FF
100
AcDbEntity
  8
1
  6
CONTINUOUS
 62
           3
100
AcDbLine
 10
-1320.0
 20
-2970.159560114348
 11
-1320.0
 21
-3010.159560114348
  0
LINE
  5
5FE
100
AcDbEntity
  8
1
  6
CONTINUOUS
 62
           3
100
AcDbLine
 10
-1400.0
 20
-2970.159560114348
 11
-1400.0
 21
-3010.159560114348
  0
LINE
  5
5FD
100
AcDbEntity
  8
1
  6
CONTINUOUS
 62
           3
100
AcDbLine
 10
-1400.0
 20
-1235.159560114349
 11
-1320.0
 21
-1235.159560114349
  0
LINE
  5
5FC
100
AcDbEntity
  8
1
  6
CONTINUOUS
 62
           3
100
AcDbLine
 10
-1400.0
 20
-1275.159560114349
 11
-1320.0
 21
-1275.159560114349
  0
LINE
  5
5FB
100
AcDbEntity
  8
1
  6
CONTINUOUS
 62
           3
100
AcDbLine
 10
-1320.0
 20
-1235.159560114349
 11
-1320.0
 21
-1275.159560114349
  0
LINE
  5
5FA
100
AcDbEntity
  8
1
  6
CONTINUOUS
 62
           3
100
AcDbLine
 10
-1400.0
 20
-1235.159560114349
 11
-1400.0
 21
-1275.159560114349
  0
LINE
  5
5F9
100
AcDbEntity
  8
1
  6
CONTINUOUS
 62
           3
100
AcDbLine
 10
-1385.0
 20
-1225.159560114349
 11
-1335.0
 21
-1225.159560114349
  0
LINE
  5
5F8
100
AcDbEntity
  8
1
  6
CONTINUOUS
 62
           3
100
AcDbLine
 10
-1335.0
 20
-1225.159560114349
 11
-1335.0
 21
-1235.159560114349
  0
LINE
  5
5F7
100
AcDbEntity
  8
1
  6
CONTINUOUS
 62
           3
100
AcDbLine
 10
-1385.0
 20
-1225.159560114349
 11
-1385.0
 21
-1235.159560114349
  0
LINE
  5
5F6
100
AcDbEntity
  8
1
  6
CONTINUOUS
 62
           3
100
AcDbLine
 10
-1385.0
 20
-1119.76896589303
 11
-1340.240661247402
 21
-1119.76896589303
  0
LINE
  5
5F5
100
AcDbEntity
  8
1
  6
CONTINUOUS
 62
           3
100
AcDbLine
 10
-1385.0
 20
-1142.659560114349
 11
-1340.240661247402
 21
-1142.659560114349
  0
LINE
  5
5F4
100
AcDbEntity
  8
1
  6
CONTINUOUS
 62
           3
100
AcDbLine
 10
-1340.240661247402
 20
-1119.76896589303
 11
-1340.240661247402
 21
-1142.659560114349
  0
LINE
  5
5F3
100
AcDbEntity
  8
1
  6
CONTINUOUS
 62
           3
100
AcDbLine
 10
-1345.0
 20
-1142.659560114349
 11
-1345.0
 21
-1225.159560114349
  0
LINE
  5
5F2
100
AcDbEntity
  8
1
  6
CONTINUOUS
 62
           3
100
AcDbLine
 10
-1375.0
 20
-3010.159560114348
 11
-1375.0
 21
-1275.159560114349
  0
LINE
  5
5F1
100
AcDbEntity
  8
1
  6
CONTINUOUS
 62
           3
100
AcDbLine
 10
-1375.0
 20
-1225.159560114349
 11
-1375.0
 21
-1142.659560114349
  0
LINE
  5
5F0
100
AcDbEntity
  8
1
  6
CONTINUOUS
 62
           3
100
AcDbLine
 10
-1345.0
 20
-1275.159560114349
 11
-1345.0
 21
-3010.159560114348
  0
LINE
  5
5EF
100
AcDbEntity
  8
1
  6
CONTINUOUS
 62
           3
100
AcDbLine
 10
-1220.0
 20
-2850.159560114348
 11
-1200.0
 21
-2850.159560114348
  0
LINE
  5
5EE
100
AcDbEntity
  8
1
  6
CONTINUOUS
 62
           3
100
AcDbLine
 10
-1200.0
 20
-2850.159560114348
 11
-1200.0
 21
-2910.159560114347
  0
LINE
  5
5ED
100
AcDbEntity
  8
1
  6
CONTINUOUS
 62
           3
100
AcDbLine
 10
-1200.0
 20
-2910.159560114347
 11
-1220.0
 21
-2910.159560114347
  0
LINE
  5
5EC
100
AcDbEntity
  8
1
  6
CONTINUOUS
 62
           3
100
AcDbLine
 10
-1220.0
 20
-2910.159560114347
 11
-1220.0
 21
-2850.159560114348
  0
LINE
  5
5EB
100
AcDbEntity
  8
1
  6
CONTINUOUS
 62
           3
100
AcDbLine
 10
-1345.0
 20
-2875.159560114348
 11
-1280.0
 21
-2875.159560114348
  0
LINE
  5
5EA
100
AcDbEntity
  8
1
  6
CONTINUOUS
 62
           3
100
AcDbLine
 10
-1345.0
 20
-2905.159560114347
 11
-1280.0
 21
-2905.159560114347
  0
LINE
  5
5E9
100
AcDbEntity
  8
1
  6
CONTINUOUS
 62
           3
100
AcDbLine
 10
-1280.0
 20
-2875.159560114348
 11
-1270.0
 21
-2880.159560114348
  0
LINE
  5
5E8
100
AcDbEntity
  8
1
  6
CONTINUOUS
 62
           3
100
AcDbLine
 10
-1280.0
 20
-2905.159560114347
 11
-1270.0
 21
-2900.159560114347
  0
LINE
  5
5E7
100
AcDbEntity
  8
1
  6
CONTINUOUS
 62
           3
100
AcDbLine
 10
-1270.0
 20
-2880.159560114348
 11
-1223.845641882453
 21
-2880.159560114348
  0
LINE
  5
5E6
100
AcDbEntity
  8
1
  6
CONTINUOUS
 62
           3
100
AcDbLine
 10
-1270.0
 20
-2900.159560114347
 11
-1222.226353550273
 21
-2900.159560114347
  0
LINE
  5
5E5
100
AcDbEntity
  8
1
  6
CONTINUOUS
 62
           3
100
AcDbLine
 10
-1196.857503012694
 20
-2880.159560114348
 11
-1030.752702578392
 21
-2880.159560114348
  0
LINE
  5
5E4
100
AcDbEntity
  8
1
  6
CONTINUOUS
 62
           3
100
AcDbLine
 10
-1196.857503012694
 20
-2900.159560114347
 11
-1030.752702578392
 21
-2900.159560114347
  0
LINE
  5
5E3
100
AcDbEntity
  8
1
  6
CONTINUOUS
 62
           3
100
AcDbLine
 10
-1025.752702578392
 20
-2885.159560114348
 11
-1025.752702578392
 21
-2895.159560114348
  0
LINE
  5
5E2
100
AcDbEntity
  8
1
  6
CONTINUOUS
 62
           2
100
AcDbLine
 10
-2935.0
 20
-1155.159560114349
 11
-2935.0
 21
-4010.159560114348
  0
LINE
  5
5E1
100
AcDbEntity
  8
1
  6
CONTINUOUS
 62
           3
100
AcDbLine
 10
-3722.0
 20
-2100.159560114349
 11
-3557.0
 21
-2100.159560114349
  0
LINE
  5
5E0
100
AcDbEntity
  8
1
  6
CONTINUOUS
 62
           3
100
AcDbLine
 10
-3792.0
 20
-2200.159560114349
 11
-3557.0
 21
-2200.159560114349
  0
LINE
  5
5DF
100
AcDbEntity
  8
1
  6
CONTINUOUS
 62
           3
100
AcDbLine
 10
-3792.0
 20
-2300.159560114349
 11
-3692.0
 21
-2300.159560114349
  0
LINE
  5
5DE
100
AcDbEntity
  8
1
  6
CONTINUOUS
 62
           3
100
AcDbLine
 10
-3792.0
 20
-2300.159560114349
 11
-3792.0
 21
-2200.159560114349
  0
LINE
  5
5DD
100
AcDbEntity
  8
1
  6
CONTINUOUS
 62
           3
100
AcDbLine
 10
-3722.0
 20
-2300.159560114349
 11
-3722.0
 21
-2100.159560114349
  0
LINE
  5
5DC
100
AcDbEntity
  8
1
  6
CONTINUOUS
 62
           3
100
AcDbLine
 10
-3692.0
 20
-2300.159560114349
 11
-3692.0
 21
-2100.159560114349
  0
LINE
  5
5DB
100
AcDbEntity
  8
1
  6
CONTINUOUS
 62
           3
100
AcDbLine
 10
-3557.0
 20
-2200.159560114349
 11
-3557.0
 21
-2100.159560114349
  0
LINE
  5
5DA
100
AcDbEntity
  8
1
  6
CONTINUOUS
 62
           2
100
AcDbLine
 10
-3690.0
 20
-1155.159560114349
 11
-3690.0
 21
-4097.159560114348
  0
LINE
  5
5D9
100
AcDbEntity
  8
1
  6
CONTINUOUS
 62
           2
100
AcDbLine
 10
-660.0
 20
-1155.159560114349
 11
-660.0
 21
-4097.159560114348
  0
LINE
  5
5D8
100
AcDbEntity
  8
1
  6
CONTINUOUS
 62
           2
100
AcDbLine
 10
-3690.0
 20
-1155.159560114349
 11
-3004.999999999999
 21
-1155.159560114349
  0
LINE
  5
5D7
100
AcDbEntity
  8
1
  6
CONTINUOUS
 62
           2
100
AcDbLine
 10
-3690.0
 20
-4010.159560114348
 11
-2137.467426417009
 21
-4010.159560114348
  0
LINE
  5
5D6
100
AcDbEntity
  8
1
  6
CONTINUOUS
 62
           3
100
AcDbLine
 10
-2242.0
 20
-2770.159560114348
 11
-2242.0
 21
-3010.159560114348
  0
LINE
  5
5D5
100
AcDbEntity
  8
1
  6
CONTINUOUS
 62
           3
100
AcDbLine
 10
-2258.0
 20
-2770.159560114348
 11
-2258.0
 21
-3010.159560114348
  0
LINE
  5
5D4
100
AcDbEntity
  8
1
  6
CONTINUOUS
 62
           3
100
AcDbLine
 10
-2258.0
 20
-2770.159560114348
 11
-2242.0
 21
-2770.159560114348
  0
LINE
  5
5D3
100
AcDbEntity
  8
1
  6
CONTINUOUS
 62
           3
100
AcDbLine
 10
-2258.0
 20
-3010.159560114348
 11
-2242.0
 21
-3010.159560114348
  0
LINE
  5
5D2
100
AcDbEntity
  8
1
  6
DOT_CENTER
 62
           3
100
AcDbLine
 10
-2275.809287984714
 20
-2890.159560114348
 11
-2226.138725159523
 21
-2890.159560114348
  0
LINE
  5
5D1
100
AcDbEntity
  8
1
  6
DOT_CENTER
 62
           3
100
AcDbLine
 10
-2116.084340860572
 20
-2890.159560114348
 11
-1782.657383889783
 21
-2890.159560114348
  0
LINE
  5
5D0
100
AcDbEntity
  8
1
  6
DOT_CENTER
 62
           3
100
AcDbLine
 10
-2250.0
 20
-2754.092426185058
 11
-2250.0
 21
-3028.741420630248
  0
LINE
  5
5CF
100
AcDbEntity
  8
1
  6
CONTINUOUS
 62
           3
100
AcDbLine
 10
-2265.0
 20
-2760.159560114348
 11
-2235.0
 21
-2760.159560114348
  0
LINE
  5
5CE
100
AcDbEntity
  8
1
  6
CONTINUOUS
 62
           3
100
AcDbLine
 10
-2235.0
 20
-2760.159560114348
 11
-2235.0
 21
-2780.159560114348
  0
LINE
  5
5CD
100
AcDbEntity
  8
1
  6
CONTINUOUS
 62
           3
100
AcDbLine
 10
-2265.0
 20
-2760.159560114348
 11
-2265.0
 21
-2780.159560114348
  0
LINE
  5
5CC
100
AcDbEntity
  8
1
  6
CONTINUOUS
 62
           3
100
AcDbLine
 10
-2235.0
 20
-2780.159560114348
 11
-2242.0
 21
-2790.159560114348
  0
LINE
  5
5CB
100
AcDbEntity
  8
1
  6
CONTINUOUS
 62
           3
100
AcDbLine
 10
-2265.0
 20
-2780.159560114348
 11
-2258.0
 21
-2790.159560114348
  0
LINE
  5
5CA
100
AcDbEntity
  8
1
  6
CONTINUOUS
 62
           3
100
AcDbLine
 10
-2242.0
 20
-2990.159560114348
 11
-2235.0
 21
-3000.159560114348
  0
LINE
  5
5C9
100
AcDbEntity
  8
1
  6
CONTINUOUS
 62
           3
100
AcDbLine
 10
-2258.0
 20
-2990.159560114348
 11
-2265.0
 21
-3000.159560114347
  0
LINE
  5
5C8
100
AcDbEntity
  8
1
  6
CONTINUOUS
 62
           3
100
AcDbLine
 10
-2265.0
 20
-3020.159560114348
 11
-2235.0
 21
-3020.159560114348
  0
LINE
  5
5C7
100
AcDbEntity
  8
1
  6
CONTINUOUS
 62
           3
100
AcDbLine
 10
-2235.0
 20
-3000.159560114348
 11
-2235.0
 21
-3020.159560114348
  0
LINE
  5
5C6
100
AcDbEntity
  8
1
  6
CONTINUOUS
 62
           3
100
AcDbLine
 10
-2265.0
 20
-3000.159560114347
 11
-2265.0
 21
-3020.159560114348
  0
LINE
  5
5C5
100
AcDbEntity
  8
1
  6
DOT_CENTER
 62
           3
100
AcDbLine
 10
-2050.0
 20
-2880.791553607397
 11
-2050.0
 21
-2900.103740376298
  0
LINE
  5
5C4
100
AcDbEntity
  8
1
  6
CONTINUOUS
 62
           3
100
AcDbLine
 10
-2255.0
 20
-1114.736700847579
 11
-2145.0
 21
-1114.736700847579
  0
LINE
  5
5C3
100
AcDbEntity
  8
1
  6
CONTINUOUS
 62
           3
100
AcDbLine
 10
-2255.0
 20
-1146.736700847579
 11
-2145.0
 21
-1146.736700847579
  0
LINE
  5
5C2
100
AcDbEntity
  8
1
  6
CONTINUOUS
 62
           3
100
AcDbLine
 10
-2145.0
 20
-1114.736700847579
 11
-2145.0
 21
-1146.736700847579
  0
LINE
  5
5C1
100
AcDbEntity
  8
1
  6
CONTINUOUS
 62
           3
100
AcDbLine
 10
-2255.0
 20
-1114.736700847579
 11
-2255.0
 21
-1146.736700847579
  0
LINE
  5
5C0
100
AcDbEntity
  8
1
  6
CONTINUOUS
 62
           3
100
AcDbLine
 10
-2177.203183476983
 20
-1114.736700847579
 11
-2177.203183476983
 21
-1146.736700847579
  0
LINE
  5
5BF
100
AcDbEntity
  8
1
  6
CONTINUOUS
 62
           3
100
AcDbLine
 10
-2254.245683963521
 20
-4011.188249897417
 11
-2144.24568396352
 21
-4011.188249897417
  0
LINE
  5
5BE
100
AcDbEntity
  8
1
  6
CONTINUOUS
 62
           3
100
AcDbLine
 10
-2254.245683963521
 20
-4043.188249897417
 11
-2144.24568396352
 21
-4043.188249897417
  0
LINE
  5
5BD
100
AcDbEntity
  8
1
  6
CONTINUOUS
 62
           3
100
AcDbLine
 10
-2144.24568396352
 20
-4011.188249897417
 11
-2144.24568396352
 21
-4043.188249897417
  0
LINE
  5
5BC
100
AcDbEntity
  8
1
  6
CONTINUOUS
 62
           3
100
AcDbLine
 10
-2254.245683963521
 20
-4011.188249897417
 11
-2254.245683963521
 21
-4043.188249897417
  0
LINE
  5
5BB
100
AcDbEntity
  8
1
  6
CONTINUOUS
 62
           3
100
AcDbLine
 10
-2176.448867440502
 20
-4011.188249897417
 11
-2176.448867440502
 21
-4043.188249897417
  0
LINE
  5
5BA
100
AcDbEntity
  8
1
  6
CONTINUOUS
 62
           2
100
AcDbLine
 10
-2175.0
 20
-4010.159560114348
 11
-2175.0
 21
-1155.159560114349
  0
LINE
  5
5B9
100
AcDbEntity
  8
1
  6
CONTINUOUS
 62
           3
100
AcDbLine
 10
-2160.0
 20
-3938.159560114348
 11
-2080.0
 21
-3938.159560114348
  0
LINE
  5
5B8
100
AcDbEntity
  8
1
  6
CONTINUOUS
 62
           3
100
AcDbLine
 10
-2160.0
 20
-3978.159560114348
 11
-2080.0
 21
-3978.159560114348
  0
LINE
  5
5B7
100
AcDbEntity
  8
1
  6
CONTINUOUS
 62
           3
100
AcDbLine
 10
-2080.0
 20
-3938.159560114348
 11
-2080.0
 21
-3978.159560114348
  0
LINE
  5
5B6
100
AcDbEntity
  8
1
  6
CONTINUOUS
 62
           3
100
AcDbLine
 10
-2160.0
 20
-3938.159560114348
 11
-2160.0
 21
-3978.159560114348
  0
LINE
  5
5B5
100
AcDbEntity
  8
1
  6
CONTINUOUS
 62
           3
100
AcDbLine
 10
-2160.0
 20
-3010.159560114348
 11
-2080.0
 21
-3010.159560114348
  0
LINE
  5
5B4
100
AcDbEntity
  8
1
  6
CONTINUOUS
 62
           3
100
AcDbLine
 10
-2080.0
 20
-2970.159560114348
 11
-2080.0
 21
-3010.159560114348
  0
LINE
  5
5B3
100
AcDbEntity
  8
1
  6
CONTINUOUS
 62
           3
100
AcDbLine
 10
-2160.0
 20
-2970.159560114348
 11
-2160.0
 21
-3010.159560114348
  0
LINE
  5
5B2
100
AcDbEntity
  8
1
  6
CONTINUOUS
 62
           3
100
AcDbLine
 10
-2160.0
 20
-1235.159560114349
 11
-2080.0
 21
-1235.159560114349
  0
LINE
  5
5B1
100
AcDbEntity
  8
1
  6
CONTINUOUS
 62
           3
100
AcDbLine
 10
-2160.0
 20
-1275.159560114349
 11
-2080.0
 21
-1275.159560114349
  0
LINE
  5
5B0
100
AcDbEntity
  8
1
  6
CONTINUOUS
 62
           3
100
AcDbLine
 10
-2080.0
 20
-1235.159560114349
 11
-2080.0
 21
-1275.159560114349
  0
LINE
  5
5AF
100
AcDbEntity
  8
1
  6
CONTINUOUS
 62
           3
100
AcDbLine
 10
-2160.0
 20
-1235.159560114349
 11
-2160.0
 21
-1275.159560114349
  0
LINE
  5
5AE
100
AcDbEntity
  8
1
  6
CONTINUOUS
 62
           3
100
AcDbLine
 10
-2145.0
 20
-3988.159560114348
 11
-2095.0
 21
-3988.159560114348
  0
LINE
  5
5AD
100
AcDbEntity
  8
1
  6
CONTINUOUS
 62
           3
100
AcDbLine
 10
-2095.0
 20
-3978.159560114348
 11
-2095.0
 21
-3988.159560114348
  0
LINE
  5
5AC
100
AcDbEntity
  8
1
  6
CONTINUOUS
 62
           3
100
AcDbLine
 10
-2145.0
 20
-3978.159560114348
 11
-2145.0
 21
-3988.159560114348
  0
LINE
  5
5AB
100
AcDbEntity
  8
1
  6
CONTINUOUS
 62
           3
100
AcDbLine
 10
-2145.0
 20
-1225.159560114349
 11
-2095.0
 21
-1225.159560114349
  0
LINE
  5
5AA
100
AcDbEntity
  8
1
  6
CONTINUOUS
 62
           3
100
AcDbLine
 10
-2095.0
 20
-1225.159560114349
 11
-2095.0
 21
-1235.159560114349
  0
LINE
  5
5A9
100
AcDbEntity
  8
1
  6
CONTINUOUS
 62
           3
100
AcDbLine
 10
-2145.0
 20
-1225.159560114349
 11
-2145.0
 21
-1235.159560114349
  0
LINE
  5
5A8
100
AcDbEntity
  8
1
  6
CONTINUOUS
 62
           2
100
AcDbLine
 10
-2105.0
 20
-1155.159560114349
 11
-1375.0
 21
-1155.159560114349
  0
LINE
  5
5A7
100
AcDbEntity
  8
1
  6
CONTINUOUS
 62
           2
100
AcDbLine
 10
-2102.004281112283
 20
-4010.159560114348
 11
-660.0
 21
-4010.159560114348
  0
LINE
  5
5A6
100
AcDbEntity
  8
1
  6
CONTINUOUS
 62
           3
100
AcDbLine
 10
-2144.24568396352
 20
-4017.659560114348
 11
-2098.911909658832
 21
-4017.659560114348
  0
LINE
  5
5A5
100
AcDbEntity
  8
1
  6
CONTINUOUS
 62
           3
100
AcDbLine
 10
-2144.24568396352
 20
-4038.778902501859
 11
-2098.911909658832
 21
-4038.778902501859
  0
LINE
  5
5A4
100
AcDbEntity
  8
1
  6
CONTINUOUS
 62
           3
100
AcDbLine
 10
-2098.911909658832
 20
-4017.659560114348
 11
-2098.911909658832
 21
-4039.438881951459
  0
LINE
  5
5A3
100
AcDbEntity
  8
1
  6
CONTINUOUS
 62
           3
100
AcDbLine
 10
-2145.0
 20
-1119.76896589303
 11
-2100.240661247402
 21
-1119.76896589303
  0
LINE
  5
5A2
100
AcDbEntity
  8
1
  6
CONTINUOUS
 62
           3
100
AcDbLine
 10
-2145.0
 20
-1142.659560114349
 11
-2100.441455933552
 21
-1142.659560114349
  0
LINE
  5
5A1
100
AcDbEntity
  8
1
  6
CONTINUOUS
 62
           3
100
AcDbLine
 10
-2100.240661247402
 20
-1119.76896589303
 11
-2100.240661247402
 21
-1142.860354800499
  0
LINE
  5
5A0
100
AcDbEntity
  8
1
  6
CONTINUOUS
 62
           3
100
AcDbLine
 10
-2105.0
 20
-1142.659560114349
 11
-2105.0
 21
-1225.159560114349
  0
LINE
  5
59F
100
AcDbEntity
  8
1
  6
CONTINUOUS
 62
           3
100
AcDbLine
 10
-2105.0
 20
-3988.159560114348
 11
-2105.0
 21
-4017.659560114348
  0
LINE
  5
59E
100
AcDbEntity
  8
1
  6
CONTINUOUS
 62
           3
100
AcDbLine
 10
-2135.0
 20
-3988.159560114348
 11
-2135.0
 21
-4017.659560114348
  0
LINE
  5
59D
100
AcDbEntity
  8
1
  6
CONTINUOUS
 62
           3
100
AcDbLine
 10
-2135.0
 20
-3938.159560114349
 11
-2135.0
 21
-1275.159560114349
  0
LINE
  5
59C
100
AcDbEntity
  8
1
  6
CONTINUOUS
 62
           3
100
AcDbLine
 10
-2135.0
 20
-1225.159560114349
 11
-2135.0
 21
-1142.659560114349
  0
LINE
  5
59B
100
AcDbEntity
  8
1
  6
CONTINUOUS
 62
           3
100
AcDbLine
 10
-1980.0
 20
-2850.159560114348
 11
-1960.0
 21
-2850.159560114348
  0
LINE
  5
59A
100
AcDbEntity
  8
1
  6
CONTINUOUS
 62
           3
100
AcDbLine
 10
-1960.0
 20
-2850.159560114348
 11
-1960.0
 21
-2910.159560114347
  0
LINE
  5
599
100
AcDbEntity
  8
1
  6
CONTINUOUS
 62
           3
100
AcDbLine
 10
-1960.0
 20
-2910.159560114347
 11
-1980.0
 21
-2910.159560114347
  0
LINE
  5
598
100
AcDbEntity
  8
1
  6
CONTINUOUS
 62
           3
100
AcDbLine
 10
-1980.0
 20
-2910.159560114347
 11
-1980.0
 21
-2850.159560114348
  0
LINE
  5
597
100
AcDbEntity
  8
1
  6
CONTINUOUS
 62
           3
100
AcDbLine
 10
-2105.0
 20
-2875.159560114348
 11
-2040.0
 21
-2875.159560114348
  0
LINE
  5
596
100
AcDbEntity
  8
1
  6
CONTINUOUS
 62
           3
100
AcDbLine
 10
-2105.0
 20
-2905.159560114347
 11
-2040.0
 21
-2905.159560114347
  0
LINE
  5
595
100
AcDbEntity
  8
1
  6
CONTINUOUS
 62
           3
100
AcDbLine
 10
-2040.0
 20
-2875.159560114348
 11
-2030.0
 21
-2880.159560114348
  0
LINE
  5
594
100
AcDbEntity
  8
1
  6
CONTINUOUS
 62
           3
100
AcDbLine
 10
-2040.0
 20
-2905.159560114347
 11
-2030.0
 21
-2900.159560114347
  0
LINE
  5
593
100
AcDbEntity
  8
1
  6
CONTINUOUS
 62
           3
100
AcDbLine
 10
-2030.0
 20
-2880.159560114348
 11
-1980.0
 21
-2880.159560114348
  0
LINE
  5
592
100
AcDbEntity
  8
1
  6
CONTINUOUS
 62
           3
100
AcDbLine
 10
-2030.0
 20
-2900.159560114347
 11
-1980.0
 21
-2900.159560114347
  0
LINE
  5
591
100
AcDbEntity
  8
1
  6
CONTINUOUS
 62
           3
100
AcDbLine
 10
-1960.0
 20
-2880.159560114348
 11
-1790.752702578392
 21
-2880.159560114348
  0
LINE
  5
590
100
AcDbEntity
  8
1
  6
CONTINUOUS
 62
           3
100
AcDbLine
 10
-1960.0
 20
-2900.159560114347
 11
-1790.752702578392
 21
-2900.159560114347
  0
LINE
  5
58F
100
AcDbEntity
  8
1
  6
CONTINUOUS
 62
           3
100
AcDbLine
 10
-1785.752702578392
 20
-2885.159560114348
 11
-1785.752702578392
 21
-2895.159560114348
  0
LINE
  5
58E
100
AcDbEntity
  8
1
  6
PHANTOM
 62
           3
100
AcDbLine
 10
1393.161287016839
 20
-3610.959560114347
 11
1405.661287016839
 21
-3610.959560114347
  0
LINE
  5
58D
100
AcDbEntity
  8
1
  6
PHANTOM
 62
           3
100
AcDbLine
 10
1405.661287016839
 20
-3610.959560114347
 11
1405.661287016839
 21
-3580.959560114347
  0
LINE
  5
58C
100
AcDbEntity
  8
1
  6
PHANTOM
 62
           3
100
AcDbLine
 10
1385.161287016839
 20
-3580.959560114347
 11
1580.161287016839
 21
-3580.959560114349
  0
LINE
  5
58B
100
AcDbEntity
  8
1
  6
PHANTOM
 62
           3
100
AcDbLine
 10
1489.161287016837
 20
-3501.459560114347
 11
1529.161287016837
 21
-3501.459560114347
  0
LINE
  5
58A
100
AcDbEntity
  8
1
  6
PHANTOM
 62
           3
100
AcDbLine
 10
1489.161287016837
 20
-3501.459560114347
 11
1476.661287016839
 21
-3517.459560114347
  0
LINE
  5
589
100
AcDbEntity
  8
1
  6
PHANTOM
 62
           3
100
AcDbLine
 10
1529.161287016837
 20
-3501.459560114347
 11
1541.661287016839
 21
-3517.459560114347
  0
LINE
  5
588
100
AcDbEntity
  8
1
  6
PHANTOM
 62
           3
100
AcDbLine
 10
1549.661287016837
 20
-3520.459560114347
 11
1549.661287016837
 21
-3517.459560114347
  0
LINE
  5
587
100
AcDbEntity
  8
1
  6
PHANTOM
 62
           3
100
AcDbLine
 10
1471.661287016839
 20
-3517.459560114347
 11
1549.661287016837
 21
-3517.459560114347
  0
LINE
  5
586
100
AcDbEntity
  8
1
  6
PHANTOM
 62
           3
100
AcDbLine
 10
1316.868848756748
 20
-3355.209560114349
 11
1319.287877618142
 21
-3353.63226531613
  0
LINE
  5
585
100
AcDbEntity
  8
1
  6
PHANTOM
 62
           3
100
AcDbLine
 10
1267.010650070612
 20
-3397.045556243048
 11
1316.868848756748
 21
-3355.209560114349
  0
LINE
  5
584
100
AcDbEntity
  8
1
  6
PHANTOM
 62
           3
100
AcDbLine
 10
1294.161287016839
 20
-3327.268804379279
 11
1339.161274186265
 21
-3289.509331742432
  0
LINE
  5
583
100
AcDbEntity
  8
1
  6
PHANTOM
 62
           3
100
AcDbLine
 10
1286.156924321199
 20
-3315.709560114347
 11
1339.161274186265
 21
-3271.233629691778
  0
LINE
  5
582
100
AcDbEntity
  8
1
  6
DOT_CENTER
 62
           3
100
AcDbLine
 10
1285.124494038654
 20
-3595.959560114347
 11
1800.052400884439
 21
-3595.959560114347
  0
LINE
  5
581
100
AcDbEntity
  8
1
  6
DOT_CENTER
 62
           3
100
AcDbLine
 10
1406.661287016839
 20
-3423.459560114347
 11
1306.493874612273
 21
-3280.405669748253
  0
LINE
  5
580
100
AcDbEntity
  8
1
  6
PHANTOM
 62
           3
100
AcDbLine
 10
1306.762852622958
 20
-3374.412814239622
 11
1301.482650010965
 21
-3368.120113807154
  0
LINE
  5
57F
100
AcDbEntity
  8
1
  6
PHANTOM
 62
           3
100
AcDbLine
 10
1400.161307836892
 20
-3285.318888420351
 11
1404.898649832026
 21
-3281.343786499472
  0
LINE
  5
57E
100
AcDbEntity
  8
1
  6
PHANTOM
 62
           3
100
AcDbLine
 10
1253.908556334452
 20
-3381.431088962474
 11
1267.010650070612
 21
-3397.045556243048
  0
LINE
  5
57D
100
AcDbEntity
  8
1
  6
PHANTOM
 62
           3
100
AcDbLine
 10
1400.161307836892
 20
-3275.69804215742
 11
1404.898649832026
 21
-3281.343786499472
  0
LINE
  5
57C
100
AcDbEntity
  8
1
  6
PHANTOM
 62
           3
100
AcDbLine
 10
1406.661287016839
 20
-3310.459560114347
 11
1436.661287016839
 21
-3310.459560114347
  0
LINE
  5
57B
100
AcDbEntity
  8
1
  6
PHANTOM
 62
           3
100
AcDbLine
 10
1463.041498647305
 20
-3506.499716779927
 11
1466.661287016839
 21
-3506.499716779927
  0
LINE
  5
57A
100
AcDbEntity
  8
1
  6
PHANTOM
 62
           3
100
AcDbLine
 10
1476.661287016839
 20
-3517.459560114347
 11
1476.661287016839
 21
-3516.499716779927
  0
LINE
  5
579
100
AcDbEntity
  8
1
  6
PHANTOM
 62
           3
100
AcDbLine
 10
1541.661287016839
 20
-3517.459560114347
 11
1541.661287016839
 21
-3420.459560114347
  0
LINE
  5
578
100
AcDbEntity
  8
1
  6
PHANTOM
 62
           3
100
AcDbLine
 10
1406.661287016839
 20
-3315.459560114347
 11
1436.661287016839
 21
-3315.459560114347
  0
LINE
  5
577
100
AcDbEntity
  8
1
  6
PHANTOM
 62
           3
100
AcDbLine
 10
1463.041498647305
 20
-3511.499716779927
 11
1466.661287016839
 21
-3511.499716779927
  0
LINE
  5
576
100
AcDbEntity
  8
1
  6
PHANTOM
 62
           3
100
AcDbLine
 10
1546.661287016839
 20
-3517.459560114347
 11
1546.661287016839
 21
-3420.459560114347
  0
LINE
  5
575
100
AcDbEntity
  8
1
  6
PHANTOM
 62
           3
100
AcDbLine
 10
1468.661287016839
 20
-3671.959560114347
 11
1468.661287016837
 21
-3580.959560114347
  0
LINE
  5
574
100
AcDbEntity
  8
1
  6
PHANTOM
 62
           3
100
AcDbLine
 10
1471.661287016839
 20
-3671.959560114347
 11
1471.661287016839
 21
-3580.959560114347
  0
LINE
  5
573
100
AcDbEntity
  8
1
  6
PHANTOM
 62
           3
100
AcDbLine
 10
1351.161287016839
 20
-3569.959560114347
 11
1356.161287016839
 21
-3569.959560114347
  0
LINE
  5
572
100
AcDbEntity
  8
1
  6
PHANTOM
 62
           3
100
AcDbLine
 10
1351.161287016839
 20
-3561.959560114347
 11
1356.161287016839
 21
-3561.959560114347
  0
LINE
  5
571
100
AcDbEntity
  8
1
  6
DOT_CENTER
 62
           3
100
AcDbLine
 10
1343.333586403941
 20
-3565.959560114347
 11
1396.669016868067
 21
-3565.959560114347
  0
LINE
  5
570
100
AcDbEntity
  8
1
  6
PHANTOM
 62
           3
100
AcDbLine
 10
1361.161287016839
 20
-3569.959560114347
 11
1391.161287016839
 21
-3569.959560114347
  0
LINE
  5
56F
100
AcDbEntity
  8
1
  6
PHANTOM
 62
           3
100
AcDbLine
 10
1361.161287016839
 20
-3561.959560114347
 11
1391.161287016839
 21
-3561.959560114347
  0
LINE
  5
56E
100
AcDbEntity
  8
1
  6
PHANTOM
 62
           3
100
AcDbLine
 10
1345.161287016839
 20
-3569.959560114347
 11
1345.161287016839
 21
-3561.959560114347
  0
LINE
  5
56D
100
AcDbEntity
  8
1
  6
PHANTOM
 62
           3
100
AcDbLine
 10
1351.161287016839
 20
-3572.959560114347
 11
1351.161287016839
 21
-3558.959560114347
  0
LINE
  5
56C
100
AcDbEntity
  8
1
  6
PHANTOM
 62
           3
100
AcDbLine
 10
1345.161287016839
 20
-3569.959560114347
 11
1351.161287016839
 21
-3569.959560114347
  0
LINE
  5
56B
100
AcDbEntity
  8
1
  6
PHANTOM
 62
           3
100
AcDbLine
 10
1351.161287016839
 20
-3572.959560114347
 11
1356.161287016839
 21
-3572.959560114347
  0
LINE
  5
56A
100
AcDbEntity
  8
1
  6
PHANTOM
 62
           3
100
AcDbLine
 10
1351.161287016839
 20
-3558.959560114347
 11
1356.161287016839
 21
-3558.959560114347
  0
LINE
  5
569
100
AcDbEntity
  8
1
  6
PHANTOM
 62
           3
100
AcDbLine
 10
1345.161287016839
 20
-3561.959560114347
 11
1351.161287016839
 21
-3561.959560114347
  0
LINE
  5
568
100
AcDbEntity
  8
1
  6
PHANTOM
 62
           3
100
AcDbLine
 10
1385.161287016839
 20
-3555.959560114347
 11
1580.161287016837
 21
-3555.959560114347
  0
LINE
  5
567
100
AcDbEntity
  8
1
  6
PHANTOM
 62
           3
100
AcDbLine
 10
1580.161287016837
 20
-3580.959560114347
 11
1580.161287016837
 21
-3550.959560114347
  0
LINE
  5
566
100
AcDbEntity
  8
1
  6
PHANTOM
 62
           3
100
AcDbLine
 10
1385.161287016839
 20
-3550.959560114347
 11
1580.161287016837
 21
-3550.959560114347
  0
LINE
  5
565
100
AcDbEntity
  8
1
  6
PHANTOM
 62
           3
100
AcDbLine
 10
1356.161287016839
 20
-3577.959560114347
 11
1356.161287016839
 21
-3558.959560114347
  0
LINE
  5
564
100
AcDbEntity
  8
1
  6
PHANTOM
 62
           3
100
AcDbLine
 10
1331.161287016839
 20
-3552.959560114347
 11
1331.161287016839
 21
-3550.959560114347
  0
LINE
  5
563
100
AcDbEntity
  8
1
  6
PHANTOM
 62
           3
100
AcDbLine
 10
1359.161287016839
 20
-3580.959560114347
 11
1361.161287016839
 21
-3580.959560114347
  0
LINE
  5
562
100
AcDbEntity
  8
1
  6
PHANTOM
 62
           3
100
AcDbLine
 10
1334.161287016839
 20
-3555.959560114347
 11
1353.161287016839
 21
-3555.959560114347
  0
LINE
  5
561
100
AcDbEntity
  8
1
  6
PHANTOM
 62
           3
100
AcDbLine
 10
1471.661287016839
 20
-3550.959560114347
 11
1471.661287016839
 21
-3520.459560114347
  0
LINE
  5
560
100
AcDbEntity
  8
1
  6
PHANTOM
 62
           3
100
AcDbLine
 10
1468.661287016839
 20
-3550.959560114347
 11
1468.661287016839
 21
-3520.459560114347
  0
LINE
  5
55F
100
AcDbEntity
  8
1
  6
PHANTOM
 62
           3
100
AcDbLine
 10
1468.661287016839
 20
-3671.959560114347
 11
1631.161287016839
 21
-3671.959560114347
  0
LINE
  5
55E
100
AcDbEntity
  8
1
  6
PHANTOM
 62
           3
100
AcDbLine
 10
1635.661287016839
 20
-3695.959560114347
 11
1635.661287016839
 21
-3496.459560114347
  0
LINE
  5
55D
100
AcDbEntity
  8
1
  6
PHANTOM
 62
           3
100
AcDbLine
 10
1635.661287016839
 20
-3496.459560114347
 11
1631.161287016839
 21
-3496.459560114347
  0
LINE
  5
55C
100
AcDbEntity
  8
1
  6
PHANTOM
 62
           3
100
AcDbLine
 10
1631.161287016839
 20
-3496.459560114347
 11
1631.161287016839
 21
-3695.959560114347
  0
LINE
  5
55B
100
AcDbEntity
  8
1
  6
PHANTOM
 62
           3
100
AcDbLine
 10
1631.161287016839
 20
-3695.959560114347
 11
1635.661287016839
 21
-3695.959560114347
  0
LINE
  5
55A
100
AcDbEntity
  8
1
  6
PHANTOM
 62
           3
100
AcDbLine
 10
1471.661287016839
 20
-3520.459560114347
 11
1471.661287016839
 21
-3517.459560114347
  0
LINE
  5
559
100
AcDbEntity
  8
1
  6
PHANTOM
 62
           3
100
AcDbLine
 10
1631.161287016839
 20
-3520.459560114347
 11
1468.661287016839
 21
-3520.459560114347
  0
LINE
  5
558
100
AcDbEntity
  8
1
  6
DOT_CENTER
 62
           3
100
AcDbLine
 10
1266.562707135182
 20
-3423.459560114347
 11
1574.870043033367
 21
-3423.459560114347
  0
LINE
  5
557
100
AcDbEntity
  8
1
  6
DOT_CENTER
 62
           3
100
AcDbLine
 10
1406.661287016839
 20
-3544.535114644665
 11
1406.661287016839
 21
-3227.265864951502
  0
LINE
  5
556
100
AcDbEntity
  8
1
  6
PHANTOM
 62
           3
100
AcDbLine
 10
1435.661287016839
 20
-3610.959560114347
 11
1468.661287016837
 21
-3610.959560114347
  0
LINE
  5
555
100
AcDbEntity
  8
1
  6
PHANTOM
 62
           3
100
AcDbLine
 10
1435.661287016839
 20
-3610.959560114347
 11
1435.661287016839
 21
-3580.959560114347
  0
LINE
  5
554
100
AcDbEntity
  8
1
  6
PHANTOM
 62
           3
100
AcDbLine
 10
1405.661287016839
 20
-3584.959560114347
 11
1435.661287016839
 21
-3584.959560114347
  0
LINE
  5
553
100
AcDbEntity
  8
1
  6
PHANTOM
 62
           3
100
AcDbLine
 10
1405.661287016839
 20
-3606.959560114347
 11
1435.661287016839
 21
-3606.959560114347
  0
LINE
  5
552
100
AcDbEntity
  8
1
  6
PHANTOM
 62
           3
100
AcDbLine
 10
1261.411287016839
 20
-3503.459560114347
 11
1273.411287016839
 21
-3503.459560114347
  0
LINE
  5
551
100
AcDbEntity
  8
1
  6
PHANTOM
 62
           3
100
AcDbLine
 10
1260.123615783961
 20
-3526.959560114347
 11
1261.411287016839
 21
-3503.459560114347
  0
LINE
  5
550
100
AcDbEntity
  8
1
  6
PHANTOM
 62
           3
100
AcDbLine
 10
1246.161287016839
 20
-3534.959560114347
 11
1271.161287016839
 21
-3534.959560114347
  0
LINE
  5
54F
100
AcDbEntity
  8
1
  6
PHANTOM
 62
           3
100
AcDbLine
 10
1246.161287016839
 20
-3536.959560114347
 11
1271.161287016839
 21
-3536.959560114347
  0
LINE
  5
54E
100
AcDbEntity
  8
1
  6
PHANTOM
 62
           3
100
AcDbLine
 10
1246.161287016839
 20
-3538.959560114347
 11
1271.161287016839
 21
-3538.959560114347
  0
LINE
  5
54D
100
AcDbEntity
  8
1
  6
PHANTOM
 62
           3
100
AcDbLine
 10
1259.685259619579
 20
-3534.959560114347
 11
1259.83510973152
 21
-3532.224795571412
  0
LINE
  5
54C
100
AcDbEntity
  8
1
  6
PHANTOM
 62
           3
100
AcDbLine
 10
1271.411287016839
 20
-3545.959560114347
 11
1271.411287016839
 21
-3497.79044568327
  0
LINE
  5
54B
100
AcDbEntity
  8
1
  6
PHANTOM
 62
           3
100
AcDbLine
 10
1236.161287016839
 20
-3539.959560114347
 11
1226.163557019088
 21
-3539.959560114347
  0
LINE
  5
54A
100
AcDbEntity
  8
1
  6
PHANTOM
 62
           3
100
AcDbLine
 10
1216.161287016839
 20
-3563.460084852492
 11
1216.161287016839
 21
-3555.959560114348
  0
LINE
  5
549
100
AcDbEntity
  8
1
  6
PHANTOM
 62
           3
100
AcDbLine
 10
1216.163557019088
 20
-3541.959560114348
 11
1216.163557019088
 21
-3536.459035376204
  0
LINE
  5
548
100
AcDbEntity
  8
1
  6
PHANTOM
 62
           3
100
AcDbLine
 10
1226.161287016839
 20
-3560.959560114347
 11
1226.161287016839
 21
-3540.959560114349
  0
LINE
  5
547
100
AcDbEntity
  8
1
  6
DOT_CENTER
 62
           3
100
AcDbLine
 10
1283.919352620163
 20
-3340.709560114349
 11
1261.255679673969
 21
-3340.709560114347
  0
LINE
  5
546
100
AcDbEntity
  8
1
  6
PHANTOM
 62
           3
100
AcDbLine
 10
1281.161287016839
 20
-3315.709560114347
 11
1264.161287016839
 21
-3315.709560114347
  0
LINE
  5
545
100
AcDbEntity
  8
1
  6
PHANTOM
 62
           3
100
AcDbLine
 10
1264.161287016839
 20
-3315.709560114347
 11
1253.161287016837
 21
-3315.709560114347
  0
LINE
  5
544
100
AcDbEntity
  8
1
  6
PHANTOM
 62
           3
100
AcDbLine
 10
1209.161287016837
 20
-3375.821905322378
 11
1209.161287016837
 21
-3321.597214906317
  0
LINE
  5
543
100
AcDbEntity
  8
1
  6
PHANTOM
 62
           3
100
AcDbLine
 10
1253.161287016837
 20
-3315.709560114347
 11
1214.047679990071
 21
-3316.598505728593
  0
LINE
  5
542
100
AcDbEntity
  8
1
  6
PHANTOM
 62
           3
100
AcDbLine
 10
1253.161287016837
 20
-3315.709560114347
 11
1253.161287016837
 21
-3381.709560114347
  0
LINE
  5
541
100
AcDbEntity
  8
1
  6
PHANTOM
 62
           3
100
AcDbLine
 10
1254.161287016837
 20
-3381.709560114347
 11
1254.161287016837
 21
-3315.709560114347
  0
LINE
  5
540
100
AcDbEntity
  8
1
  6
PHANTOM
 62
           3
100
AcDbLine
 10
1242.161287016837
 20
-3381.459560114347
 11
1242.161287016837
 21
-3315.709560114347
  0
LINE
  5
53F
100
AcDbEntity
  8
1
  6
PHANTOM
 62
           3
100
AcDbLine
 10
1264.161287016837
 20
-3359.709560114347
 11
1264.161287016839
 21
-3315.709560114347
  0
LINE
  5
53E
100
AcDbEntity
  8
1
  6
PHANTOM
 62
           3
100
AcDbLine
 10
1253.161287016837
 20
-3381.709560114347
 11
1264.161287016837
 21
-3381.709560114347
  0
LINE
  5
53D
100
AcDbEntity
  8
1
  6
PHANTOM
 62
           3
100
AcDbLine
 10
1264.161287016837
 20
-3381.709560114347
 11
1264.161287016837
 21
-3359.709560114347
  0
LINE
  5
53C
100
AcDbEntity
  8
1
  6
PHANTOM
 62
           3
100
AcDbLine
 10
1253.161287016837
 20
-3381.709560114347
 11
1214.047679990071
 21
-3380.820614500103
  0
LINE
  5
53B
100
AcDbEntity
  8
1
  6
PHANTOM
 62
           3
100
AcDbLine
 10
1281.161287016837
 20
-3333.709560114347
 11
1264.161287016837
 21
-3333.709560114347
  0
LINE
  5
53A
100
AcDbEntity
  8
1
  6
PHANTOM
 62
           3
100
AcDbLine
 10
1281.161287016837
 20
-3333.709560114347
 11
1281.161287016839
 21
-3315.709560114347
  0
LINE
  5
539
100
AcDbEntity
  8
1
  6
PHANTOM
 62
           3
100
AcDbLine
 10
1274.161287016837
 20
-3371.709560114347
 11
1264.161287016837
 21
-3371.709560114347
  0
LINE
  5
538
100
AcDbEntity
  8
1
  6
PHANTOM
 62
           3
100
AcDbLine
 10
1274.161287016839
 20
-3359.709560114349
 11
1264.161287016837
 21
-3359.709560114347
  0
LINE
  5
537
100
AcDbEntity
  8
1
  6
PHANTOM
 62
           3
100
AcDbLine
 10
1274.161287016837
 20
-3371.709560114347
 11
1274.161287016839
 21
-3359.709560114349
  0
LINE
  5
536
100
AcDbEntity
  8
1
  6
PHANTOM
 62
           3
100
AcDbLine
 10
1281.161287016839
 20
-3336.709560114347
 11
1277.161287016839
 21
-3336.709560114347
  0
LINE
  5
535
100
AcDbEntity
  8
1
  6
PHANTOM
 62
           3
100
AcDbLine
 10
1277.161287016839
 20
-3336.709560114347
 11
1277.161287016839
 21
-3344.709560114347
  0
LINE
  5
534
100
AcDbEntity
  8
1
  6
PHANTOM
 62
           3
100
AcDbLine
 10
1277.161287016839
 20
-3344.709560114347
 11
1281.161287016839
 21
-3344.709560114347
  0
LINE
  5
533
100
AcDbEntity
  8
1
  6
PHANTOM
 62
           3
100
AcDbLine
 10
1281.161287016839
 20
-3344.709560114347
 11
1281.161287016839
 21
-3336.709560114347
  0
LINE
  5
532
100
AcDbEntity
  8
1
  6
PHANTOM
 62
           3
100
AcDbLine
 10
1277.161287016839
 20
-3344.709560114347
 11
1264.161287016839
 21
-3344.709560114347
  0
LINE
  5
531
100
AcDbEntity
  8
1
  6
PHANTOM
 62
           3
100
AcDbLine
 10
1277.161287016839
 20
-3336.709560114347
 11
1264.161287016839
 21
-3336.709560114347
  0
LINE
  5
530
100
AcDbEntity
  8
1
  6
PHANTOM
 62
           3
100
AcDbLine
 10
1278.161287016839
 20
-3344.709560114347
 11
1278.161287016839
 21
-3336.709560114347
  0
LINE
  5
52F
100
AcDbEntity
  8
1
  6
PHANTOM
 62
           3
100
AcDbLine
 10
1281.161287016839
 20
-3342.209560114347
 11
1278.161287016839
 21
-3342.209560114347
  0
LINE
  5
52E
100
AcDbEntity
  8
1
  6
PHANTOM
 62
           3
100
AcDbLine
 10
1281.161287016839
 20
-3339.209560114347
 11
1278.161287016839
 21
-3339.209560114347
  0
LINE
  5
52D
100
AcDbEntity
  8
1
  6
PHANTOM
 62
           3
100
AcDbLine
 10
1281.161287016839
 20
-3356.709560114347
 11
1281.161287016839
 21
-3344.709560114347
  0
LINE
  5
52C
100
AcDbEntity
  8
1
  6
PHANTOM
 62
           3
100
AcDbLine
 10
1281.161287016839
 20
-3356.709560114347
 11
1267.161287016839
 21
-3356.709560114347
  0
LINE
  5
52B
100
AcDbEntity
  8
1
  6
PHANTOM
 62
           3
100
AcDbLine
 10
1272.161287016839
 20
-3336.709560114347
 11
1272.161287016839
 21
-3333.709560114347
  0
LINE
  5
52A
100
AcDbEntity
  8
1
  6
DOT_CENTER
 62
           3
100
AcDbLine
 10
1192.979473381492
 20
-3346.709560114347
 11
1339.301034728617
 21
-3346.709560114347
  0
LINE
  5
529
100
AcDbEntity
  8
1
  6
PHANTOM
 62
           3
100
AcDbLine
 10
1281.753409480658
 20
-3355.209560114348
 11
1316.868848756748
 21
-3355.209560114349
  0
LINE
  5
528
100
AcDbEntity
  8
1
  6
PHANTOM
 62
           3
100
AcDbLine
 10
1281.753409480658
 20
-3338.209560114348
 11
1333.620630530194
 21
-3338.209560114347
  0
LINE
  5
527
100
AcDbEntity
  8
1
  6
DOT_CENTER
 62
           3
100
AcDbLine
 10
1373.161287016839
 20
-3210.777646928678
 11
1373.161287016839
 21
-3327.335050744317
  0
LINE
  5
526
100
AcDbEntity
  8
1
  6
PHANTOM
 62
           3
100
AcDbLine
 10
1332.695646909468
 20
-3266.709560114347
 11
1408.144708050818
 21
-3266.709560114347
  0
LINE
  5
525
100
AcDbEntity
  8
1
  6
PHANTOM
 62
           3
100
AcDbLine
 10
1292.661287016837
 20
-3590.241587114078
 11
1292.661287016837
 21
-3601.677533114618
  0
LINE
  5
524
100
AcDbEntity
  8
1
  6
PHANTOM
 62
           3
100
AcDbLine
 10
1219.161287016837
 20
-3481.959560114347
 11
1311.661287016837
 21
-3481.959560114347
  0
LINE
  5
523
100
AcDbEntity
  8
1
  6
DOT_CENTER
 62
           3
100
AcDbLine
 10
1219.161287016839
 20
-3486.959560114348
 11
1311.661287016839
 21
-3486.959560114349
  0
LINE
  5
522
100
AcDbEntity
  8
1
  6
PHANTOM
 62
           3
100
AcDbLine
 10
1219.161287016839
 20
-3491.959560114349
 11
1311.661287016837
 21
-3491.959560114347
  0
LINE
  5
521
100
AcDbEntity
  8
1
  6
PHANTOM
 62
           3
100
AcDbLine
 10
1202.661811754983
 20
-3532.459035376204
 11
1202.661811754983
 21
-3522.957290112099
  0
LINE
  5
520
100
AcDbEntity
  8
1
  6
PHANTOM
 62
           3
100
AcDbLine
 10
1221.161287016839
 20
-3545.959560114347
 11
1216.161287016839
 21
-3545.959560114348
  0
LINE
  5
51F
100
AcDbEntity
  8
1
  6
PHANTOM
 62
           3
100
AcDbLine
 10
1216.161287016839
 20
-3545.959560114348
 11
1206.161287016839
 21
-3545.959560114348
  0
LINE
  5
51E
100
AcDbEntity
  8
1
  6
PHANTOM
 62
           3
100
AcDbLine
 10
1221.161287016837
 20
-3555.959560114348
 11
1206.161287016839
 21
-3555.959560114348
  0
LINE
  5
51D
100
AcDbEntity
  8
1
  6
PHANTOM
 62
           3
100
AcDbLine
 10
1206.161287016839
 20
-3555.959560114348
 11
1206.161287016839
 21
-3541.959560114348
  0
LINE
  5
51C
100
AcDbEntity
  8
1
  6
PHANTOM
 62
           3
100
AcDbLine
 10
1216.161287016839
 20
-3555.959560114348
 11
1216.161287016839
 21
-3541.959560114348
  0
LINE
  5
51B
100
AcDbEntity
  8
1
  6
PHANTOM
 62
           3
100
AcDbLine
 10
1216.161287016839
 20
-3526.959560114349
 11
1216.161287016837
 21
-3494.959560114347
  0
LINE
  5
51A
100
AcDbEntity
  8
1
  6
PHANTOM
 62
           3
100
AcDbLine
 10
1206.161287016839
 20
-3526.959560114348
 11
1206.161287016839
 21
-3494.959560114347
  0
LINE
  5
519
100
AcDbEntity
  8
1
  6
DOT_CENTER
 62
           3
100
AcDbLine
 10
1211.161287016839
 20
-3557.794037960089
 11
1211.161287016837
 21
-3494.959560114347
  0
LINE
  5
518
100
AcDbEntity
  8
1
  6
PHANTOM
 62
           3
100
AcDbLine
 10
1303.161287016839
 20
-3561.959560114349
 11
1310.494620350172
 21
-3561.959560114348
  0
LINE
  5
517
100
AcDbEntity
  8
1
  6
PHANTOM
 62
           3
100
AcDbLine
 10
1311.161287016839
 20
-3540.959560114348
 11
1311.161287016839
 21
-3559.959560114347
  0
LINE
  5
516
100
AcDbEntity
  8
1
  6
PHANTOM
 62
           3
100
AcDbLine
 10
1314.661287016839
 20
-3494.959560114348
 11
1314.661287016837
 21
-3552.459560114347
  0
LINE
  5
515
100
AcDbEntity
  8
1
  6
PHANTOM
 62
           3
100
AcDbLine
 10
1324.661287016837
 20
-3494.959560114347
 11
1324.661287016839
 21
-3552.459560114348
  0
LINE
  5
514
100
AcDbEntity
  8
1
  6
PHANTOM
 62
           3
100
AcDbLine
 10
1311.661287016839
 20
-3576.459560114348
 11
1311.661287016839
 21
-3574.459560114348
  0
LINE
  5
513
100
AcDbEntity
  8
1
  6
PHANTOM
 62
           3
100
AcDbLine
 10
1327.661287016839
 20
-3574.459560114348
 11
1327.661287016839
 21
-3576.459560114348
  0
LINE
  5
512
100
AcDbEntity
  8
1
  6
PHANTOM
 62
           3
100
AcDbLine
 10
1309.661287016839
 20
-3570.459560114348
 11
1309.661287016839
 21
-3574.459560114348
  0
LINE
  5
511
100
AcDbEntity
  8
1
  6
PHANTOM
 62
           3
100
AcDbLine
 10
1329.661287016839
 20
-3570.459560114348
 11
1309.661287016839
 21
-3570.459560114348
  0
LINE
  5
510
100
AcDbEntity
  8
1
  6
PHANTOM
 62
           3
100
AcDbLine
 10
1329.661287016839
 20
-3574.459560114348
 11
1329.661287016839
 21
-3570.459560114348
  0
LINE
  5
50F
100
AcDbEntity
  8
1
  6
PHANTOM
 62
           3
100
AcDbLine
 10
1309.661287016839
 20
-3574.459560114348
 11
1329.661287016839
 21
-3574.459560114348
  0
LINE
  5
50E
100
AcDbEntity
  8
1
  6
PHANTOM
 62
           3
100
AcDbLine
 10
1309.661287016839
 20
-3564.459560114349
 11
1309.661287016839
 21
-3567.459560114348
  0
LINE
  5
50D
100
AcDbEntity
  8
1
  6
PHANTOM
 62
           3
100
AcDbLine
 10
1329.661287016839
 20
-3564.459560114349
 11
1309.661287016839
 21
-3564.459560114349
  0
LINE
  5
50C
100
AcDbEntity
  8
1
  6
PHANTOM
 62
           3
100
AcDbLine
 10
1329.661287016839
 20
-3567.459560114348
 11
1329.661287016839
 21
-3564.459560114349
  0
LINE
  5
50B
100
AcDbEntity
  8
1
  6
PHANTOM
 62
           3
100
AcDbLine
 10
1309.661287016839
 20
-3567.459560114348
 11
1329.661287016839
 21
-3567.459560114348
  0
LINE
  5
50A
100
AcDbEntity
  8
1
  6
PHANTOM
 62
           3
100
AcDbLine
 10
1325.379260017108
 20
-3567.459560114348
 11
1325.379260017108
 21
-3570.459560114348
  0
LINE
  5
509
100
AcDbEntity
  8
1
  6
PHANTOM
 62
           3
100
AcDbLine
 10
1313.943314016568
 20
-3570.459560114348
 11
1313.943314016568
 21
-3567.459560114349
  0
LINE
  5
508
100
AcDbEntity
  8
1
  6
PHANTOM
 62
           3
100
AcDbLine
 10
1324.661287016839
 20
-3570.459560114348
 11
1324.661287016839
 21
-3574.459560114348
  0
LINE
  5
507
100
AcDbEntity
  8
1
  6
PHANTOM
 62
           3
100
AcDbLine
 10
1324.661287016839
 20
-3564.459560114348
 11
1324.661287016839
 21
-3567.459560114348
  0
LINE
  5
506
100
AcDbEntity
  8
1
  6
PHANTOM
 62
           3
100
AcDbLine
 10
1314.661287016839
 20
-3570.459560114348
 11
1314.661287016837
 21
-3574.459560114349
  0
LINE
  5
505
100
AcDbEntity
  8
1
  6
PHANTOM
 62
           3
100
AcDbLine
 10
1314.661287016839
 20
-3564.459560114348
 11
1314.661287016839
 21
-3567.459560114348
  0
LINE
  5
504
100
AcDbEntity
  8
1
  6
PHANTOM
 62
           3
100
AcDbLine
 10
1325.661287016837
 20
-3552.459560114347
 11
1329.661287016839
 21
-3564.459560114349
  0
LINE
  5
503
100
AcDbEntity
  8
1
  6
PHANTOM
 62
           3
100
AcDbLine
 10
1313.661287016839
 20
-3552.459560114349
 11
1309.661287016839
 21
-3564.459560114349
  0
LINE
  5
502
100
AcDbEntity
  8
1
  6
PHANTOM
 62
           3
100
AcDbLine
 10
1313.661287016839
 20
-3552.459560114349
 11
1325.661287016837
 21
-3552.459560114347
  0
LINE
  5
501
100
AcDbEntity
  8
1
  6
PHANTOM
 62
           3
100
AcDbLine
 10
1300.661287016839
 20
-3586.459560114348
 11
1310.161287016839
 21
-3586.459560114348
  0
LINE
  5
500
100
AcDbEntity
  8
1
  6
PHANTOM
 62
           3
100
AcDbLine
 10
1310.161287016839
 20
-3595.959560114348
 11
1310.161287016839
 21
-3576.459560114349
  0
LINE
  5
4FF
100
AcDbEntity
  8
1
  6
PHANTOM
 62
           3
100
AcDbLine
 10
1329.161287016839
 20
-3595.959560114347
 11
1329.161287016839
 21
-3576.459560114349
  0
LINE
  5
4FE
100
AcDbEntity
  8
1
  6
PHANTOM
 62
           3
100
AcDbLine
 10
1310.161287016839
 20
-3576.459560114349
 11
1329.161287016839
 21
-3576.459560114349
  0
LINE
  5
4FD
100
AcDbEntity
  8
1
  6
PHANTOM
 62
           3
100
AcDbLine
 10
1231.542285077699
 20
-3549.959560114349
 11
1199.161287016839
 21
-3549.959560114348
  0
LINE
  5
4FC
100
AcDbEntity
  8
1
  6
PHANTOM
 62
           3
100
AcDbLine
 10
1363.161287016839
 20
-3621.959560114348
 11
1363.161287016839
 21
-3609.459560114349
  0
LINE
  5
4FB
100
AcDbEntity
  8
1
  6
PHANTOM
 62
           3
100
AcDbLine
 10
1383.161287016839
 20
-3621.959560114348
 11
1383.161287016839
 21
-3609.459560114349
  0
LINE
  5
4FA
100
AcDbEntity
  8
1
  6
PHANTOM
 62
           3
100
AcDbLine
 10
1366.161287016839
 20
-3635.959560114348
 11
1366.161287016839
 21
-3621.959560114348
  0
LINE
  5
4F9
100
AcDbEntity
  8
1
  6
PHANTOM
 62
           3
100
AcDbLine
 10
1380.161287016837
 20
-3635.959560114347
 11
1380.161287016839
 21
-3621.959560114348
  0
LINE
  5
4F8
100
AcDbEntity
  8
1
  6
PHANTOM
 62
           3
100
AcDbLine
 10
1366.161287016839
 20
-3609.459560114348
 11
1366.161287016839
 21
-3595.459560114348
  0
LINE
  5
4F7
100
AcDbEntity
  8
1
  6
PHANTOM
 62
           3
100
AcDbLine
 10
1380.161287016839
 20
-3609.459560114348
 11
1380.161287016837
 21
-3595.459560114347
  0
LINE
  5
4F6
100
AcDbEntity
  8
1
  6
PHANTOM
 62
           3
100
AcDbLine
 10
1358.161287016839
 20
-3621.959560114348
 11
1358.161287016839
 21
-3635.959560114348
  0
LINE
  5
4F5
100
AcDbEntity
  8
1
  6
PHANTOM
 62
           3
100
AcDbLine
 10
1388.161287016839
 20
-3635.959560114348
 11
1358.161287016839
 21
-3635.959560114348
  0
LINE
  5
4F4
100
AcDbEntity
  8
1
  6
PHANTOM
 62
           3
100
AcDbLine
 10
1388.161287016839
 20
-3621.959560114348
 11
1388.161287016839
 21
-3635.959560114348
  0
LINE
  5
4F3
100
AcDbEntity
  8
1
  6
PHANTOM
 62
           3
100
AcDbLine
 10
1358.161287016839
 20
-3595.459560114348
 11
1388.161287016839
 21
-3595.459560114349
  0
LINE
  5
4F2
100
AcDbEntity
  8
1
  6
PHANTOM
 62
           3
100
AcDbLine
 10
1358.161287016839
 20
-3595.459560114348
 11
1358.161287016839
 21
-3609.459560114348
  0
LINE
  5
4F1
100
AcDbEntity
  8
1
  6
PHANTOM
 62
           3
100
AcDbLine
 10
1388.161287016839
 20
-3595.459560114349
 11
1388.161287016839
 21
-3609.459560114348
  0
LINE
  5
4F0
100
AcDbEntity
  8
1
  6
PHANTOM
 62
           3
100
AcDbLine
 10
1393.161287016839
 20
-3621.959560114348
 11
1393.161287016839
 21
-3609.459560114348
  0
LINE
  5
4EF
100
AcDbEntity
  8
1
  6
PHANTOM
 62
           3
100
AcDbLine
 10
1393.161287016839
 20
-3609.459560114348
 11
1353.161287016839
 21
-3609.459560114348
  0
LINE
  5
4EE
100
AcDbEntity
  8
1
  6
PHANTOM
 62
           3
100
AcDbLine
 10
1353.161287016839
 20
-3609.459560114348
 11
1353.161287016837
 21
-3621.959560114349
  0
LINE
  5
4ED
100
AcDbEntity
  8
1
  6
PHANTOM
 62
           3
100
AcDbLine
 10
1353.161287016837
 20
-3621.959560114349
 11
1393.161287016839
 21
-3621.959560114348
  0
LINE
  5
4EC
100
AcDbEntity
  8
1
  6
PHANTOM
 62
           3
100
AcDbLine
 10
1353.661287016839
 20
-3580.959560114348
 11
1361.161287016839
 21
-3580.959560114347
  0
LINE
  5
4EB
100
AcDbEntity
  8
1
  6
PHANTOM
 62
           3
100
AcDbLine
 10
1353.661287016839
 20
-3609.241888299296
 11
1353.661287016839
 21
-3580.959560114348
  0
LINE
  5
4EA
100
AcDbEntity
  8
1
  6
PHANTOM
 62
           3
100
AcDbLine
 10
1349.661287016839
 20
-3606.959560114348
 11
1353.661287016839
 21
-3606.959560114348
  0
LINE
  5
4E9
100
AcDbEntity
  8
1
  6
PHANTOM
 62
           3
100
AcDbLine
 10
1349.661287016839
 20
-3584.959560114348
 11
1353.661287016839
 21
-3584.959560114348
  0
LINE
  5
4E8
100
AcDbEntity
  8
1
  6
PHANTOM
 62
           3
100
AcDbLine
 10
1343.661287016839
 20
-3610.959560114348
 11
1349.661287016837
 21
-3610.959560114347
  0
LINE
  5
4E7
100
AcDbEntity
  8
1
  6
PHANTOM
 62
           3
100
AcDbLine
 10
1343.661287016839
 20
-3580.959560114348
 11
1343.661287016839
 21
-3610.959560114348
  0
LINE
  5
4E6
100
AcDbEntity
  8
1
  6
PHANTOM
 62
           3
100
AcDbLine
 10
1349.661287016839
 20
-3580.959560114347
 11
1343.661287016839
 21
-3580.959560114348
  0
LINE
  5
4E5
100
AcDbEntity
  8
1
  6
PHANTOM
 62
           3
100
AcDbLine
 10
1349.661287016837
 20
-3610.959560114347
 11
1349.661287016839
 21
-3580.959560114347
  0
LINE
  5
4E4
100
AcDbEntity
  8
1
  6
PHANTOM
 62
           3
100
AcDbLine
 10
1343.661287016839
 20
-3589.959560114348
 11
1349.661287016839
 21
-3589.959560114348
  0
LINE
  5
4E3
100
AcDbEntity
  8
1
  6
PHANTOM
 62
           3
100
AcDbLine
 10
1343.661287016839
 20
-3601.959560114348
 11
1349.661287016839
 21
-3601.959560114348
  0
LINE
  5
4E2
100
AcDbEntity
  8
1
  6
PHANTOM
 62
           3
100
AcDbLine
 10
1338.661287016837
 20
-3587.959560114347
 11
1343.661287016839
 21
-3587.959560114347
  0
LINE
  5
4E1
100
AcDbEntity
  8
1
  6
PHANTOM
 62
           3
100
AcDbLine
 10
1338.661287016839
 20
-3603.959560114347
 11
1343.661287016837
 21
-3603.959560114347
  0
LINE
  5
4E0
100
AcDbEntity
  8
1
  6
PHANTOM
 62
           3
100
AcDbLine
 10
1296.661287016839
 20
-3603.959560114348
 11
1300.661287016839
 21
-3603.959560114348
  0
LINE
  5
4DF
100
AcDbEntity
  8
1
  6
PHANTOM
 62
           3
100
AcDbLine
 10
1296.661287016837
 20
-3587.959560114349
 11
1296.661287016839
 21
-3603.959560114348
  0
LINE
  5
4DE
100
AcDbEntity
  8
1
  6
PHANTOM
 62
           3
100
AcDbLine
 10
1300.661287016839
 20
-3587.959560114348
 11
1296.661287016837
 21
-3587.959560114349
  0
LINE
  5
4DD
100
AcDbEntity
  8
1
  6
PHANTOM
 62
           3
100
AcDbLine
 10
1292.661287016837
 20
-3590.241587114078
 11
1296.661287016839
 21
-3590.241587114078
  0
LINE
  5
4DC
100
AcDbEntity
  8
1
  6
PHANTOM
 62
           3
100
AcDbLine
 10
1296.661287016839
 20
-3601.677533114618
 11
1292.661287016837
 21
-3601.677533114618
  0
LINE
  5
4DB
100
AcDbEntity
  8
1
  6
PHANTOM
 62
           3
100
AcDbLine
 10
1296.661287016839
 20
-3592.959560114348
 11
1300.661287016839
 21
-3592.959560114348
  0
LINE
  5
4DA
100
AcDbEntity
  8
1
  6
PHANTOM
 62
           3
100
AcDbLine
 10
1296.661287016839
 20
-3598.959560114348
 11
1300.661287016839
 21
-3598.959560114348
  0
LINE
  5
4D9
100
AcDbEntity
  8
1
  6
PHANTOM
 62
           3
100
AcDbLine
 10
1329.161287016839
 20
-3586.459560114348
 11
1338.661287016839
 21
-3586.459560114349
  0
LINE
  5
4D8
100
AcDbEntity
  8
1
  6
PHANTOM
 62
           3
100
AcDbLine
 10
1338.661287016839
 20
-3586.459560114349
 11
1338.661287016839
 21
-3595.959560114348
  0
LINE
  5
4D7
100
AcDbEntity
  8
1
  6
PHANTOM
 62
           3
100
AcDbLine
 10
1338.661287016839
 20
-3595.959560114348
 11
1338.661287016839
 21
-3605.459560114348
  0
LINE
  5
4D6
100
AcDbEntity
  8
1
  6
PHANTOM
 62
           3
100
AcDbLine
 10
1319.661287016839
 20
-3605.459560114349
 11
1338.661287016839
 21
-3605.459560114348
  0
LINE
  5
4D5
100
AcDbEntity
  8
1
  6
PHANTOM
 62
           3
100
AcDbLine
 10
1300.661287016839
 20
-3605.459560114348
 11
1319.661287016839
 21
-3605.459560114349
  0
LINE
  5
4D4
100
AcDbEntity
  8
1
  6
PHANTOM
 62
           3
100
AcDbLine
 10
1300.661287016839
 20
-3605.459560114348
 11
1300.661287016839
 21
-3595.959560114348
  0
LINE
  5
4D3
100
AcDbEntity
  8
1
  6
PHANTOM
 62
           3
100
AcDbLine
 10
1300.661287016839
 20
-3595.959560114348
 11
1300.661287016839
 21
-3586.459560114348
  0
LINE
  5
4D2
100
AcDbEntity
  8
1
  6
DOT_CENTER
 62
           3
100
AcDbLine
 10
1319.661287016837
 20
-3494.959560114347
 11
1319.661287016839
 21
-3610.436946689498
  0
LINE
  5
4D1
100
AcDbEntity
  8
1
  6
PHANTOM
 62
           3
100
AcDbLine
 10
1203.661287016839
 20
-3538.959560114348
 11
1205.161287016839
 21
-3526.959560114348
  0
LINE
  5
4D0
100
AcDbEntity
  8
1
  6
PHANTOM
 62
           3
100
AcDbLine
 10
1203.661287016839
 20
-3538.959560114348
 11
1203.661287016839
 21
-3541.959560114348
  0
LINE
  5
4CF
100
AcDbEntity
  8
1
  6
PHANTOM
 62
           3
100
AcDbLine
 10
1218.661287016839
 20
-3538.959560114349
 11
1203.661287016839
 21
-3538.959560114348
  0
LINE
  5
4CE
100
AcDbEntity
  8
1
  6
PHANTOM
 62
           3
100
AcDbLine
 10
1203.661287016839
 20
-3541.959560114348
 11
1218.661287016839
 21
-3541.959560114348
  0
LINE
  5
4CD
100
AcDbEntity
  8
1
  6
PHANTOM
 62
           3
100
AcDbLine
 10
1218.661287016839
 20
-3541.959560114348
 11
1218.661287016839
 21
-3538.959560114349
  0
LINE
  5
4CC
100
AcDbEntity
  8
1
  6
PHANTOM
 62
           3
100
AcDbLine
 10
1205.161287016839
 20
-3526.959560114348
 11
1217.161287016839
 21
-3526.959560114349
  0
LINE
  5
4CB
100
AcDbEntity
  8
1
  6
PHANTOM
 62
           3
100
AcDbLine
 10
1218.661287016839
 20
-3538.959560114349
 11
1217.161287016839
 21
-3526.959560114349
  0
LINE
  5
4CA
100
AcDbEntity
  8
1
  6
PHANTOM
 62
           3
100
AcDbLine
 10
1226.161287016839
 20
-3560.959560114347
 11
1221.161287016839
 21
-3560.959560114348
  0
LINE
  5
4C9
100
AcDbEntity
  8
1
  6
PHANTOM
 62
           3
100
AcDbLine
 10
1221.161287016837
 20
-3557.459560114349
 11
1226.161287016839
 21
-3557.459560114348
  0
LINE
  5
4C8
100
AcDbEntity
  8
1
  6
PHANTOM
 62
           3
100
AcDbLine
 10
1221.161287016839
 20
-3540.959560114348
 11
1221.161287016839
 21
-3560.959560114348
  0
LINE
  5
4C7
100
AcDbEntity
  8
1
  6
PHANTOM
 62
           3
100
AcDbLine
 10
1221.161287016839
 20
-3544.459560114348
 11
1226.161287016839
 21
-3544.459560114347
  0
LINE
  5
4C6
100
AcDbEntity
  8
1
  6
PHANTOM
 62
           3
100
AcDbLine
 10
1226.161287016839
 20
-3540.959560114349
 11
1221.161287016839
 21
-3540.959560114348
  0
LINE
  5
4C5
100
AcDbEntity
  8
1
  6
PHANTOM
 62
           3
100
AcDbLine
 10
1199.161287016839
 20
-3563.460084852492
 11
1216.163557019088
 21
-3563.460084852492
  0
LINE
  5
4C4
100
AcDbEntity
  8
1
  6
PHANTOM
 62
           3
100
AcDbLine
 10
1206.661811754983
 20
-3536.459035376203
 11
1216.163557019088
 21
-3536.459035376204
  0
LINE
  5
4C3
100
AcDbEntity
  8
1
  6
PHANTOM
 62
           3
100
AcDbLine
 10
1236.161287016839
 20
-3526.959560114349
 11
1246.161287016839
 21
-3526.959560114347
  0
LINE
  5
4C2
100
AcDbEntity
  8
1
  6
PHANTOM
 62
           3
100
AcDbLine
 10
1221.161287016839
 20
-3531.959560114348
 11
1221.161287016839
 21
-3526.959560114349
  0
LINE
  5
4C1
100
AcDbEntity
  8
1
  6
PHANTOM
 62
           3
100
AcDbLine
 10
1236.161287016839
 20
-3534.959560114348
 11
1221.161287016839
 21
-3531.959560114348
  0
LINE
  5
4C0
100
AcDbEntity
  8
1
  6
PHANTOM
 62
           3
100
AcDbLine
 10
1221.161287016839
 20
-3526.959560114349
 11
1236.161287016839
 21
-3526.959560114349
  0
LINE
  5
4BF
100
AcDbEntity
  8
1
  6
PHANTOM
 62
           3
100
AcDbLine
 10
1236.161287016837
 20
-3540.959560114347
 11
1236.161287016839
 21
-3526.959560114349
  0
LINE
  5
4BE
100
AcDbEntity
  8
1
  6
PHANTOM
 62
           3
100
AcDbLine
 10
1241.161287016837
 20
-3564.385584635377
 11
1241.161287016839
 21
-3524.396451695738
  0
LINE
  5
4BD
100
AcDbEntity
  8
1
  6
PHANTOM
 62
           3
100
AcDbLine
 10
1246.161287016839
 20
-3534.959560114347
 11
1261.161287016839
 21
-3531.959560114348
  0
LINE
  5
4BC
100
AcDbEntity
  8
1
  6
PHANTOM
 62
           3
100
AcDbLine
 10
1261.161287016839
 20
-3531.959560114348
 11
1261.161287016839
 21
-3526.959560114349
  0
LINE
  5
4BB
100
AcDbEntity
  8
1
  6
PHANTOM
 62
           3
100
AcDbLine
 10
1246.161287016839
 20
-3526.959560114347
 11
1261.161287016839
 21
-3526.959560114349
  0
LINE
  5
4BA
100
AcDbEntity
  8
1
  6
PHANTOM
 62
           3
100
AcDbLine
 10
1246.161287016839
 20
-3540.959560114347
 11
1246.161287016839
 21
-3526.959560114347
  0
LINE
  5
4B9
100
AcDbEntity
  8
1
  6
PHANTOM
 62
           3
100
AcDbLine
 10
1226.161287016839
 20
-3560.959560114347
 11
1256.161287016837
 21
-3560.959560114349
  0
LINE
  5
4B8
100
AcDbEntity
  8
1
  6
PHANTOM
 62
           3
100
AcDbLine
 10
1226.161287016839
 20
-3540.959560114349
 11
1256.161287016839
 21
-3540.959560114348
  0
LINE
  5
4B7
100
AcDbEntity
  8
1
  6
PHANTOM
 62
           3
100
AcDbLine
 10
1256.161287016839
 20
-3540.959560114348
 11
1256.161287016837
 21
-3560.959560114349
  0
LINE
  5
4B6
100
AcDbEntity
  8
1
  6
PHANTOM
 62
           3
100
AcDbLine
 10
1261.161287016839
 20
-3560.959560114348
 11
1261.161287016839
 21
-3540.959560114348
  0
LINE
  5
4B5
100
AcDbEntity
  8
1
  6
PHANTOM
 62
           3
100
AcDbLine
 10
1256.161287016839
 20
-3557.459560114348
 11
1261.161287016839
 21
-3557.459560114348
  0
LINE
  5
4B4
100
AcDbEntity
  8
1
  6
PHANTOM
 62
           3
100
AcDbLine
 10
1256.161287016839
 20
-3544.459560114348
 11
1261.161287016839
 21
-3544.459560114348
  0
LINE
  5
4B3
100
AcDbEntity
  8
1
  6
PHANTOM
 62
           3
100
AcDbLine
 10
1256.161287016837
 20
-3560.959560114349
 11
1261.161287016839
 21
-3560.959560114348
  0
LINE
  5
4B2
100
AcDbEntity
  8
1
  6
PHANTOM
 62
           3
100
AcDbLine
 10
1261.161287016839
 20
-3540.959560114348
 11
1256.161287016839
 21
-3540.959560114348
  0
LINE
  5
4B1
100
AcDbEntity
  8
1
  6
PHANTOM
 62
           3
100
AcDbLine
 10
1261.161287016839
 20
-3545.959560114348
 11
1271.161287016839
 21
-3545.959560114347
  0
LINE
  5
4B0
100
AcDbEntity
  8
1
  6
PHANTOM
 62
           3
100
AcDbLine
 10
1261.161287016839
 20
-3555.959560114348
 11
1271.161287016839
 21
-3555.959560114347
  0
LINE
  5
4AF
100
AcDbEntity
  8
1
  6
PHANTOM
 62
           3
100
AcDbLine
 10
1271.161287016839
 20
-3561.959560114348
 11
1279.161287016839
 21
-3561.959560114348
  0
LINE
  5
4AE
100
AcDbEntity
  8
1
  6
PHANTOM
 62
           3
100
AcDbLine
 10
1271.161287016839
 20
-3534.959560114347
 11
1271.161287016839
 21
-3540.959560114348
  0
LINE
  5
4AD
100
AcDbEntity
  8
1
  6
PHANTOM
 62
           3
100
AcDbLine
 10
1271.161287016839
 20
-3561.959560114348
 11
1271.161287016839
 21
-3540.959560114348
  0
LINE
  5
4AC
100
AcDbEntity
  8
1
  6
PHANTOM
 62
           3
100
AcDbLine
 10
1271.161287016839
 20
-3545.959560114347
 11
1311.161287016839
 21
-3545.959560114348
  0
LINE
  5
4AB
100
AcDbEntity
  8
1
  6
PHANTOM
 62
           3
100
AcDbLine
 10
1271.161287016839
 20
-3540.959560114348
 11
1311.161287016839
 21
-3540.959560114348
  0
LINE
  5
4AA
100
AcDbEntity
  8
1
  6
PHANTOM
 62
           3
100
AcDbLine
 10
1271.161287016839
 20
-3536.459560114349
 11
1311.161287016839
 21
-3536.459560114348
  0
LINE
  5
4A9
100
AcDbEntity
  8
1
  6
PHANTOM
 62
           3
100
AcDbLine
 10
1311.161287016839
 20
-3534.959560114348
 11
1271.161287016839
 21
-3534.959560114347
  0
LINE
  5
4A8
100
AcDbEntity
  8
1
  6
PHANTOM
 62
           3
100
AcDbLine
 10
1312.434556936672
 20
-3555.959560114348
 11
1311.161287016839
 21
-3555.959560114348
  0
LINE
  5
4A7
100
AcDbEntity
  8
1
  6
PHANTOM
 62
           3
100
AcDbLine
 10
1314.661287016839
 20
-3545.959560114348
 11
1311.161287016839
 21
-3545.959560114348
  0
LINE
  5
4A6
100
AcDbEntity
  8
1
  6
DOT_CENTER
 62
           3
100
AcDbLine
 10
1338.163481714201
 20
-3541.198833178185
 11
1338.163481714201
 21
-3560.716787645032
  0
LINE
  5
4A5
100
AcDbEntity
  8
1
  6
PHANTOM
 62
           3
100
AcDbLine
 10
1324.661287016839
 20
-3543.459560114349
 11
1338.163481714201
 21
-3543.459560114349
  0
LINE
  5
4A4
100
AcDbEntity
  8
1
  6
PHANTOM
 62
           3
100
AcDbLine
 10
1338.163481714201
 20
-3558.459560114348
 11
1327.661287016839
 21
-3558.459560114349
  0
LINE
  5
4A3
100
AcDbEntity
  8
1
  6
DOT_CENTER
 62
           3
100
AcDbLine
 10
1204.931627812462
 20
-3550.959560114349
 11
1347.984531443581
 21
-3550.959560114347
  0
LINE
  5
4A2
100
AcDbEntity
  8
1
  6
PHANTOM
 62
           3
100
AcDbLine
 10
1308.911287016839
 20
-3503.459560114349
 11
1308.911287016837
 21
-3534.959560114347
  0
LINE
  5
4A1
100
AcDbEntity
  8
1
  6
PHANTOM
 62
           3
100
AcDbLine
 10
1276.411287016839
 20
-3500.459560114347
 11
1305.911287016839
 21
-3500.459560114348
  0
LINE
  5
4A0
100
AcDbEntity
  8
1
  6
PHANTOM
 62
           3
100
AcDbLine
 10
1273.411287016839
 20
-3534.959560114348
 11
1273.411287016839
 21
-3503.459560114347
  0
LINE
  5
49F
100
AcDbEntity
  8
1
  6
PHANTOM
 62
           3
100
AcDbLine
 10
1311.161287016839
 20
-3540.959560114348
 11
1311.161287016839
 21
-3534.959560114348
  0
LINE
  5
49E
100
AcDbEntity
  8
1
  6
PHANTOM
 62
           3
100
AcDbLine
 10
1279.161287016839
 20
-3545.959560114347
 11
1279.161287016839
 21
-3561.959560114348
  0
LINE
  5
49D
100
AcDbEntity
  8
1
  6
PHANTOM
 62
           3
100
AcDbLine
 10
1303.161287016839
 20
-3561.959560114349
 11
1303.161287016839
 21
-3545.959560114349
  0
LINE
  5
49C
100
AcDbEntity
  8
1
  6
PHANTOM
 62
           3
100
AcDbLine
 10
1295.161287016839
 20
-3561.959560114348
 11
1295.161287016839
 21
-3545.959560114349
  0
LINE
  5
49B
100
AcDbEntity
  8
1
  6
PHANTOM
 62
           3
100
AcDbLine
 10
1287.161287016839
 20
-3561.959560114348
 11
1287.161287016839
 21
-3545.959560114349
  0
LINE
  5
49A
100
AcDbEntity
  8
1
  6
PHANTOM
 62
           3
100
AcDbLine
 10
1287.161287016839
 20
-3561.959560114348
 11
1295.161287016839
 21
-3561.959560114348
  0
LINE
  5
499
100
AcDbEntity
  8
1
  6
PHANTOM
 62
           3
100
AcDbLine
 10
1162.159017014587
 20
-3563.460084852492
 11
1199.161287016839
 21
-3563.460084852492
  0
LINE
  5
498
100
AcDbEntity
  8
1
  6
DOT_CENTER
 62
           3
100
AcDbLine
 10
1199.161287016839
 20
-3549.959560114348
 11
1133.139017029475
 21
-3549.959560114349
  0
LINE
  5
497
100
AcDbEntity
  8
1
  6
PHANTOM
 62
           3
100
AcDbLine
 10
1162.159017014589
 20
-3536.459035376204
 11
1162.159017014589
 21
-3549.959560114348
  0
LINE
  5
496
100
AcDbEntity
  8
1
  6
PHANTOM
 62
           3
100
AcDbLine
 10
1162.159017014589
 20
-3549.959560114348
 11
1162.159017014587
 21
-3563.460084852492
  0
LINE
  5
495
100
AcDbEntity
  8
1
  6
PHANTOM
 62
           3
100
AcDbLine
 10
1150.159017014587
 20
-3564.959560114348
 11
1158.159017014589
 21
-3564.959560114348
  0
LINE
  5
494
100
AcDbEntity
  8
1
  6
PHANTOM
 62
           3
100
AcDbLine
 10
1150.159017014587
 20
-3534.959560114347
 11
1150.159017014587
 21
-3564.959560114348
  0
LINE
  5
493
100
AcDbEntity
  8
1
  6
PHANTOM
 62
           3
100
AcDbLine
 10
1158.159017014589
 20
-3564.959560114348
 11
1158.159017014589
 21
-3534.959560114347
  0
LINE
  5
492
100
AcDbEntity
  8
1
  6
PHANTOM
 62
           3
100
AcDbLine
 10
1158.159017014587
 20
-3559.959560114347
 11
1162.159017014589
 21
-3559.959560114348
  0
LINE
  5
491
100
AcDbEntity
  8
1
  6
PHANTOM
 62
           3
100
AcDbLine
 10
1138.161287016837
 20
-3542.959560114349
 11
1150.159017014587
 21
-3542.959560114348
  0
LINE
  5
490
100
AcDbEntity
  8
1
  6
PHANTOM
 62
           3
100
AcDbLine
 10
1138.161287016837
 20
-3556.959560114348
 11
1150.159017014587
 21
-3556.959560114348
  0
LINE
  5
48F
100
AcDbEntity
  8
1
  6
PHANTOM
 62
           3
100
AcDbLine
 10
1138.161287016837
 20
-3556.959560114348
 11
1138.161287016837
 21
-3542.959560114349
  0
LINE
  5
48E
100
AcDbEntity
  8
1
  6
PHANTOM
 62
           3
100
AcDbLine
 10
1150.159017014587
 20
-3541.459560114348
 11
1158.159017014589
 21
-3541.459560114348
  0
LINE
  5
48D
100
AcDbEntity
  8
1
  6
PHANTOM
 62
           3
100
AcDbLine
 10
1158.159017014589
 20
-3558.459560114348
 11
1150.159017014587
 21
-3558.459560114348
  0
LINE
  5
48C
100
AcDbEntity
  8
1
  6
PHANTOM
 62
           3
100
AcDbLine
 10
1162.159017014589
 20
-3536.459035376204
 11
1171.660762278692
 21
-3536.459035376206
  0
LINE
  5
48B
100
AcDbEntity
  8
1
  6
PHANTOM
 62
           3
100
AcDbLine
 10
1158.159017014589
 20
-3534.959560114347
 11
1150.159017014587
 21
-3534.959560114347
  0
LINE
  5
48A
100
AcDbEntity
  8
1
  6
PHANTOM
 62
           3
100
AcDbLine
 10
1158.159017014589
 20
-3539.959560114348
 11
1162.159017014589
 21
-3539.959560114348
  0
LINE
  5
489
100
AcDbEntity
  8
1
  6
PHANTOM
 62
           3
100
AcDbLine
 10
1175.660762278694
 20
-3522.957290112099
 11
1175.660762278692
 21
-3532.459035376204
  0
LINE
  5
488
100
AcDbEntity
  8
1
  6
PHANTOM
 62
           3
100
AcDbLine
 10
1202.661811754983
 20
-3522.957290112099
 11
1175.660762278694
 21
-3522.957290112099
  0
LINE
  5
487
100
AcDbEntity
  8
1
  6
PHANTOM
 62
           3
100
AcDbLine
 10
1177.660762278694
 20
-3522.957290112099
 11
1177.660762278692
 21
-3466.459560114347
  0
LINE
  5
486
100
AcDbEntity
  8
1
  6
PHANTOM
 62
           3
100
AcDbLine
 10
1177.161287016839
 20
-3466.459560114348
 11
1177.161287016839
 21
-3454.459560114348
  0
LINE
  5
485
100
AcDbEntity
  8
1
  6
PHANTOM
 62
           3
100
AcDbLine
 10
1201.161287016839
 20
-3466.459560114347
 11
1177.161287016839
 21
-3466.459560114348
  0
LINE
  5
484
100
AcDbEntity
  8
1
  6
PHANTOM
 62
           3
100
AcDbLine
 10
1201.161287016839
 20
-3454.459560114348
 11
1201.161287016839
 21
-3466.459560114347
  0
LINE
  5
483
100
AcDbEntity
  8
1
  6
PHANTOM
 62
           3
100
AcDbLine
 10
1200.661811754983
 20
-3522.957290112099
 11
1200.661811754983
 21
-3466.459560114349
  0
LINE
  5
482
100
AcDbEntity
  8
1
  6
PHANTOM
 62
           3
100
AcDbLine
 10
1211.161287016837
 20
-3431.459560114347
 11
1189.161287016839
 21
-3431.459560114347
  0
LINE
  5
481
100
AcDbEntity
  8
1
  6
PHANTOM
 62
           3
100
AcDbLine
 10
1211.161287016839
 20
-3454.459560114348
 11
1189.161287016839
 21
-3454.459560114348
  0
LINE
  5
480
100
AcDbEntity
  8
1
  6
PHANTOM
 62
           3
100
AcDbLine
 10
1211.161287016839
 20
-3454.459560114348
 11
1211.161287016837
 21
-3431.459560114347
  0
LINE
  5
47F
100
AcDbEntity
  8
1
  6
PHANTOM
 62
           3
100
AcDbLine
 10
1173.161287016839
 20
-3431.459560114347
 11
1205.161287016839
 21
-3431.459560114347
  0
LINE
  5
47E
100
AcDbEntity
  8
1
  6
PHANTOM
 62
           3
100
AcDbLine
 10
1173.161287016839
 20
-3425.459560114347
 11
1173.161287016839
 21
-3431.459560114347
  0
LINE
  5
47D
100
AcDbEntity
  8
1
  6
PHANTOM
 62
           3
100
AcDbLine
 10
1205.161287016839
 20
-3425.459560114347
 11
1173.161287016839
 21
-3425.459560114347
  0
LINE
  5
47C
100
AcDbEntity
  8
1
  6
PHANTOM
 62
           3
100
AcDbLine
 10
1205.161287016839
 20
-3431.459560114347
 11
1205.161287016839
 21
-3425.459560114347
  0
LINE
  5
47B
100
AcDbEntity
  8
1
  6
PHANTOM
 62
           3
100
AcDbLine
 10
1175.661287016839
 20
-3454.459560114347
 11
1175.661287016839
 21
-3431.459560114347
  0
LINE
  5
47A
100
AcDbEntity
  8
1
  6
PHANTOM
 62
           3
100
AcDbLine
 10
1201.161287016839
 20
-3425.459560114347
 11
1201.161287016839
 21
-3415.459560114347
  0
LINE
  5
479
100
AcDbEntity
  8
1
  6
PHANTOM
 62
           3
100
AcDbLine
 10
1177.161287016839
 20
-3425.459560114347
 11
1177.161287016839
 21
-3415.459560114347
  0
LINE
  5
478
100
AcDbEntity
  8
1
  6
PHANTOM
 62
           3
100
AcDbLine
 10
1189.161287016839
 20
-3454.459560114348
 11
1175.661287016839
 21
-3454.459560114347
  0
LINE
  5
477
100
AcDbEntity
  8
1
  6
PHANTOM
 62
           3
100
AcDbLine
 10
1211.161287016839
 20
-3452.959560114348
 11
1301.57203923192
 21
-3452.959560114349
  0
LINE
  5
476
100
AcDbEntity
  8
1
  6
DOT_CENTER
 62
           3
100
AcDbLine
 10
1172.189613915748
 20
-3442.959560114347
 11
1308.596558308687
 21
-3442.959560114347
  0
LINE
  5
475
100
AcDbEntity
  8
1
  6
PHANTOM
 62
           3
100
AcDbLine
 10
1211.161287016839
 20
-3432.959560114349
 11
1297.373822044866
 21
-3432.959560114347
  0
LINE
  5
474
100
AcDbEntity
  8
1
  6
DOT_CENTER
 62
           3
100
AcDbLine
 10
1189.161287016839
 20
-3570.846232095327
 11
1189.161287016839
 21
-3362.179600463812
  0
LINE
  5
473
100
AcDbEntity
  8
1
  6
PHANTOM
 62
           3
100
AcDbLine
 10
1208.661287016839
 20
-3379.459560114349
 11
1169.661287016837
 21
-3379.459560114347
  0
LINE
  5
472
100
AcDbEntity
  8
1
  6
PHANTOM
 62
           3
100
AcDbLine
 10
1169.661287016837
 20
-3415.459560114348
 11
1169.661287016837
 21
-3379.459560114347
  0
LINE
  5
471
100
AcDbEntity
  8
1
  6
PHANTOM
 62
           3
100
AcDbLine
 10
1208.661287016839
 20
-3415.459560114347
 11
1169.661287016837
 21
-3415.459560114348
  0
LINE
  5
470
100
AcDbEntity
  8
1
  6
PHANTOM
 62
           3
100
AcDbLine
 10
1181.661287016839
 20
-3374.459560114349
 11
1196.661287016839
 21
-3374.459560114349
  0
LINE
  5
46F
100
AcDbEntity
  8
1
  6
PHANTOM
 62
           3
100
AcDbLine
 10
1181.661287016839
 20
-3379.459560114347
 11
1181.661287016839
 21
-3374.459560114349
  0
LINE
  5
46E
100
AcDbEntity
  8
1
  6
PHANTOM
 62
           3
100
AcDbLine
 10
1196.661287016839
 20
-3379.459560114348
 11
1196.661287016839
 21
-3374.459560114349
  0
LINE
  5
46D
100
AcDbEntity
  8
1
  6
PHANTOM
 62
           3
100
AcDbLine
 10
1208.661287016839
 20
-3379.459560114349
 11
1208.661287016839
 21
-3415.459560114347
  0
LINE
  5
46C
100
AcDbEntity
  8
1
  6
PHANTOM
 62
           3
100
AcDbLine
 10
1385.161287016839
 20
-3595.459560114348
 11
1385.161287016839
 21
-3569.959560114348
  0
LINE
  5
46B
100
AcDbEntity
  8
1
  6
PHANTOM
 62
           3
100
AcDbLine
 10
1361.161287016839
 20
-3595.459560114348
 11
1361.161287016839
 21
-3520.608199645797
  0
LINE
  5
46A
100
AcDbEntity
  8
1
  6
PHANTOM
 62
           3
100
AcDbLine
 10
1385.161287016839
 20
-3561.959560114348
 11
1385.161287016839
 21
-3529.165213789197
  0
LINE
  5
469
100
AcDbEntity
  8
1
  6
PHANTOM
 62
           3
100
AcDbLine
 10
1364.161287016839
 20
-3308.837448763497
 11
1364.161287016839
 21
-3319.001440675831
  0
LINE
  5
468
100
AcDbEntity
  8
1
  6
PHANTOM
 62
           3
100
AcDbLine
 10
1382.161287016839
 20
-3308.959560114347
 11
1382.161287016839
 21
-3313.222672804056
  0
LINE
  5
467
100
AcDbEntity
  8
1
  6
PHANTOM
 62
           3
100
AcDbLine
 10
1339.161274186265
 20
-3310.459560114347
 11
1359.161266196787
 21
-3310.459560114347
  0
LINE
  5
466
100
AcDbEntity
  8
1
  6
PHANTOM
 62
           3
100
AcDbLine
 10
1359.161266196787
 20
-3310.459560114347
 11
1359.161266196787
 21
-3222.959560114347
  0
LINE
  5
465
100
AcDbEntity
  8
1
  6
PHANTOM
 62
           3
100
AcDbLine
 10
1339.161274186265
 20
-3222.959560114347
 11
1339.161274186265
 21
-3310.459560114347
  0
LINE
  5
464
100
AcDbEntity
  8
1
  6
PHANTOM
 62
           3
100
AcDbLine
 10
1359.161266196787
 20
-3222.959560114347
 11
1339.161274186265
 21
-3222.959560114347
  0
LINE
  5
463
100
AcDbEntity
  8
1
  6
PHANTOM
 62
           3
100
AcDbLine
 10
1359.161208209482
 20
-3224.459560114347
 11
1387.16130783689
 21
-3224.459560114347
  0
LINE
  5
462
100
AcDbEntity
  8
1
  6
PHANTOM
 62
           3
100
AcDbLine
 10
1387.161307836892
 20
-3308.959560114347
 11
1387.16130783689
 21
-3224.459560114347
  0
LINE
  5
461
100
AcDbEntity
  8
1
  6
PHANTOM
 62
           3
100
AcDbLine
 10
1387.161365824196
 20
-3308.959560114347
 11
1359.161266196787
 21
-3308.959560114347
  0
LINE
  5
460
100
AcDbEntity
  8
1
  6
PHANTOM
 62
           3
100
AcDbLine
 10
1281.161287016839
 20
-3319.901397533932
 11
1286.156924321199
 21
-3315.709560114347
  0
LINE
  5
45F
100
AcDbEntity
  8
1
  6
PHANTOM
 62
           3
100
AcDbLine
 10
1282.31583754421
 20
-3337.208316662891
 11
1294.161287016839
 21
-3327.268804379279
  0
LINE
  5
45E
100
AcDbEntity
  8
1
  6
PHANTOM
 62
           3
100
AcDbLine
 10
1387.16130783689
 20
-3260.205245453695
 11
1400.161307836892
 21
-3275.69804215742
  0
LINE
  5
45D
100
AcDbEntity
  8
1
  6
PHANTOM
 62
           3
100
AcDbLine
 10
1387.161307836892
 20
-3296.227183625654
 11
1400.161307836892
 21
-3285.318888420351
  0
LINE
  5
45C
100
AcDbEntity
  8
1
  6
DOT_CENTER
 62
           3
100
AcDbLine
 10
1373.161287016839
 20
-3510.462491972628
 11
1373.161287016839
 21
-3654.036942593145
  0
LINE
  5
45B
100
AcDbEntity
  8
1
  6
CONTINUOUS
 62
           2
100
AcDbLine
 10
-525.0
 20
-1647.15956011435
 11
-505.0
 21
-1647.15956011435
  0
LINE
  5
45A
100
AcDbEntity
  8
1
  6
CONTINUOUS
 62
           3
100
AcDbLine
 10
-525.0
 20
-1573.759560114351
 11
-505.0
 21
-1573.759560114351
  0
LINE
  5
459
100
AcDbEntity
  8
1
  6
CONTINUOUS
 62
           3
100
AcDbLine
 10
-3825.0
 20
-1645.55956011435
 11
-3844.999999999999
 21
-1645.55956011435
  0
LINE
  5
458
100
AcDbEntity
  8
1
  6
CONTINUOUS
 62
           2
100
AcDbLine
 10
-3825.0
 20
-1572.15956011435
 11
-3844.999999999999
 21
-1572.15956011435
  0
LINE
  5
457
100
AcDbEntity
  8
1
  6
CONTINUOUS
 62
           2
100
AcDbLine
 10
-3749.999999999999
 20
-947.15956011435
 11
-3749.999999999999
 21
-1019.42570537281
  0
LINE
  5
456
100
AcDbEntity
  8
1
  6
CONTINUOUS
 62
           2
100
AcDbLine
 10
-4375.0
 20
-1445.645681925691
 11
-4375.0
 21
-1466.65956011435
  0
LINE
  5
455
100
AcDbEntity
  8
1
  6
CONTINUOUS
 62
           2
100
AcDbLine
 10
-4343.0
 20
-1445.645681925691
 11
-4375.0
 21
-1445.645681925691
  0
LINE
  5
454
100
AcDbEntity
  8
1
  6
CONTINUOUS
 62
           2
100
AcDbLine
 10
-4343.0
 20
-1448.145681925691
 11
-4343.0
 21
-1445.645681925691
  0
LINE
  5
453
100
AcDbEntity
  8
1
  6
CONTINUOUS
 62
           2
100
AcDbLine
 10
-4375.0
 20
-1448.145681925691
 11
-4343.0
 21
-1448.145681925691
  0
LINE
  5
452
100
AcDbEntity
  8
1
  6
CONTINUOUS
 62
           2
100
AcDbLine
 10
-4340.0
 20
-1447.65956011435
 11
-4343.0
 21
-1447.65956011435
  0
LINE
  5
451
100
AcDbEntity
  8
1
  6
CONTINUOUS
 62
           2
100
AcDbLine
 10
-4340.0
 20
-1466.65956011435
 11
-4375.0
 21
-1466.65956011435
  0
LINE
  5
450
100
AcDbEntity
  8
1
  6
CONTINUOUS
 62
           2
100
AcDbLine
 10
-4112.999999999999
 20
-1398.65956011435
 11
-4117.6
 21
-1398.65956011435
  0
LINE
  5
44F
100
AcDbEntity
  8
1
  6
CONTINUOUS
 62
           2
100
AcDbLine
 10
-4112.999999999999
 20
-1515.65956011435
 11
-4112.999999999999
 21
-1398.65956011435
  0
LINE
  5
44E
100
AcDbEntity
  8
1
  6
CONTINUOUS
 62
           2
100
AcDbLine
 10
-4117.6
 20
-1515.65956011435
 11
-4112.999999999999
 21
-1515.65956011435
  0
LINE
  5
44D
100
AcDbEntity
  8
1
  6
CONTINUOUS
 62
           2
100
AcDbLine
 10
-4117.6
 20
-1398.65956011435
 11
-4120.0
 21
-1395.606928535402
  0
LINE
  5
44C
100
AcDbEntity
  8
1
  6
CONTINUOUS
 62
           2
100
AcDbLine
 10
-4120.0
 20
-1518.712191693298
 11
-4117.6
 21
-1515.65956011435
  0
LINE
  5
44B
100
AcDbEntity
  8
1
  6
DOT_CENTER
 62
           3
100
AcDbLine
 10
-4102.287455621302
 20
-1457.15956011435
 11
-4384.348284023668
 21
-1457.15956011435
  0
LINE
  5
44A
100
AcDbEntity
  8
1
  6
CONTINUOUS
 62
           3
100
AcDbLine
 10
-4117.6
 20
-1515.65956011435
 11
-4117.6
 21
-1398.65956011435
  0
LINE
  5
449
100
AcDbEntity
  8
1
  6
CONTINUOUS
 62
           2
100
AcDbLine
 10
-3849.999999999999
 20
-1577.15956011435
 11
-3849.999999999999
 21
-1642.15956011435
  0
LINE
  5
448
100
AcDbEntity
  8
1
  6
CONTINUOUS
 62
           2
100
AcDbLine
 10
-3844.999999999999
 20
-1647.15956011435
 11
-3825.0
 21
-1647.15956011435
  0
LINE
  5
447
100
AcDbEntity
  8
1
  6
CONTINUOUS
 62
           3
100
AcDbLine
 10
-3848.400000000001
 20
-1642.15956011435
 11
-3848.400000000001
 21
-1577.15956011435
  0
LINE
  5
446
100
AcDbEntity
  8
1
  6
CONTINUOUS
 62
           3
100
AcDbLine
 10
-3844.999999999999
 20
-1573.759560114351
 11
-3825.0
 21
-1573.759560114351
  0
LINE
  5
445
100
AcDbEntity
  8
1
  6
CONTINUOUS
 62
           2
100
AcDbLine
 10
-4315.0
 20
-1572.15956011435
 11
-4350.0
 21
-1572.15956011435
  0
LINE
  5
444
100
AcDbEntity
  8
1
  6
CONTINUOUS
 62
           2
100
AcDbLine
 10
-4310.0
 20
-1642.15956011435
 11
-4310.0
 21
-1577.15956011435
  0
LINE
  5
443
100
AcDbEntity
  8
1
  6
CONTINUOUS
 62
           2
100
AcDbLine
 10
-4350.0
 20
-1647.15956011435
 11
-4315.0
 21
-1647.15956011435
  0
LINE
  5
442
100
AcDbEntity
  8
1
  6
CONTINUOUS
 62
           3
100
AcDbLine
 10
-4350.0
 20
-1645.55956011435
 11
-4350.0
 21
-1647.15956011435
  0
LINE
  5
441
100
AcDbEntity
  8
1
  6
CONTINUOUS
 62
           3
100
AcDbLine
 10
-4315.0
 20
-1645.55956011435
 11
-4350.0
 21
-1645.55956011435
  0
LINE
  5
440
100
AcDbEntity
  8
1
  6
CONTINUOUS
 62
           3
100
AcDbLine
 10
-4311.6
 20
-1577.15956011435
 11
-4311.6
 21
-1642.15956011435
  0
LINE
  5
43F
100
AcDbEntity
  8
1
  6
CONTINUOUS
 62
           3
100
AcDbLine
 10
-4350.0
 20
-1573.759560114351
 11
-4315.0
 21
-1573.759560114351
  0
LINE
  5
43E
100
AcDbEntity
  8
1
  6
CONTINUOUS
 62
           3
100
AcDbLine
 10
-4350.0
 20
-1572.15956011435
 11
-4350.0
 21
-1573.759560114351
  0
LINE
  5
43D
100
AcDbEntity
  8
1
  6
CONTINUOUS
 62
           2
100
AcDbLine
 10
-3844.999999999999
 20
-1572.15956011435
 11
-4315.0
 21
-1572.15956011435
  0
LINE
  5
43C
100
AcDbEntity
  8
1
  6
CONTINUOUS
 62
           2
100
AcDbLine
 10
-3844.999999999999
 20
-1647.15956011435
 11
-4315.0
 21
-1647.15956011435
  0
LINE
  5
43B
100
AcDbEntity
  8
1
  6
DOT_CENTER
 62
           3
100
AcDbLine
 10
-4397.587975930462
 20
-1282.15956011435
 11
-3762.01806907535
 21
-1282.15956011435
  0
LINE
  5
43A
100
AcDbEntity
  8
1
  6
CONTINUOUS
 62
           2
100
AcDbLine
 10
-4119.999999999999
 20
-1325.15956011435
 11
-4340.0
 21
-1325.15956011435
  0
LINE
  5
439
100
AcDbEntity
  8
1
  6
CONTINUOUS
 62
           2
100
AcDbLine
 10
-4173.999999999999
 20
-1325.15956011435
 11
-4173.999999999999
 21
-1305.15956011435
  0
LINE
  5
438
100
AcDbEntity
  8
1
  6
CONTINUOUS
 62
           2
100
AcDbLine
 10
-4173.999999999999
 20
-1305.15956011435
 11
-4125.999999999999
 21
-1305.15956011435
  0
LINE
  5
437
100
AcDbEntity
  8
1
  6
CONTINUOUS
 62
           2
100
AcDbLine
 10
-4125.999999999999
 20
-1305.15956011435
 11
-4125.999999999999
 21
-1325.15956011435
  0
LINE
  5
436
100
AcDbEntity
  8
1
  6
CONTINUOUS
 62
           2
100
AcDbLine
 10
-4169.999999999999
 20
-1305.15956011435
 11
-4164.999999999999
 21
-1241.15956011435
  0
LINE
  5
435
100
AcDbEntity
  8
1
  6
CONTINUOUS
 62
           2
100
AcDbLine
 10
-4164.999999999999
 20
-1241.15956011435
 11
-4134.999999999999
 21
-1241.15956011435
  0
LINE
  5
434
100
AcDbEntity
  8
1
  6
CONTINUOUS
 62
           2
100
AcDbLine
 10
-4134.999999999999
 20
-1241.15956011435
 11
-4129.999999999999
 21
-1305.15956011435
  0
LINE
  5
433
100
AcDbEntity
  8
1
  6
CONTINUOUS
 62
           2
100
AcDbLine
 10
-4334.0
 20
-1325.15956011435
 11
-4334.0
 21
-1305.15956011435
  0
LINE
  5
432
100
AcDbEntity
  8
1
  6
CONTINUOUS
 62
           2
100
AcDbLine
 10
-4334.0
 20
-1305.15956011435
 11
-4286.0
 21
-1305.15956011435
  0
LINE
  5
431
100
AcDbEntity
  8
1
  6
CONTINUOUS
 62
           2
100
AcDbLine
 10
-4286.0
 20
-1305.15956011435
 11
-4286.0
 21
-1325.15956011435
  0
LINE
  5
430
100
AcDbEntity
  8
1
  6
CONTINUOUS
 62
           2
100
AcDbLine
 10
-4330.0
 20
-1305.15956011435
 11
-4325.0
 21
-1241.15956011435
  0
LINE
  5
42F
100
AcDbEntity
  8
1
  6
CONTINUOUS
 62
           2
100
AcDbLine
 10
-4325.0
 20
-1241.15956011435
 11
-4295.0
 21
-1241.15956011435
  0
LINE
  5
42E
100
AcDbEntity
  8
1
  6
CONTINUOUS
 62
           2
100
AcDbLine
 10
-4295.0
 20
-1241.15956011435
 11
-4290.0
 21
-1305.15956011435
  0
LINE
  5
42D
100
AcDbEntity
  8
1
  6
CONTINUOUS
 62
           2
100
AcDbLine
 10
-4292.96875
 20
-1267.15956011435
 11
-4167.031249999999
 21
-1267.15956011435
  0
LINE
  5
42C
100
AcDbEntity
  8
1
  6
CONTINUOUS
 62
           2
100
AcDbLine
 10
-4109.999999999999
 20
-1297.15956011435
 11
-4129.999999999999
 21
-1297.15956011435
  0
LINE
  5
42B
100
AcDbEntity
  8
1
  6
CONTINUOUS
 62
           2
100
AcDbLine
 10
-4169.374999999999
 20
-1297.15956011435
 11
-4290.625
 21
-1297.15956011435
  0
LINE
  5
42A
100
AcDbEntity
  8
1
  6
CONTINUOUS
 62
           2
100
AcDbLine
 10
-4119.999999999999
 20
-1325.15956011435
 11
-4119.999999999999
 21
-1572.15956011435
  0
LINE
  5
429
100
AcDbEntity
  8
1
  6
CONTINUOUS
 62
           2
100
AcDbLine
 10
-4340.0
 20
-1325.15956011435
 11
-4340.0
 21
-1572.15956011435
  0
LINE
  5
428
100
AcDbEntity
  8
1
  6
PHANTOM
 62
           3
100
AcDbLine
 10
-4350.0
 20
-1232.15956011435
 11
-4380.0
 21
-1232.15956011435
  0
LINE
  5
427
100
AcDbEntity
  8
1
  6
PHANTOM
 62
           3
100
AcDbLine
 10
-4380.0
 20
-1232.15956011435
 11
-4380.0
 21
-1332.15956011435
  0
LINE
  5
426
100
AcDbEntity
  8
1
  6
PHANTOM
 62
           3
100
AcDbLine
 10
-4380.0
 20
-1332.15956011435
 11
-4350.0
 21
-1332.15956011435
  0
LINE
  5
425
100
AcDbEntity
  8
1
  6
PHANTOM
 62
           3
100
AcDbLine
 10
-4350.0
 20
-1332.15956011435
 11
-4350.0
 21
-1232.15956011435
  0
LINE
  5
424
100
AcDbEntity
  8
1
  6
PHANTOM
 62
           3
100
AcDbLine
 10
-4380.0
 20
-1375.15956011435
 11
-4350.0
 21
-1375.15956011435
  0
LINE
  5
423
100
AcDbEntity
  8
1
  6
PHANTOM
 62
           3
100
AcDbLine
 10
-4350.0
 20
-1375.15956011435
 11
-4350.0
 21
-1539.15956011435
  0
LINE
  5
422
100
AcDbEntity
  8
1
  6
PHANTOM
 62
           3
100
AcDbLine
 10
-4350.0
 20
-1539.15956011435
 11
-4380.0
 21
-1539.15956011435
  0
LINE
  5
421
100
AcDbEntity
  8
1
  6
PHANTOM
 62
           3
100
AcDbLine
 10
-4380.0
 20
-1539.15956011435
 11
-4380.0
 21
-1375.15956011435
  0
LINE
  5
420
100
AcDbEntity
  8
1
  6
DOT_CENTER
 62
           3
100
AcDbLine
 10
-4360.0
 20
-1232.15956011435
 11
-4360.0
 21
-1539.15956011435
  0
LINE
  5
41F
100
AcDbEntity
  8
1
  6
DOT_CENTER
 62
           3
100
AcDbLine
 10
-4370.0
 20
-1539.15956011435
 11
-4370.0
 21
-1232.15956011435
  0
LINE
  5
41E
100
AcDbEntity
  8
1
  6
CONTINUOUS
 62
           2
100
AcDbLine
 10
-4327.03125
 20
-1267.15956011435
 11
-4380.0
 21
-1267.15956011435
  0
LINE
  5
41D
100
AcDbEntity
  8
1
  6
CONTINUOUS
 62
           2
100
AcDbLine
 10
-4380.0
 20
-1267.15956011435
 11
-4380.0
 21
-1297.15956011435
  0
LINE
  5
41C
100
AcDbEntity
  8
1
  6
CONTINUOUS
 62
           2
100
AcDbLine
 10
-4380.0
 20
-1297.15956011435
 11
-4329.375
 21
-1297.15956011435
  0
LINE
  5
41B
100
AcDbEntity
  8
1
  6
PHANTOM
 62
           3
100
AcDbLine
 10
-4350.0
 20
-1572.15956011435
 11
-4420.0
 21
-1572.15956011435
  0
LINE
  5
41A
100
AcDbEntity
  8
1
  6
PHANTOM
 62
           3
100
AcDbLine
 10
-4420.0
 20
-1572.15956011435
 11
-4420.0
 21
-1182.15956011435
  0
LINE
  5
419
100
AcDbEntity
  8
1
  6
PHANTOM
 62
           3
100
AcDbLine
 10
-4420.0
 20
-1182.15956011435
 11
-4340.0
 21
-1182.15956011435
  0
LINE
  5
418
100
AcDbEntity
  8
1
  6
PHANTOM
 62
           3
100
AcDbLine
 10
-4340.0
 20
-1182.15956011435
 11
-4340.0
 21
-1325.15956011435
  0
LINE
  5
417
100
AcDbEntity
  8
1
  6
CONTINUOUS
 62
           2
100
AcDbLine
 10
-4132.968749999999
 20
-1267.15956011435
 11
-4109.999999999999
 21
-1267.15956011435
  0
LINE
  5
416
100
AcDbEntity
  8
1
  6
CONTINUOUS
 62
           2
100
AcDbLine
 10
-3849.999999999999
 20
-1647.15956011435
 11
-4350.0
 21
-1647.15956011435
  0
LINE
  5
415
100
AcDbEntity
  8
1
  6
CONTINUOUS
 62
           2
100
AcDbLine
 10
-3849.999999999999
 20
-1647.15956011435
 11
-4350.0
 21
-1647.15956011435
  0
LINE
  5
414
100
AcDbEntity
  8
1
  6
CONTINUOUS
 62
           2
100
AcDbLine
 10
-3849.999999999999
 20
-1647.15956011435
 11
-4350.0
 21
-1647.15956011435
  0
LINE
  5
413
100
AcDbEntity
  8
1
  6
CONTINUOUS
 62
           2
100
AcDbLine
 10
-4109.999999999999
 20
-1572.15956011435
 11
-4109.999999999999
 21
-947.15956011435
  0
LINE
  5
412
100
AcDbEntity
  8
1
  6
CONTINUOUS
 62
           2
100
AcDbLine
 10
-4050.0
 20
-1647.15956011435
 11
-4350.0
 21
-1647.15956011435
  0
LINE
  5
411
100
AcDbEntity
  8
1
  6
CONTINUOUS
 62
           2
100
AcDbLine
 10
-3844.999999999999
 20
-1647.15956011435
 11
-4315.0
 21
-1647.15956011435
  0
LINE
  5
410
100
AcDbEntity
  8
1
  6
DOT_CENTER
 62
           3
100
AcDbLine
 10
-3950.0
 20
-1683.810401793009
 11
-3949.999999999999
 21
-900.37446478819
  0
LINE
  5
40F
100
AcDbEntity
  8
1
  6
CONTINUOUS
 62
           2
100
AcDbLine
 10
-4109.999999999999
 20
-947.15956011435
 11
-3749.999999999999
 21
-947.15956011435
  0
LINE
  5
40E
100
AcDbEntity
  8
1
  6
CONTINUOUS
 62
           2
100
AcDbLine
 10
-3850.0
 20
2653.951609291842
 11
-3850.0
 21
2473.951609291842
  0
LINE
  5
40D
100
AcDbEntity
  8
1
  6
CONTINUOUS
 62
           2
100
AcDbLine
 10
-4059.999999999999
 20
2678.951609291842
 11
-4135.0
 21
2678.951609291842
  0
LINE
  5
40C
100
AcDbEntity
  8
1
  6
CONTINUOUS
 62
           2
100
AcDbLine
 10
-4248.0
 20
2713.951609291842
 11
-4334.999999999999
 21
2713.951609291842
  0
LINE
  5
40B
100
AcDbEntity
  8
1
  6
CONTINUOUS
 62
           2
100
AcDbLine
 10
-4135.0
 20
2463.951609291842
 11
-4135.0
 21
2508.151609291841
  0
LINE
  5
40A
100
AcDbEntity
  8
1
  6
CONTINUOUS
 62
           2
100
AcDbLine
 10
-4309.999999999999
 20
2308.951609291842
 11
-4309.999999999999
 21
2463.951609291842
  0
LINE
  5
409
100
AcDbEntity
  8
1
  6
CONTINUOUS
 62
           2
100
AcDbLine
 10
-4090.0
 20
2498.951609291842
 11
-4135.0
 21
2498.951609291842
  0
LINE
  5
408
100
AcDbEntity
  8
1
  6
CONTINUOUS
 62
           2
100
AcDbLine
 10
-4135.0
 20
2463.951609291842
 11
-4334.999999999999
 21
2463.951609291842
  0
LINE
  5
407
100
AcDbEntity
  8
1
  6
CONTINUOUS
 62
           2
100
AcDbLine
 10
-4135.0
 20
2669.751609291841
 11
-4135.0
 21
2713.951609291842
  0
LINE
  5
406
100
AcDbEntity
  8
1
  6
CONTINUOUS
 62
           2
100
AcDbLine
 10
-4135.0
 20
2713.951609291842
 11
-4149.0
 21
2713.951609291842
  0
LINE
  5
405
100
AcDbEntity
  8
1
  6
CONTINUOUS
 62
           2
100
AcDbLine
 10
-4334.999999999999
 20
2713.951609291842
 11
-4334.999999999999
 21
2463.951609291842
  0
LINE
  5
404
100
AcDbEntity
  8
1
  6
CONTINUOUS
 62
           2
100
AcDbLine
 10
-4339.999999999999
 20
2308.951609291842
 11
-4339.999999999999
 21
2113.951609291842
  0
LINE
  5
403
100
AcDbEntity
  8
1
  6
CONTINUOUS
 62
           2
100
AcDbLine
 10
-4120.0
 20
1888.951609291842
 11
-4120.0
 21
2083.951609291842
  0
LINE
  5
402
100
AcDbEntity
  8
1
  6
CONTINUOUS
 62
           2
100
AcDbLine
 10
-4090.0
 20
2638.951609291842
 11
-4090.0
 21
2473.951609291842
  0
LINE
  5
401
100
AcDbEntity
  8
1
  6
CONTINUOUS
 62
           2
100
AcDbLine
 10
-4169.999999999999
 20
2083.951609291842
 11
-4289.999999999999
 21
2083.951609291842
  0
LINE
  5
400
100
AcDbEntity
  8
1
  6
CONTINUOUS
 62
           2
100
AcDbLine
 10
-4329.999999999999
 20
2083.951609291842
 11
-4339.999999999999
 21
2083.951609291842
  0
LINE
  5
3FF
100
AcDbEntity
  8
1
  6
CONTINUOUS
 62
           2
100
AcDbLine
 10
-4339.999999999999
 20
2083.951609291842
 11
-4379.999999999999
 21
2083.951609291842
  0
LINE
  5
3FE
100
AcDbEntity
  8
1
  6
CONTINUOUS
 62
           2
100
AcDbLine
 10
-4379.999999999999
 20
2113.951609291842
 11
-4329.999999999999
 21
2113.951609291842
  0
LINE
  5
3FD
100
AcDbEntity
  8
1
  6
CONTINUOUS
 62
           2
100
AcDbLine
 10
-4289.999999999999
 20
2113.951609291842
 11
-4169.999999999999
 21
2113.951609291842
  0
LINE
  5
3FC
100
AcDbEntity
  8
1
  6
CONTINUOUS
 62
           2
100
AcDbLine
 10
-4129.999999999999
 20
2113.951609291842
 11
-4110.0
 21
2113.951609291842
  0
LINE
  5
3FB
100
AcDbEntity
  8
1
  6
CONTINUOUS
 62
           2
100
AcDbLine
 10
-4379.999999999999
 20
2113.951609291842
 11
-4379.999999999999
 21
2083.951609291842
  0
LINE
  5
3FA
100
AcDbEntity
  8
1
  6
DOT_CENTER
 62
           3
100
AcDbLine
 10
-4369.999999999999
 20
2048.951609291842
 11
-4369.999999999999
 21
2670.951609291842
  0
LINE
  5
3F9
100
AcDbEntity
  8
1
  6
DOT_CENTER
 62
           3
100
AcDbLine
 10
-4359.999999999999
 20
2670.951609291842
 11
-4359.999999999999
 21
2048.951609291842
  0
LINE
  5
3F8
100
AcDbEntity
  8
1
  6
PHANTOM
 62
           3
100
AcDbLine
 10
-4379.999999999999
 20
2506.951609291842
 11
-4379.999999999999
 21
2670.951609291842
  0
LINE
  5
3F7
100
AcDbEntity
  8
1
  6
PHANTOM
 62
           3
100
AcDbLine
 10
-4379.999999999999
 20
2670.951609291842
 11
-4349.999999999999
 21
2670.951609291842
  0
LINE
  5
3F6
100
AcDbEntity
  8
1
  6
PHANTOM
 62
           3
100
AcDbLine
 10
-4349.999999999999
 20
2670.951609291842
 11
-4349.999999999999
 21
2506.951609291842
  0
LINE
  5
3F5
100
AcDbEntity
  8
1
  6
PHANTOM
 62
           3
100
AcDbLine
 10
-4349.999999999999
 20
2506.951609291842
 11
-4379.999999999999
 21
2506.951609291842
  0
LINE
  5
3F4
100
AcDbEntity
  8
1
  6
PHANTOM
 62
           3
100
AcDbLine
 10
-4349.999999999999
 20
2048.951609291842
 11
-4349.999999999999
 21
2148.951609291842
  0
LINE
  5
3F3
100
AcDbEntity
  8
1
  6
PHANTOM
 62
           3
100
AcDbLine
 10
-4349.999999999999
 20
2148.951609291842
 11
-4379.999999999999
 21
2148.951609291842
  0
LINE
  5
3F2
100
AcDbEntity
  8
1
  6
PHANTOM
 62
           3
100
AcDbLine
 10
-4379.999999999999
 20
2148.951609291842
 11
-4379.999999999999
 21
2048.951609291842
  0
LINE
  5
3F1
100
AcDbEntity
  8
1
  6
PHANTOM
 62
           3
100
AcDbLine
 10
-4379.999999999999
 20
2048.951609291842
 11
-4349.999999999999
 21
2048.951609291842
  0
LINE
  5
3F0
100
AcDbEntity
  8
1
  6
PHANTOM
 62
           3
100
AcDbLine
 10
-4419.999999999999
 20
1988.951609291842
 11
-4339.999999999999
 21
1988.951609291842
  0
LINE
  5
3EF
100
AcDbEntity
  8
1
  6
PHANTOM
 62
           3
100
AcDbLine
 10
-4339.999999999999
 20
1988.951609291842
 11
-4339.999999999999
 21
2718.951609291842
  0
LINE
  5
3EE
100
AcDbEntity
  8
1
  6
PHANTOM
 62
           3
100
AcDbLine
 10
-4339.999999999999
 20
2718.951609291842
 11
-4419.999999999999
 21
2718.951609291842
  0
LINE
  5
3ED
100
AcDbEntity
  8
1
  6
PHANTOM
 62
           3
100
AcDbLine
 10
-4419.999999999999
 20
2718.951609291842
 11
-4419.999999999999
 21
1988.951609291842
  0
LINE
  5
3EC
100
AcDbEntity
  8
1
  6
CONTINUOUS
 62
           2
100
AcDbLine
 10
-4329.999999999999
 20
2068.951609291842
 11
-4333.999999999999
 21
2068.951609291842
  0
LINE
  5
3EB
100
AcDbEntity
  8
1
  6
CONTINUOUS
 62
           2
100
AcDbLine
 10
-4333.999999999999
 20
2068.951609291842
 11
-4333.999999999999
 21
2016.451609291842
  0
LINE
  5
3EA
100
AcDbEntity
  8
1
  6
CONTINUOUS
 62
           2
100
AcDbLine
 10
-4333.999999999999
 20
2016.451609291842
 11
-4285.999999999999
 21
2016.451609291842
  0
LINE
  5
3E9
100
AcDbEntity
  8
1
  6
CONTINUOUS
 62
           2
100
AcDbLine
 10
-4285.999999999999
 20
2016.451609291842
 11
-4285.999999999999
 21
2068.951609291842
  0
LINE
  5
3E8
100
AcDbEntity
  8
1
  6
CONTINUOUS
 62
           2
100
AcDbLine
 10
-4285.999999999999
 20
2068.951609291842
 11
-4289.999999999999
 21
2068.951609291842
  0
LINE
  5
3E7
100
AcDbEntity
  8
1
  6
CONTINUOUS
 62
           2
100
AcDbLine
 10
-4289.999999999999
 20
2128.951609291842
 11
-4285.999999999999
 21
2128.951609291842
  0
LINE
  5
3E6
100
AcDbEntity
  8
1
  6
CONTINUOUS
 62
           2
100
AcDbLine
 10
-4285.999999999999
 20
2128.951609291842
 11
-4285.999999999999
 21
2181.451609291842
  0
LINE
  5
3E5
100
AcDbEntity
  8
1
  6
CONTINUOUS
 62
           2
100
AcDbLine
 10
-4285.999999999999
 20
2181.451609291842
 11
-4333.999999999999
 21
2181.451609291842
  0
LINE
  5
3E4
100
AcDbEntity
  8
1
  6
CONTINUOUS
 62
           2
100
AcDbLine
 10
-4333.999999999999
 20
2181.451609291842
 11
-4333.999999999999
 21
2128.951609291842
  0
LINE
  5
3E3
100
AcDbEntity
  8
1
  6
CONTINUOUS
 62
           2
100
AcDbLine
 10
-4333.999999999999
 20
2128.951609291842
 11
-4329.999999999999
 21
2128.951609291842
  0
LINE
  5
3E2
100
AcDbEntity
  8
1
  6
CONTINUOUS
 62
           2
100
AcDbLine
 10
-4329.999999999999
 20
2048.951609291842
 11
-4289.999999999999
 21
2048.951609291842
  0
LINE
  5
3E1
100
AcDbEntity
  8
1
  6
CONTINUOUS
 62
           2
100
AcDbLine
 10
-4289.999999999999
 20
2048.951609291842
 11
-4289.999999999999
 21
2148.951609291842
  0
LINE
  5
3E0
100
AcDbEntity
  8
1
  6
CONTINUOUS
 62
           2
100
AcDbLine
 10
-4289.999999999999
 20
2148.951609291842
 11
-4329.999999999999
 21
2148.951609291842
  0
LINE
  5
3DF
100
AcDbEntity
  8
1
  6
CONTINUOUS
 62
           2
100
AcDbLine
 10
-4329.999999999999
 20
2148.951609291842
 11
-4329.999999999999
 21
2048.951609291842
  0
LINE
  5
3DE
100
AcDbEntity
  8
1
  6
CONTINUOUS
 62
           2
100
AcDbLine
 10
-4169.999999999999
 20
2068.951609291842
 11
-4173.999999999999
 21
2068.951609291842
  0
LINE
  5
3DD
100
AcDbEntity
  8
1
  6
CONTINUOUS
 62
           2
100
AcDbLine
 10
-4173.999999999999
 20
2068.951609291842
 11
-4173.999999999999
 21
2016.451609291842
  0
LINE
  5
3DC
100
AcDbEntity
  8
1
  6
CONTINUOUS
 62
           2
100
AcDbLine
 10
-4173.999999999999
 20
2016.451609291842
 11
-4126.0
 21
2016.451609291842
  0
LINE
  5
3DB
100
AcDbEntity
  8
1
  6
CONTINUOUS
 62
           2
100
AcDbLine
 10
-4126.0
 20
2016.451609291842
 11
-4126.0
 21
2068.951609291842
  0
LINE
  5
3DA
100
AcDbEntity
  8
1
  6
CONTINUOUS
 62
           2
100
AcDbLine
 10
-4126.0
 20
2068.951609291842
 11
-4130.0
 21
2068.951609291842
  0
LINE
  5
3D9
100
AcDbEntity
  8
1
  6
CONTINUOUS
 62
           2
100
AcDbLine
 10
-4130.0
 20
2128.951609291842
 11
-4126.0
 21
2128.951609291842
  0
LINE
  5
3D8
100
AcDbEntity
  8
1
  6
CONTINUOUS
 62
           2
100
AcDbLine
 10
-4126.0
 20
2128.951609291842
 11
-4126.0
 21
2181.451609291842
  0
LINE
  5
3D7
100
AcDbEntity
  8
1
  6
CONTINUOUS
 62
           2
100
AcDbLine
 10
-4126.0
 20
2181.451609291842
 11
-4173.999999999999
 21
2181.451609291842
  0
LINE
  5
3D6
100
AcDbEntity
  8
1
  6
CONTINUOUS
 62
           2
100
AcDbLine
 10
-4173.999999999999
 20
2181.451609291842
 11
-4173.999999999999
 21
2128.951609291842
  0
LINE
  5
3D5
100
AcDbEntity
  8
1
  6
CONTINUOUS
 62
           2
100
AcDbLine
 10
-4173.999999999999
 20
2128.951609291842
 11
-4169.999999999999
 21
2128.951609291842
  0
LINE
  5
3D4
100
AcDbEntity
  8
1
  6
CONTINUOUS
 62
           2
100
AcDbLine
 10
-4169.999999999999
 20
2048.951609291842
 11
-4129.999999999999
 21
2048.951609291842
  0
LINE
  5
3D3
100
AcDbEntity
  8
1
  6
CONTINUOUS
 62
           2
100
AcDbLine
 10
-4129.999999999999
 20
2048.951609291842
 11
-4129.999999999999
 21
2148.951609291842
  0
LINE
  5
3D2
100
AcDbEntity
  8
1
  6
CONTINUOUS
 62
           2
100
AcDbLine
 10
-4129.999999999999
 20
2148.951609291842
 11
-4169.999999999999
 21
2148.951609291842
  0
LINE
  5
3D1
100
AcDbEntity
  8
1
  6
CONTINUOUS
 62
           2
100
AcDbLine
 10
-4169.999999999999
 20
2148.951609291842
 11
-4169.999999999999
 21
2048.951609291842
  0
LINE
  5
3D0
100
AcDbEntity
  8
1
  6
CONTINUOUS
 62
           2
100
AcDbLine
 10
-4339.999999999999
 20
1988.951609291842
 11
-4120.0
 21
1988.951609291842
  0
LINE
  5
3CF
100
AcDbEntity
  8
1
  6
CONTINUOUS
 62
           2
100
AcDbLine
 10
-4339.999999999999
 20
2208.951609291842
 11
-4120.0
 21
2208.951609291842
  0
LINE
  5
3CE
100
AcDbEntity
  8
1
  6
CONTINUOUS
 62
           2
100
AcDbLine
 10
-4340.0
 20
1888.951609291842
 11
-4120.0
 21
1888.951609291842
  0
LINE
  5
3CD
100
AcDbEntity
  8
1
  6
CONTINUOUS
 62
           2
100
AcDbLine
 10
-4120.0
 20
2113.951609291842
 11
-4120.0
 21
2308.951609291842
  0
LINE
  5
3CC
100
AcDbEntity
  8
1
  6
CONTINUOUS
 62
           2
100
AcDbLine
 10
-4339.999999999999
 20
2083.951609291842
 11
-4340.0
 21
1888.951609291842
  0
LINE
  5
3CB
100
AcDbEntity
  8
1
  6
CONTINUOUS
 62
           2
100
AcDbLine
 10
-4113.0
 20
2538.951609291842
 11
-4090.0
 21
2538.951609291842
  0
LINE
  5
3CA
100
AcDbEntity
  8
1
  6
CONTINUOUS
 62
           2
100
AcDbLine
 10
-4113.0
 20
2638.951609291842
 11
-3850.0
 21
2638.951609291842
  0
LINE
  5
3C9
100
AcDbEntity
  8
1
  6
CONTINUOUS
 62
           2
100
AcDbLine
 10
-4310.0
 20
1888.951609291842
 11
-4310.0
 21
1848.951609291842
  0
LINE
  5
3C8
100
AcDbEntity
  8
1
  6
CONTINUOUS
 62
           2
100
AcDbLine
 10
-4350.0
 20
1848.951609291841
 11
-4110.0
 21
1848.951609291842
  0
LINE
  5
3C7
100
AcDbEntity
  8
1
  6
CONTINUOUS
 62
           2
100
AcDbLine
 10
-4309.999999999999
 20
2713.951609291842
 11
-4309.999999999999
 21
2748.951609291842
  0
LINE
  5
3C6
100
AcDbEntity
  8
1
  6
CONTINUOUS
 62
           2
100
AcDbLine
 10
-4309.999999999999
 20
2748.951609291842
 11
-4350.0
 21
2748.951609291842
  0
LINE
  5
3C5
100
AcDbEntity
  8
1
  6
CONTINUOUS
 62
           2
100
AcDbLine
 10
-4350.0
 20
2748.951609291842
 11
-4350.0
 21
1000.755354855032
  0
LINE
  5
3C4
100
AcDbEntity
  8
1
  6
CONTINUOUS
 62
           2
100
AcDbLine
 10
-3810.0
 20
2473.951609291842
 11
-3810.0
 21
2653.951609291842
  0
LINE
  5
3C3
100
AcDbEntity
  8
1
  6
CONTINUOUS
 62
           2
100
AcDbLine
 10
-4050.0
 20
2473.951609291842
 11
-4050.0
 21
2638.951609291842
  0
LINE
  5
3C2
100
AcDbEntity
  8
1
  6
CONTINUOUS
 62
           2
100
AcDbLine
 10
-4110.0
 20
2083.951609291842
 11
-4129.999999999999
 21
2083.951609291842
  0
LINE
  5
3C1
100
AcDbEntity
  8
1
  6
CONTINUOUS
 62
           2
100
AcDbLine
 10
-4149.0
 20
2669.751609291832
 11
-4129.0
 21
2669.751609291832
  0
LINE
  5
3C0
100
AcDbEntity
  8
1
  6
CONTINUOUS
 62
           2
100
AcDbLine
 10
-4174.0
 20
2653.068322235611
 11
-4174.0
 21
2508.151609291832
  0
LINE
  5
3BF
100
AcDbEntity
  8
1
  6
CONTINUOUS
 62
           3
100
AcDbLine
 10
-4237.300000000001
 20
2659.147065499061
 11
-4159.7
 21
2659.147065499061
  0
LINE
  5
3BE
100
AcDbEntity
  8
1
  6
CONTINUOUS
 62
           3
100
AcDbLine
 10
-4242.300000000001
 20
2725.972472409201
 11
-4242.300000000001
 21
2664.147065499061
  0
LINE
  5
3BD
100
AcDbEntity
  8
1
  6
CONTINUOUS
 62
           3
100
AcDbLine
 10
-4159.7
 20
2730.972472409201
 11
-4237.300000000001
 21
2730.972472409201
  0
LINE
  5
3BC
100
AcDbEntity
  8
1
  6
CONTINUOUS
 62
           3
100
AcDbLine
 10
-4154.7
 20
2664.147065499061
 11
-4154.7
 21
2725.972472409201
  0
LINE
  5
3BB
100
AcDbEntity
  8
1
  6
CONTINUOUS
 62
           2
100
AcDbLine
 10
-4154.0
 20
2733.951634196141
 11
-4243.0
 21
2733.951634196141
  0
LINE
  5
3BA
100
AcDbEntity
  8
1
  6
CONTINUOUS
 62
           2
100
AcDbLine
 10
-4149.0
 20
2658.068322235611
 11
-4149.0
 21
2728.951634196141
  0
LINE
  5
3B9
100
AcDbEntity
  8
1
  6
CONTINUOUS
 62
           2
100
AcDbLine
 10
-4243.0
 20
2653.068322235611
 11
-4154.0
 21
2653.068322235611
  0
LINE
  5
3B8
100
AcDbEntity
  8
1
  6
CONTINUOUS
 62
           2
100
AcDbLine
 10
-4248.0
 20
2728.951634196141
 11
-4248.0
 21
2658.068322235611
  0
LINE
  5
3B7
100
AcDbEntity
  8
1
  6
CONTINUOUS
 62
           3
100
AcDbLine
 10
-4117.6
 20
2530.451609291831
 11
-4117.6
 21
2647.451609291831
  0
LINE
  5
3B6
100
AcDbEntity
  8
1
  6
DOT_CENTER
 62
           3
100
AcDbLine
 10
-4384.348284023668
 20
2588.951609291831
 11
-4102.287455621301
 21
2588.951609291831
  0
LINE
  5
3B5
100
AcDbEntity
  8
1
  6
DOT_CENTER
 62
           3
100
AcDbLine
 10
-4235.0
 20
2491.918591540351
 11
-4235.0
 21
2687.689952487101
  0
LINE
  5
3B4
100
AcDbEntity
  8
1
  6
CONTINUOUS
 62
           2
100
AcDbLine
 10
-4154.0
 20
2595.801609291832
 11
-4174.0
 21
2595.801609291832
  0
LINE
  5
3B3
100
AcDbEntity
  8
1
  6
CONTINUOUS
 62
           2
100
AcDbLine
 10
-4154.0
 20
2582.101609291831
 11
-4154.0
 21
2595.801609291832
  0
LINE
  5
3B2
100
AcDbEntity
  8
1
  6
CONTINUOUS
 62
           2
100
AcDbLine
 10
-4174.0
 20
2582.101609291831
 11
-4154.0
 21
2582.101609291831
  0
LINE
  5
3B1
100
AcDbEntity
  8
1
  6
CONTINUOUS
 62
           2
100
AcDbLine
 10
-4129.0
 20
2508.151609291832
 11
-4129.0
 21
2669.751609291832
  0
LINE
  5
3B0
100
AcDbEntity
  8
1
  6
CONTINUOUS
 62
           2
100
AcDbLine
 10
-4129.0
 20
2508.151609291832
 11
-4174.0
 21
2508.151609291832
  0
LINE
  5
3AF
100
AcDbEntity
  8
1
  6
CONTINUOUS
 62
           2
100
AcDbLine
 10
-4117.6
 20
2647.451609291831
 11
-4129.0
 21
2661.951609291831
  0
LINE
  5
3AE
100
AcDbEntity
  8
1
  6
CONTINUOUS
 62
           2
100
AcDbLine
 10
-4129.0
 20
2515.951609291831
 11
-4117.6
 21
2530.451609291831
  0
LINE
  5
3AD
100
AcDbEntity
  8
1
  6
CONTINUOUS
 62
           2
100
AcDbLine
 10
-4309.2
 20
2515.951609291831
 11
-4309.2
 21
2661.951609291831
  0
LINE
  5
3AC
100
AcDbEntity
  8
1
  6
CONTINUOUS
 62
           2
100
AcDbLine
 10
-4113.0
 20
2647.451609291831
 11
-4117.6
 21
2647.451609291831
  0
LINE
  5
3AB
100
AcDbEntity
  8
1
  6
CONTINUOUS
 62
           2
100
AcDbLine
 10
-4113.0
 20
2530.451609291831
 11
-4113.0
 21
2647.451609291831
  0
LINE
  5
3AA
100
AcDbEntity
  8
1
  6
CONTINUOUS
 62
           2
100
AcDbLine
 10
-4117.6
 20
2530.451609291831
 11
-4113.0
 21
2530.451609291831
  0
LINE
  5
3A9
100
AcDbEntity
  8
1
  6
CONTINUOUS
 62
           2
100
AcDbLine
 10
-4248.0
 20
2661.951609291831
 11
-4320.900000000001
 21
2661.951609291831
  0
LINE
  5
3A8
100
AcDbEntity
  8
1
  6
CONTINUOUS
 62
           2
100
AcDbLine
 10
-4320.900000000001
 20
2515.951609291831
 11
-4174.0
 21
2515.951609291831
  0
LINE
  5
3A7
100
AcDbEntity
  8
1
  6
CONTINUOUS
 62
           2
100
AcDbLine
 10
-4320.900000000001
 20
2661.951609291831
 11
-4320.900000000001
 21
2515.951609291831
  0
LINE
  5
3A6
100
AcDbEntity
  8
1
  6
CONTINUOUS
 62
           2
100
AcDbLine
 10
-4324.300000000001
 20
2645.951609291831
 11
-4324.300000000001
 21
2531.951609291831
  0
LINE
  5
3A5
100
AcDbEntity
  8
1
  6
CONTINUOUS
 62
           2
100
AcDbLine
 10
-4320.900000000001
 20
2645.951609291831
 11
-4324.300000000001
 21
2645.951609291831
  0
LINE
  5
3A4
100
AcDbEntity
  8
1
  6
CONTINUOUS
 62
           2
100
AcDbLine
 10
-4324.300000000001
 20
2531.951609291831
 11
-4320.900000000001
 21
2531.951609291831
  0
LINE
  5
3A3
100
AcDbEntity
  8
1
  6
CONTINUOUS
 62
           2
100
AcDbLine
 10
-4330.0
 20
2616.951609291831
 11
-4330.0
 21
2560.951609291831
  0
LINE
  5
3A2
100
AcDbEntity
  8
1
  6
CONTINUOUS
 62
           2
100
AcDbLine
 10
-4324.300000000001
 20
2616.951609291831
 11
-4330.0
 21
2616.951609291831
  0
LINE
  5
3A1
100
AcDbEntity
  8
1
  6
CONTINUOUS
 62
           2
100
AcDbLine
 10
-4330.0
 20
2560.951609291831
 11
-4324.300000000001
 21
2560.951609291831
  0
LINE
  5
3A0
100
AcDbEntity
  8
1
  6
CONTINUOUS
 62
           2
100
AcDbLine
 10
-4335.0
 20
2599.951609291831
 11
-4330.0
 21
2599.951609291831
  0
LINE
  5
39F
100
AcDbEntity
  8
1
  6
CONTINUOUS
 62
           2
100
AcDbLine
 10
-4330.0
 20
2577.951609291831
 11
-4335.0
 21
2577.951609291831
  0
LINE
  5
39E
100
AcDbEntity
  8
1
  6
CONTINUOUS
 62
           2
100
AcDbLine
 10
-4375.0
 20
2598.451609291831
 11
-4335.0
 21
2598.451609291831
  0
LINE
  5
39D
100
AcDbEntity
  8
1
  6
CONTINUOUS
 62
           2
100
AcDbLine
 10
-4335.0
 20
2579.451609291831
 11
-4375.0
 21
2579.451609291831
  0
LINE
  5
39C
100
AcDbEntity
  8
1
  6
CONTINUOUS
 62
           2
100
AcDbLine
 10
-4375.0
 20
2598.451609291831
 11
-4375.0
 21
2579.451609291831
  0
LINE
  5
39B
100
AcDbEntity
  8
1
  6
DOT_CENTER
 62
           3
100
AcDbLine
 10
-3600.0
 20
2183.951609291842
 11
-3600.0
 21
2113.951609291842
  0
LINE
  5
39A
100
AcDbEntity
  8
1
  6
DOT_CENTER
 62
           3
100
AcDbLine
 10
-3565.0
 20
2148.951609291842
 11
-3635.0
 21
2148.951609291842
  0
LINE
  5
399
100
AcDbEntity
  8
1
  6
CONTINUOUS
 62
           2
100
AcDbLine
 10
-3750.0
 20
1808.951609291842
 11
-4110.0
 21
1808.951609291842
  0
LINE
  5
398
100
AcDbEntity
  8
1
  6
CONTINUOUS
 62
           2
100
AcDbLine
 10
-4110.0
 20
1808.951609291842
 11
-4110.0
 21
2473.951609291842
  0
LINE
  5
397
100
AcDbEntity
  8
1
  6
CONTINUOUS
 62
           2
100
AcDbLine
 10
-4110.0
 20
2473.951609291842
 11
-3750.0
 21
2473.951609291842
  0
LINE
  5
396
100
AcDbEntity
  8
1
  6
CONTINUOUS
 62
           2
100
AcDbLine
 10
3175.661287016839
 20
-1645.15956011435
 11
3144.910485263248
 21
-1645.15956011435
  0
LINE
  5
395
100
AcDbEntity
  8
1
  6
CONTINUOUS
 62
           2
100
AcDbLine
 10
-102.0
 20
1683.951609291842
 11
-15.000000000001
 21
1683.951609291842
  0
LINE
  5
394
100
AcDbEntity
  8
1
  6
CONTINUOUS
 62
           2
100
AcDbLine
 10
-15.000000000001
 20
1933.951609291842
 11
-215.0
 21
1933.951609291842
  0
LINE
  5
393
100
AcDbEntity
  8
1
  6
CONTINUOUS
 62
           2
100
AcDbLine
 10
-215.0
 20
1933.951609291842
 11
-215.0
 21
1889.751609291843
  0
LINE
  5
392
100
AcDbEntity
  8
1
  6
CONTINUOUS
 62
           2
100
AcDbLine
 10
-40.000000000001
 20
2088.951609291842
 11
-40.000000000001
 21
1933.951609291842
  0
LINE
  5
391
100
AcDbEntity
  8
1
  6
CONTINUOUS
 62
           2
100
AcDbLine
 10
-260.0
 20
1898.951609291842
 11
-215.0
 21
1898.951609291842
  0
LINE
  5
390
100
AcDbEntity
  8
1
  6
CONTINUOUS
 62
           2
100
AcDbLine
 10
-500.0
 20
1718.951609291842
 11
-215.0
 21
1718.951609291842
  0
LINE
  5
38F
100
AcDbEntity
  8
1
  6
CONTINUOUS
 62
           2
100
AcDbLine
 10
-215.0
 20
1728.151609291843
 11
-215.0
 21
1683.951609291842
  0
LINE
  5
38E
100
AcDbEntity
  8
1
  6
CONTINUOUS
 62
           2
100
AcDbLine
 10
-215.0
 20
1683.951609291842
 11
-201.0
 21
1683.951609291842
  0
LINE
  5
38D
100
AcDbEntity
  8
1
  6
CONTINUOUS
 62
           2
100
AcDbLine
 10
-15.000000000001
 20
1683.951609291842
 11
-15.000000000001
 21
1933.951609291842
  0
LINE
  5
38C
100
AcDbEntity
  8
1
  6
CONTINUOUS
 62
           2
100
AcDbLine
 10
-10.000000000001
 20
2088.951609291842
 11
-10.000000000001
 21
2283.951609291842
  0
LINE
  5
38B
100
AcDbEntity
  8
1
  6
CONTINUOUS
 62
           2
100
AcDbLine
 10
-230.0
 20
2508.951609291842
 11
-230.0
 21
2313.951609291842
  0
LINE
  5
38A
100
AcDbEntity
  8
1
  6
CONTINUOUS
 62
           2
100
AcDbLine
 10
-180.000000000001
 20
2313.951609291842
 11
-60.000000000001
 21
2313.951609291842
  0
LINE
  5
389
100
AcDbEntity
  8
1
  6
CONTINUOUS
 62
           2
100
AcDbLine
 10
-20.000000000001
 20
2313.951609291842
 11
-10.000000000001
 21
2313.951609291842
  0
LINE
  5
388
100
AcDbEntity
  8
1
  6
CONTINUOUS
 62
           2
100
AcDbLine
 10
-10.000000000001
 20
2313.951609291842
 11
29.999999999999
 21
2313.951609291842
  0
LINE
  5
387
100
AcDbEntity
  8
1
  6
CONTINUOUS
 62
           2
100
AcDbLine
 10
29.999999999999
 20
2283.951609291842
 11
-20.000000000001
 21
2283.951609291842
  0
LINE
  5
386
100
AcDbEntity
  8
1
  6
CONTINUOUS
 62
           2
100
AcDbLine
 10
-60.000000000001
 20
2283.951609291842
 11
-180.000000000001
 21
2283.951609291842
  0
LINE
  5
385
100
AcDbEntity
  8
1
  6
CONTINUOUS
 62
           2
100
AcDbLine
 10
-220.000000000001
 20
2283.951609291842
 11
-240.0
 21
2283.951609291842
  0
LINE
  5
384
100
AcDbEntity
  8
1
  6
CONTINUOUS
 62
           2
100
AcDbLine
 10
29.999999999999
 20
2283.951609291842
 11
29.999999999999
 21
2313.951609291842
  0
LINE
  5
383
100
AcDbEntity
  8
1
  6
DOT_CENTER
 62
           3
100
AcDbLine
 10
19.999999999999
 20
2348.951609291842
 11
19.999999999999
 21
1726.951609291842
  0
LINE
  5
382
100
AcDbEntity
  8
1
  6
DOT_CENTER
 62
           3
100
AcDbLine
 10
9.999999999999
 20
1726.951609291842
 11
9.999999999999
 21
2348.951609291842
  0
LINE
  5
381
100
AcDbEntity
  8
1
  6
PHANTOM
 62
           3
100
AcDbLine
 10
29.999999999999
 20
1890.951609291842
 11
29.999999999999
 21
1726.951609291842
  0
LINE
  5
380
100
AcDbEntity
  8
1
  6
PHANTOM
 62
           3
100
AcDbLine
 10
29.999999999999
 20
1726.951609291842
 11
-0.000000000001
 21
1726.951609291842
  0
LINE
  5
37F
100
AcDbEntity
  8
1
  6
PHANTOM
 62
           3
100
AcDbLine
 10
-0.000000000001
 20
1726.951609291842
 11
-0.000000000001
 21
1890.951609291842
  0
LINE
  5
37E
100
AcDbEntity
  8
1
  6
PHANTOM
 62
           3
100
AcDbLine
 10
-0.000000000001
 20
1890.951609291842
 11
29.999999999999
 21
1890.951609291842
  0
LINE
  5
37D
100
AcDbEntity
  8
1
  6
PHANTOM
 62
           3
100
AcDbLine
 10
-0.000000000001
 20
2348.951609291842
 11
-0.000000000001
 21
2248.951609291842
  0
LINE
  5
37C
100
AcDbEntity
  8
1
  6
PHANTOM
 62
           3
100
AcDbLine
 10
-0.000000000001
 20
2248.951609291842
 11
29.999999999999
 21
2248.951609291842
  0
LINE
  5
37B
100
AcDbEntity
  8
1
  6
PHANTOM
 62
           3
100
AcDbLine
 10
29.999999999999
 20
2248.951609291842
 11
29.999999999999
 21
2348.951609291842
  0
LINE
  5
37A
100
AcDbEntity
  8
1
  6
PHANTOM
 62
           3
100
AcDbLine
 10
29.999999999999
 20
2348.951609291842
 11
-0.000000000001
 21
2348.951609291842
  0
LINE
  5
379
100
AcDbEntity
  8
1
  6
PHANTOM
 62
           3
100
AcDbLine
 10
69.999999999999
 20
2408.951609291842
 11
-10.000000000001
 21
2408.951609291842
  0
LINE
  5
378
100
AcDbEntity
  8
1
  6
PHANTOM
 62
           3
100
AcDbLine
 10
-10.000000000001
 20
2408.951609291842
 11
-10.000000000001
 21
1678.951609291842
  0
LINE
  5
377
100
AcDbEntity
  8
1
  6
PHANTOM
 62
           3
100
AcDbLine
 10
-10.000000000001
 20
1678.951609291842
 11
69.999999999999
 21
1678.951609291842
  0
LINE
  5
376
100
AcDbEntity
  8
1
  6
PHANTOM
 62
           3
100
AcDbLine
 10
69.999999999999
 20
1678.951609291842
 11
69.999999999999
 21
2408.951609291842
  0
LINE
  5
375
100
AcDbEntity
  8
1
  6
CONTINUOUS
 62
           2
100
AcDbLine
 10
-20.000000000001
 20
2328.951609291842
 11
-16.000000000001
 21
2328.951609291842
  0
LINE
  5
374
100
AcDbEntity
  8
1
  6
CONTINUOUS
 62
           2
100
AcDbLine
 10
-16.000000000001
 20
2328.951609291842
 11
-16.000000000001
 21
2381.451609291842
  0
LINE
  5
373
100
AcDbEntity
  8
1
  6
CONTINUOUS
 62
           2
100
AcDbLine
 10
-16.000000000001
 20
2381.451609291842
 11
-64.000000000001
 21
2381.451609291842
  0
LINE
  5
372
100
AcDbEntity
  8
1
  6
CONTINUOUS
 62
           2
100
AcDbLine
 10
-64.000000000001
 20
2381.451609291842
 11
-64.000000000001
 21
2328.951609291842
  0
LINE
  5
371
100
AcDbEntity
  8
1
  6
CONTINUOUS
 62
           2
100
AcDbLine
 10
-64.000000000001
 20
2328.951609291842
 11
-60.000000000001
 21
2328.951609291842
  0
LINE
  5
370
100
AcDbEntity
  8
1
  6
CONTINUOUS
 62
           2
100
AcDbLine
 10
-60.000000000001
 20
2268.951609291842
 11
-64.000000000001
 21
2268.951609291842
  0
LINE
  5
36F
100
AcDbEntity
  8
1
  6
CONTINUOUS
 62
           2
100
AcDbLine
 10
-64.000000000001
 20
2268.951609291842
 11
-64.000000000001
 21
2216.451609291842
  0
LINE
  5
36E
100
AcDbEntity
  8
1
  6
CONTINUOUS
 62
           2
100
AcDbLine
 10
-64.000000000001
 20
2216.451609291842
 11
-16.000000000001
 21
2216.451609291842
  0
LINE
  5
36D
100
AcDbEntity
  8
1
  6
CONTINUOUS
 62
           2
100
AcDbLine
 10
-16.000000000001
 20
2216.451609291842
 11
-16.000000000001
 21
2268.951609291842
  0
LINE
  5
36C
100
AcDbEntity
  8
1
  6
CONTINUOUS
 62
           2
100
AcDbLine
 10
-16.000000000001
 20
2268.951609291842
 11
-20.000000000001
 21
2268.951609291842
  0
LINE
  5
36B
100
AcDbEntity
  8
1
  6
CONTINUOUS
 62
           2
100
AcDbLine
 10
-20.000000000001
 20
2348.951609291842
 11
-60.000000000001
 21
2348.951609291842
  0
LINE
  5
36A
100
AcDbEntity
  8
1
  6
CONTINUOUS
 62
           2
100
AcDbLine
 10
-60.000000000001
 20
2348.951609291842
 11
-60.000000000001
 21
2248.951609291842
  0
LINE
  5
369
100
AcDbEntity
  8
1
  6
CONTINUOUS
 62
           2
100
AcDbLine
 10
-60.000000000001
 20
2248.951609291842
 11
-20.000000000001
 21
2248.951609291842
  0
LINE
  5
368
100
AcDbEntity
  8
1
  6
CONTINUOUS
 62
           2
100
AcDbLine
 10
-20.000000000001
 20
2248.951609291842
 11
-20.000000000001
 21
2348.951609291842
  0
LINE
  5
367
100
AcDbEntity
  8
1
  6
CONTINUOUS
 62
           2
100
AcDbLine
 10
-180.000000000001
 20
2328.951609291842
 11
-176.000000000001
 21
2328.951609291842
  0
LINE
  5
366
100
AcDbEntity
  8
1
  6
CONTINUOUS
 62
           2
100
AcDbLine
 10
-176.000000000001
 20
2328.951609291842
 11
-176.000000000001
 21
2381.451609291842
  0
LINE
  5
365
100
AcDbEntity
  8
1
  6
CONTINUOUS
 62
           2
100
AcDbLine
 10
-176.000000000001
 20
2381.451609291842
 11
-224.0
 21
2381.451609291842
  0
LINE
  5
364
100
AcDbEntity
  8
1
  6
CONTINUOUS
 62
           2
100
AcDbLine
 10
-224.0
 20
2381.451609291842
 11
-224.0
 21
2328.951609291842
  0
LINE
  5
363
100
AcDbEntity
  8
1
  6
CONTINUOUS
 62
           2
100
AcDbLine
 10
-224.0
 20
2328.951609291842
 11
-220.0
 21
2328.951609291842
  0
LINE
  5
362
100
AcDbEntity
  8
1
  6
CONTINUOUS
 62
           2
100
AcDbLine
 10
-220.0
 20
2268.951609291842
 11
-224.0
 21
2268.951609291842
  0
LINE
  5
361
100
AcDbEntity
  8
1
  6
CONTINUOUS
 62
           2
100
AcDbLine
 10
-224.0
 20
2268.951609291842
 11
-224.0
 21
2216.451609291842
  0
LINE
  5
360
100
AcDbEntity
  8
1
  6
CONTINUOUS
 62
           2
100
AcDbLine
 10
-224.0
 20
2216.451609291842
 11
-176.000000000001
 21
2216.451609291842
  0
LINE
  5
35F
100
AcDbEntity
  8
1
  6
CONTINUOUS
 62
           2
100
AcDbLine
 10
-176.000000000001
 20
2216.451609291842
 11
-176.000000000001
 21
2268.951609291842
  0
LINE
  5
35E
100
AcDbEntity
  8
1
  6
CONTINUOUS
 62
           2
100
AcDbLine
 10
-176.000000000001
 20
2268.951609291842
 11
-180.000000000001
 21
2268.951609291842
  0
LINE
  5
35D
100
AcDbEntity
  8
1
  6
CONTINUOUS
 62
           2
100
AcDbLine
 10
-180.000000000001
 20
2348.951609291842
 11
-220.000000000001
 21
2348.951609291842
  0
LINE
  5
35C
100
AcDbEntity
  8
1
  6
CONTINUOUS
 62
           2
100
AcDbLine
 10
-220.000000000001
 20
2348.951609291842
 11
-220.000000000001
 21
2248.951609291842
  0
LINE
  5
35B
100
AcDbEntity
  8
1
  6
CONTINUOUS
 62
           2
100
AcDbLine
 10
-220.000000000001
 20
2248.951609291842
 11
-180.000000000001
 21
2248.951609291842
  0
LINE
  5
35A
100
AcDbEntity
  8
1
  6
CONTINUOUS
 62
           2
100
AcDbLine
 10
-180.000000000001
 20
2248.951609291842
 11
-180.000000000001
 21
2348.951609291842
  0
LINE
  5
359
100
AcDbEntity
  8
1
  6
CONTINUOUS
 62
           2
100
AcDbLine
 10
-10.000000000001
 20
2408.951609291842
 11
-230.0
 21
2408.951609291842
  0
LINE
  5
358
100
AcDbEntity
  8
1
  6
CONTINUOUS
 62
           2
100
AcDbLine
 10
-10.000000000001
 20
2188.951609291842
 11
-230.0
 21
2188.951609291842
  0
LINE
  5
357
100
AcDbEntity
  8
1
  6
CONTINUOUS
 62
           2
100
AcDbLine
 10
-10.000000000001
 20
2508.951609291842
 11
-230.0
 21
2508.951609291842
  0
LINE
  5
356
100
AcDbEntity
  8
1
  6
CONTINUOUS
 62
           2
100
AcDbLine
 10
-230.0
 20
2283.951609291842
 11
-230.0
 21
2088.951609291842
  0
LINE
  5
355
100
AcDbEntity
  8
1
  6
CONTINUOUS
 62
           2
100
AcDbLine
 10
-10.000000000001
 20
2313.951609291842
 11
-10.000000000001
 21
2508.951609291842
  0
LINE
  5
354
100
AcDbEntity
  8
1
  6
CONTINUOUS
 62
           2
100
AcDbLine
 10
-500.0
 20
1648.860870673546
 11
-500.0
 21
1923.951609291842
  0
LINE
  5
353
100
AcDbEntity
  8
1
  6
DOT_CENTER
 62
           3
100
AcDbLine
 10
-24.500000000001
 20
2448.951609291842
 11
-10.500000000001
 21
2448.951609291842
  0
LINE
  5
352
100
AcDbEntity
  8
1
  6
DOT_CENTER
 62
           3
100
AcDbLine
 10
-17.500000000001
 20
2441.951609291842
 11
-17.500000000001
 21
2455.951609291842
  0
LINE
  5
351
100
AcDbEntity
  8
1
  6
CONTINUOUS
 62
           2
100
AcDbLine
 10
-10.000000000001
 20
2088.951609291842
 11
-240.0
 21
2088.951609291842
  0
LINE
  5
350
100
AcDbEntity
  8
1
  6
CONTINUOUS
 62
           2
100
AcDbLine
 10
-237.0
 20
1858.951609291842
 11
-260.0
 21
1858.951609291842
  0
LINE
  5
34F
100
AcDbEntity
  8
1
  6
CONTINUOUS
 62
           2
100
AcDbLine
 10
-500.0
 20
1758.951609291842
 11
-260.0
 21
1758.951609291842
  0
LINE
  5
34E
100
AcDbEntity
  8
1
  6
CONTINUOUS
 62
           2
100
AcDbLine
 10
0.0
 20
2548.951609291842
 11
-240.0
 21
2548.951609291842
  0
LINE
  5
34D
100
AcDbEntity
  8
1
  6
CONTINUOUS
 62
           2
100
AcDbLine
 10
-40.000000000001
 20
2508.951609291842
 11
-40.000000000001
 21
2548.951609291842
  0
LINE
  5
34C
100
AcDbEntity
  8
1
  6
CONTINUOUS
 62
           2
100
AcDbLine
 10
-40.000000000001
 20
1683.951609291842
 11
-40.000000000001
 21
1648.951609291842
  0
LINE
  5
34B
100
AcDbEntity
  8
1
  6
CONTINUOUS
 62
           2
100
AcDbLine
 10
-40.000000000001
 20
1648.951609291842
 11
-0.000000000001
 21
1648.951609291842
  0
LINE
  5
34A
100
AcDbEntity
  8
1
  6
CONTINUOUS
 62
           2
100
AcDbLine
 10
-540.0
 20
1648.951609291842
 11
-500.0
 21
1648.951609291842
  0
LINE
  5
349
100
AcDbEntity
  8
1
  6
CONTINUOUS
 62
           2
100
AcDbLine
 10
-540.0
 20
1923.951609291842
 11
-540.0
 21
1648.951609291842
  0
LINE
  5
348
100
AcDbEntity
  8
1
  6
CONTINUOUS
 62
           2
100
AcDbLine
 10
-240.0
 20
2313.951609291842
 11
-220.000000000001
 21
2313.951609291842
  0
LINE
  5
347
100
AcDbEntity
  8
1
  6
CONTINUOUS
 62
           2
100
AcDbLine
 10
-201.0
 20
1728.151609291852
 11
-221.0
 21
1728.151609291852
  0
LINE
  5
346
100
AcDbEntity
  8
1
  6
CONTINUOUS
 62
           2
100
AcDbLine
 10
-176.0
 20
1744.834896348073
 11
-176.0
 21
1889.751609291852
  0
LINE
  5
345
100
AcDbEntity
  8
1
  6
CONTINUOUS
 62
           3
100
AcDbLine
 10
-112.7
 20
1738.756153084623
 11
-190.300000000001
 21
1738.756153084623
  0
LINE
  5
344
100
AcDbEntity
  8
1
  6
CONTINUOUS
 62
           3
100
AcDbLine
 10
-107.7
 20
1671.930746174483
 11
-107.7
 21
1733.756153084623
  0
LINE
  5
343
100
AcDbEntity
  8
1
  6
CONTINUOUS
 62
           3
100
AcDbLine
 10
-190.300000000001
 20
1666.930746174483
 11
-112.7
 21
1666.930746174483
  0
LINE
  5
342
100
AcDbEntity
  8
1
  6
CONTINUOUS
 62
           3
100
AcDbLine
 10
-195.300000000001
 20
1733.756153084623
 11
-195.300000000001
 21
1671.930746174483
  0
LINE
  5
341
100
AcDbEntity
  8
1
  6
CONTINUOUS
 62
           2
100
AcDbLine
 10
-196.0
 20
1663.951584387544
 11
-107.0
 21
1663.951584387544
  0
LINE
  5
340
100
AcDbEntity
  8
1
  6
CONTINUOUS
 62
           2
100
AcDbLine
 10
-201.0
 20
1739.834896348073
 11
-201.0
 21
1668.951584387544
  0
LINE
  5
33F
100
AcDbEntity
  8
1
  6
CONTINUOUS
 62
           2
100
AcDbLine
 10
-107.0
 20
1744.834896348073
 11
-196.0
 21
1744.834896348073
  0
LINE
  5
33E
100
AcDbEntity
  8
1
  6
CONTINUOUS
 62
           2
100
AcDbLine
 10
-102.0
 20
1668.951584387544
 11
-102.0
 21
1739.834896348073
  0
LINE
  5
33D
100
AcDbEntity
  8
1
  6
CONTINUOUS
 62
           3
100
AcDbLine
 10
-232.400000000001
 20
1867.451609291853
 11
-232.400000000001
 21
1750.451609291853
  0
LINE
  5
33C
100
AcDbEntity
  8
1
  6
DOT_CENTER
 62
           3
100
AcDbLine
 10
34.348284023667
 20
1808.951609291853
 11
-247.712544378699
 21
1808.951609291853
  0
LINE
  5
33B
100
AcDbEntity
  8
1
  6
DOT_CENTER
 62
           3
100
AcDbLine
 10
-115.0
 20
1905.984627043334
 11
-115.0
 21
1751.502149387028
  0
LINE
  5
33A
100
AcDbEntity
  8
1
  6
CONTINUOUS
 62
           3
100
AcDbLine
 10
-196.0
 20
1802.101609291853
 11
-176.0
 21
1802.101609291853
  0
LINE
  5
339
100
AcDbEntity
  8
1
  6
CONTINUOUS
 62
           3
100
AcDbLine
 10
-196.0
 20
1815.801609291854
 11
-196.0
 21
1802.101609291853
  0
LINE
  5
338
100
AcDbEntity
  8
1
  6
CONTINUOUS
 62
           3
100
AcDbLine
 10
-176.0
 20
1815.801609291854
 11
-196.0
 21
1815.801609291854
  0
LINE
  5
337
100
AcDbEntity
  8
1
  6
CONTINUOUS
 62
           2
100
AcDbLine
 10
-221.0
 20
1889.751609291852
 11
-221.0
 21
1728.151609291852
  0
LINE
  5
336
100
AcDbEntity
  8
1
  6
CONTINUOUS
 62
           2
100
AcDbLine
 10
-232.400000000001
 20
1750.451609291853
 11
-221.0
 21
1735.951609291853
  0
LINE
  5
335
100
AcDbEntity
  8
1
  6
CONTINUOUS
 62
           2
100
AcDbLine
 10
-221.0
 20
1881.951609291853
 11
-232.400000000001
 21
1867.451609291853
  0
LINE
  5
334
100
AcDbEntity
  8
1
  6
CONTINUOUS
 62
           2
100
AcDbLine
 10
-40.800000000001
 20
1881.951609291853
 11
-40.800000000001
 21
1735.951609291853
  0
LINE
  5
333
100
AcDbEntity
  8
1
  6
CONTINUOUS
 62
           2
100
AcDbLine
 10
-237.0
 20
1750.451609291853
 11
-232.400000000001
 21
1750.451609291853
  0
LINE
  5
332
100
AcDbEntity
  8
1
  6
CONTINUOUS
 62
           2
100
AcDbLine
 10
-237.0
 20
1867.451609291853
 11
-237.0
 21
1750.451609291853
  0
LINE
  5
331
100
AcDbEntity
  8
1
  6
CONTINUOUS
 62
           2
100
AcDbLine
 10
-232.400000000001
 20
1867.451609291853
 11
-237.0
 21
1867.451609291853
  0
LINE
  5
330
100
AcDbEntity
  8
1
  6
CONTINUOUS
 62
           2
100
AcDbLine
 10
-102.0
 20
1735.951609291853
 11
-29.1
 21
1735.951609291853
  0
LINE
  5
32F
100
AcDbEntity
  8
1
  6
CONTINUOUS
 62
           2
100
AcDbLine
 10
-29.1
 20
1881.951609291853
 11
-176.0
 21
1881.951609291853
  0
LINE
  5
32E
100
AcDbEntity
  8
1
  6
CONTINUOUS
 62
           2
100
AcDbLine
 10
-29.1
 20
1735.951609291853
 11
-29.1
 21
1881.951609291853
  0
LINE
  5
32D
100
AcDbEntity
  8
1
  6
CONTINUOUS
 62
           2
100
AcDbLine
 10
-25.7
 20
1751.951609291853
 11
-25.7
 21
1865.951609291853
  0
LINE
  5
32C
100
AcDbEntity
  8
1
  6
CONTINUOUS
 62
           2
100
AcDbLine
 10
-29.1
 20
1751.951609291853
 11
-25.7
 21
1751.951609291853
  0
LINE
  5
32B
100
AcDbEntity
  8
1
  6
CONTINUOUS
 62
           2
100
AcDbLine
 10
-25.7
 20
1865.951609291853
 11
-29.1
 21
1865.951609291853
  0
LINE
  5
32A
100
AcDbEntity
  8
1
  6
CONTINUOUS
 62
           2
100
AcDbLine
 10
-24.655976331362
 20
1780.951609291853
 11
-20.0
 21
1780.951609291853
  0
LINE
  5
329
100
AcDbEntity
  8
1
  6
CONTINUOUS
 62
           2
100
AcDbLine
 10
-20.0
 20
1836.951609291853
 11
-25.7
 21
1836.951609291853
  0
LINE
  5
328
100
AcDbEntity
  8
1
  6
CONTINUOUS
 62
           2
100
AcDbLine
 10
-20.0
 20
1780.951609291853
 11
-20.0
 21
1836.951609291853
  0
LINE
  5
327
100
AcDbEntity
  8
1
  6
CONTINUOUS
 62
           2
100
AcDbLine
 10
-15.0
 20
1797.951609291853
 11
-20.0
 21
1797.951609291853
  0
LINE
  5
326
100
AcDbEntity
  8
1
  6
CONTINUOUS
 62
           2
100
AcDbLine
 10
-20.0
 20
1819.951609291853
 11
-15.0
 21
1819.951609291853
  0
LINE
  5
325
100
AcDbEntity
  8
1
  6
CONTINUOUS
 62
           2
100
AcDbLine
 10
-15.0
 20
1818.451609291853
 11
25.0
 21
1818.451609291853
  0
LINE
  5
324
100
AcDbEntity
  8
1
  6
CONTINUOUS
 62
           2
100
AcDbLine
 10
25.0
 20
1799.451609291853
 11
25.0
 21
1818.451609291853
  0
LINE
  5
323
100
AcDbEntity
  8
1
  6
DOT_CENTER
 62
           3
100
AcDbLine
 10
-750.0
 20
2263.951609291842
 11
-750.0
 21
2333.951609291842
  0
LINE
  5
322
100
AcDbEntity
  8
1
  6
DOT_CENTER
 62
           3
100
AcDbLine
 10
-785.0
 20
2298.951609291842
 11
-715.0
 21
2298.951609291842
  0
LINE
  5
321
100
AcDbEntity
  8
1
  6
CONTINUOUS
 62
           2
100
AcDbLine
 10
-600.0
 20
2588.951609291842
 11
-240.0
 21
2588.951609291842
  0
LINE
  5
320
100
AcDbEntity
  8
1
  6
CONTINUOUS
 62
           2
100
AcDbLine
 10
-240.0
 20
2588.951609291842
 11
-240.0
 21
1923.951609291842
  0
LINE
  5
31F
100
AcDbEntity
  8
1
  6
CONTINUOUS
 62
           2
100
AcDbLine
 10
-600.0
 20
-1019.42570537281
 11
-600.0
 21
-947.15956011435
  0
LINE
  5
31E
100
AcDbEntity
  8
1
  6
CONTINUOUS
 62
           2
100
AcDbLine
 10
-196.0
 20
-1371.759560114351
 11
-176.0
 21
-1371.759560114351
  0
LINE
  5
31D
100
AcDbEntity
  8
1
  6
CONTINUOUS
 62
           2
100
AcDbLine
 10
-196.0
 20
-1376.359560114351
 11
-196.0
 21
-1371.759560114351
  0
LINE
  5
31C
100
AcDbEntity
  8
1
  6
CONTINUOUS
 62
           2
100
AcDbLine
 10
25.0
 20
-1466.65956011435
 11
25.0
 21
-1445.645681925691
  0
LINE
  5
31B
100
AcDbEntity
  8
1
  6
CONTINUOUS
 62
           2
100
AcDbLine
 10
25.0
 20
-1445.645681925691
 11
-7.0
 21
-1445.645681925691
  0
LINE
  5
31A
100
AcDbEntity
  8
1
  6
CONTINUOUS
 62
           2
100
AcDbLine
 10
-7.0
 20
-1448.145681925691
 11
25.0
 21
-1448.145681925691
  0
LINE
  5
319
100
AcDbEntity
  8
1
  6
CONTINUOUS
 62
           2
100
AcDbLine
 10
-7.0
 20
-1447.65956011435
 11
-15.0
 21
-1447.65956011435
  0
LINE
  5
318
100
AcDbEntity
  8
1
  6
CONTINUOUS
 62
           2
100
AcDbLine
 10
25.0
 20
-1466.65956011435
 11
-15.0
 21
-1466.65956011435
  0
LINE
  5
317
100
AcDbEntity
  8
1
  6
CONTINUOUS
 62
           2
100
AcDbLine
 10
-20.0
 20
-1446.15956011435
 11
-15.0
 21
-1446.15956011435
  0
LINE
  5
316
100
AcDbEntity
  8
1
  6
CONTINUOUS
 62
           2
100
AcDbLine
 10
-15.0
 20
-1446.15956011435
 11
-15.0
 21
-1468.15956011435
  0
LINE
  5
315
100
AcDbEntity
  8
1
  6
CONTINUOUS
 62
           2
100
AcDbLine
 10
-15.0
 20
-1468.15956011435
 11
-20.0
 21
-1468.15956011435
  0
LINE
  5
314
100
AcDbEntity
  8
1
  6
CONTINUOUS
 62
           2
100
AcDbLine
 10
-20.0
 20
-1485.15956011435
 11
-20.0
 21
-1429.15956011435
  0
LINE
  5
313
100
AcDbEntity
  8
1
  6
CONTINUOUS
 62
           2
100
AcDbLine
 10
-20.0
 20
-1429.15956011435
 11
-25.7
 21
-1429.15956011435
  0
LINE
  5
312
100
AcDbEntity
  8
1
  6
CONTINUOUS
 62
           2
100
AcDbLine
 10
-25.7
 20
-1485.15956011435
 11
-20.0
 21
-1485.15956011435
  0
LINE
  5
311
100
AcDbEntity
  8
1
  6
CONTINUOUS
 62
           2
100
AcDbLine
 10
-25.7
 20
-1400.15956011435
 11
-29.099999999999
 21
-1400.15956011435
  0
LINE
  5
310
100
AcDbEntity
  8
1
  6
CONTINUOUS
 62
           2
100
AcDbLine
 10
-29.099999999999
 20
-1514.15956011435
 11
-25.7
 21
-1514.15956011435
  0
LINE
  5
30F
100
AcDbEntity
  8
1
  6
CONTINUOUS
 62
           2
100
AcDbLine
 10
-25.7
 20
-1514.15956011435
 11
-25.7
 21
-1400.15956011435
  0
LINE
  5
30E
100
AcDbEntity
  8
1
  6
CONTINUOUS
 62
           2
100
AcDbLine
 10
-29.099999999999
 20
-1530.15956011435
 11
-29.099999999999
 21
-1384.15956011435
  0
LINE
  5
30D
100
AcDbEntity
  8
1
  6
CONTINUOUS
 62
           2
100
AcDbLine
 10
-40.800000000001
 20
-1530.15956011435
 11
-29.099999999999
 21
-1530.15956011435
  0
LINE
  5
30C
100
AcDbEntity
  8
1
  6
CONTINUOUS
 62
           2
100
AcDbLine
 10
-232.4
 20
-1398.65956011435
 11
-237.0
 21
-1398.65956011435
  0
LINE
  5
30B
100
AcDbEntity
  8
1
  6
CONTINUOUS
 62
           2
100
AcDbLine
 10
-237.0
 20
-1398.65956011435
 11
-237.0
 21
-1515.65956011435
  0
LINE
  5
30A
100
AcDbEntity
  8
1
  6
CONTINUOUS
 62
           2
100
AcDbLine
 10
-237.0
 20
-1515.65956011435
 11
-232.4
 21
-1515.65956011435
  0
LINE
  5
309
100
AcDbEntity
  8
1
  6
CONTINUOUS
 62
           2
100
AcDbLine
 10
-40.800000000001
 20
-1384.15956011435
 11
-40.800000000001
 21
-1530.15956011435
  0
LINE
  5
308
100
AcDbEntity
  8
1
  6
CONTINUOUS
 62
           2
100
AcDbLine
 10
-221.0
 20
-1384.15956011435
 11
-232.4
 21
-1398.65956011435
  0
LINE
  5
307
100
AcDbEntity
  8
1
  6
CONTINUOUS
 62
           2
100
AcDbLine
 10
-232.4
 20
-1515.65956011435
 11
-221.0
 21
-1530.15956011435
  0
LINE
  5
306
100
AcDbEntity
  8
1
  6
CONTINUOUS
 62
           2
100
AcDbLine
 10
-221.0
 20
-1376.359560114351
 11
-176.0
 21
-1376.359560114351
  0
LINE
  5
305
100
AcDbEntity
  8
1
  6
CONTINUOUS
 62
           2
100
AcDbLine
 10
-176.0
 20
-1530.15956011435
 11
-176.0
 21
-1479.85795434493
  0
LINE
  5
304
100
AcDbEntity
  8
1
  6
CONTINUOUS
 62
           2
100
AcDbLine
 10
-176.0
 20
-1530.15956011435
 11
-221.0
 21
-1530.15956011435
  0
LINE
  5
303
100
AcDbEntity
  8
1
  6
CONTINUOUS
 62
           2
100
AcDbLine
 10
-221.0
 20
-1376.359560114351
 11
-221.0
 21
-1530.15956011435
  0
LINE
  5
302
100
AcDbEntity
  8
1
  6
CONTINUOUS
 62
           2
100
AcDbLine
 10
-29.099999999999
 20
-1384.15956011435
 11
-176.0
 21
-1384.15956011435
  0
LINE
  5
301
100
AcDbEntity
  8
1
  6
CONTINUOUS
 62
           3
100
AcDbLine
 10
-176.0
 20
-1487.95956011435
 11
-196.0
 21
-1487.95956011435
  0
LINE
  5
300
100
AcDbEntity
  8
1
  6
CONTINUOUS
 62
           3
100
AcDbLine
 10
-196.0
 20
-1487.95956011435
 11
-196.0
 21
-1501.65956011435
  0
LINE
  5
2FF
100
AcDbEntity
  8
1
  6
CONTINUOUS
 62
           3
100
AcDbLine
 10
-196.0
 20
-1501.65956011435
 11
-176.0
 21
-1501.65956011435
  0
LINE
  5
2FE
100
AcDbEntity
  8
1
  6
DOT_CENTER
 62
           3
100
AcDbLine
 10
-115.0
 20
-1360.12654236287
 11
-115.0
 21
-1555.89790330962
  0
LINE
  5
2FD
100
AcDbEntity
  8
1
  6
DOT_CENTER
 62
           3
100
AcDbLine
 10
34.348284023668
 20
-1457.15956011435
 11
-247.712544378698
 21
-1457.15956011435
  0
LINE
  5
2FC
100
AcDbEntity
  8
1
  6
CONTINUOUS
 62
           3
100
AcDbLine
 10
-196.0
 20
-1390.95956011435
 11
-107.0
 21
-1390.95956011435
  0
LINE
  5
2FB
100
AcDbEntity
  8
1
  6
CONTINUOUS
 62
           3
100
AcDbLine
 10
-201.0
 20
-1469.157954344931
 11
-201.0
 21
-1395.95956011435
  0
LINE
  5
2FA
100
AcDbEntity
  8
1
  6
CONTINUOUS
 62
           3
100
AcDbLine
 10
-107.0
 20
-1474.157954344931
 11
-196.0
 21
-1474.157954344931
  0
LINE
  5
2F9
100
AcDbEntity
  8
1
  6
CONTINUOUS
 62
           3
100
AcDbLine
 10
-102.0
 20
-1469.157954344931
 11
-102.0
 21
-1395.95956011435
  0
LINE
  5
2F8
100
AcDbEntity
  8
1
  6
CONTINUOUS
 62
           3
100
AcDbLine
 10
-107.7
 20
-1400.65956011435
 11
-107.7
 21
-1464.45795434493
  0
LINE
  5
2F7
100
AcDbEntity
  8
1
  6
CONTINUOUS
 62
           3
100
AcDbLine
 10
-111.7
 20
-1396.65956011435
 11
-191.300000000001
 21
-1396.65956011435
  0
LINE
  5
2F6
100
AcDbEntity
  8
1
  6
CONTINUOUS
 62
           3
100
AcDbLine
 10
-195.300000000001
 20
-1400.65956011435
 11
-195.300000000001
 21
-1464.45795434493
  0
LINE
  5
2F5
100
AcDbEntity
  8
1
  6
CONTINUOUS
 62
           3
100
AcDbLine
 10
-192.866042620195
 20
-1479.85795434493
 11
-110.134072819924
 21
-1479.85795434493
  0
LINE
  5
2F4
100
AcDbEntity
  8
1
  6
CONTINUOUS
 62
           3
100
AcDbLine
 10
-200.807539899121
 20
-1470.53183939047
 11
-199.598055609997
 21
-1474.7762872423
  0
LINE
  5
2F3
100
AcDbEntity
  8
1
  6
CONTINUOUS
 62
           3
100
AcDbLine
 10
-102.204003012443
 20
-1470.571606669711
 11
-103.402019526054
 21
-1474.776145797441
  0
LINE
  5
2F2
100
AcDbEntity
  8
1
  6
CONTINUOUS
 62
           3
100
AcDbLine
 10
-111.7
 20
-1468.45795434493
 11
-148.800000000001
 21
-1468.45795434493
  0
LINE
  5
2F1
100
AcDbEntity
  8
1
  6
CONTINUOUS
 62
           3
100
AcDbLine
 10
-191.300000000001
 20
-1468.45795434493
 11
-160.2
 21
-1468.45795434493
  0
LINE
  5
2F0
100
AcDbEntity
  8
1
  6
CONTINUOUS
 62
           3
100
AcDbLine
 10
-232.4
 20
-1398.65956011435
 11
-232.4
 21
-1515.65956011435
  0
LINE
  5
2EF
100
AcDbEntity
  8
1
  6
CONTINUOUS
 62
           2
100
AcDbLine
 10
-141.726096917891
 20
-1522.20956011435
 11
-170.057448889264
 21
-1523.99252751343
  0
LINE
  5
2EE
100
AcDbEntity
  8
1
  6
CONTINUOUS
 62
           2
100
AcDbLine
 10
-176.506096917892
 20
-1533.95956011435
 11
-174.522301892967
 21
-1527.51222628335
  0
LINE
  5
2ED
100
AcDbEntity
  8
1
  6
CONTINUOUS
 62
           2
100
AcDbLine
 10
-177.506096917892
 20
-1536.15956011435
 11
-177.506096917892
 21
-1534.95956011435
  0
LINE
  5
2EC
100
AcDbEntity
  8
1
  6
CONTINUOUS
 62
           2
100
AcDbLine
 10
-143.055849147317
 20
-1535.889312343781
 11
-143.997177833163
 21
-1536.83064102963
  0
LINE
  5
2EB
100
AcDbEntity
  8
1
  6
CONTINUOUS
 62
           2
100
AcDbLine
 10
-141.115543798571
 20
-1515.035560962351
 11
-142.492428789483
 21
-1531.21395960556
  0
LINE
  5
2EA
100
AcDbEntity
  8
1
  6
CONTINUOUS
 62
           2
100
AcDbLine
 10
-93.878640073241
 20
-1510.45956011435
 11
-136.133553762542
 21
-1510.45956011435
  0
LINE
  5
2E9
100
AcDbEntity
  8
1
  6
CONTINUOUS
 62
           2
100
AcDbLine
 10
-88.89665003721
 20
-1515.035560962351
 11
-87.5197650463
 21
-1531.21395960556
  0
LINE
  5
2E8
100
AcDbEntity
  8
1
  6
CONTINUOUS
 62
           2
100
AcDbLine
 10
-176.506096917892
 20
-1533.95956011435
 11
-53.506096917892
 21
-1533.95956011435
  0
LINE
  5
2E7
100
AcDbEntity
  8
1
  6
CONTINUOUS
 62
           2
100
AcDbLine
 10
-87.751258748435
 20
-1535.55956011435
 11
-142.261768232781
 21
-1535.55956011435
  0
LINE
  5
2E6
100
AcDbEntity
  8
1
  6
CONTINUOUS
 62
           2
100
AcDbLine
 10
-86.015016002618
 20
-1536.83064102963
 11
-86.957177833163
 21
-1535.88847919908
  0
LINE
  5
2E5
100
AcDbEntity
  8
1
  6
CONTINUOUS
 62
           2
100
AcDbLine
 10
-53.506096917892
 20
-1533.95956011435
 11
-55.489891942813
 21
-1527.51222628335
  0
LINE
  5
2E4
100
AcDbEntity
  8
1
  6
CONTINUOUS
 62
           2
100
AcDbLine
 10
-52.506096917892
 20
-1534.95956011435
 11
-52.506096917892
 21
-1536.15956011435
  0
LINE
  5
2E3
100
AcDbEntity
  8
1
  6
CONTINUOUS
 62
           2
100
AcDbLine
 10
-88.286096917891
 20
-1522.20956011435
 11
-59.954744946518
 21
-1523.99252751343
  0
LINE
  5
2E2
100
AcDbEntity
  8
1
  6
CONTINUOUS
 62
           2
100
AcDbLine
 10
-40.800000000001
 20
-1530.15956011435
 11
-54.675327687121
 21
-1530.15956011435
  0
LINE
  5
2E1
100
AcDbEntity
  8
1
  6
CONTINUOUS
 62
           2
100
AcDbLine
 10
-176.0
 20
-1530.15956011435
 11
-175.336866148659
 21
-1530.15956011435
  0
LINE
  5
2E0
100
AcDbEntity
  8
1
  6
CONTINUOUS
 62
           3
100
AcDbLine
 10
-29.099999999999
 20
-1481.141273809571
 11
-34.571615812888
 21
-1481.141273809571
  0
LINE
  5
2DF
100
AcDbEntity
  8
1
  6
CONTINUOUS
 62
           3
100
AcDbLine
 10
-34.571615812888
 20
-1481.141273809571
 11
-34.571615812888
 21
-1504.879741242821
  0
LINE
  5
2DE
100
AcDbEntity
  8
1
  6
CONTINUOUS
 62
           3
100
AcDbLine
 10
-34.571615812888
 20
-1504.879741242821
 11
-29.099999999999
 21
-1504.879741242821
  0
LINE
  5
2DD
100
AcDbEntity
  8
1
  6
CONTINUOUS
 62
           2
100
AcDbLine
 10
-176.0
 20
-1390.95956011435
 11
-176.0
 21
-1371.759560114351
  0
LINE
  5
2DC
100
AcDbEntity
  8
1
  6
CONTINUOUS
 62
           2
100
AcDbLine
 10
-505.0
 20
-1572.15956011435
 11
-525.0
 21
-1572.15956011435
  0
LINE
  5
2DB
100
AcDbEntity
  8
1
  6
CONTINUOUS
 62
           2
100
AcDbLine
 10
-500.0
 20
-1642.15956011435
 11
-500.0
 21
-1577.15956011435
  0
LINE
  5
2DA
100
AcDbEntity
  8
1
  6
CONTINUOUS
 62
           3
100
AcDbLine
 10
-505.0
 20
-1645.55956011435
 11
-524.49572524339
 21
-1645.55956011435
  0
LINE
  5
2D9
100
AcDbEntity
  8
1
  6
CONTINUOUS
 62
           3
100
AcDbLine
 10
-501.599999999999
 20
-1577.15956011435
 11
-501.599999999999
 21
-1642.15956011435
  0
LINE
  5
2D8
100
AcDbEntity
  8
1
  6
CONTINUOUS
 62
           2
100
AcDbLine
 10
0.0
 20
-1572.15956011435
 11
-35.0
 21
-1572.15956011435
  0
LINE
  5
2D7
100
AcDbEntity
  8
1
  6
CONTINUOUS
 62
           2
100
AcDbLine
 10
-40.0
 20
-1577.15956011435
 11
-40.0
 21
-1642.15956011435
  0
LINE
  5
2D6
100
AcDbEntity
  8
1
  6
CONTINUOUS
 62
           2
100
AcDbLine
 10
-35.0
 20
-1647.15956011435
 11
0.0
 21
-1647.15956011435
  0
LINE
  5
2D5
100
AcDbEntity
  8
1
  6
CONTINUOUS
 62
           3
100
AcDbLine
 10
0.0
 20
-1647.15956011435
 11
0.0
 21
-1645.55956011435
  0
LINE
  5
2D4
100
AcDbEntity
  8
1
  6
CONTINUOUS
 62
           3
100
AcDbLine
 10
0.0
 20
-1645.55956011435
 11
-35.0
 21
-1645.55956011435
  0
LINE
  5
2D3
100
AcDbEntity
  8
1
  6
CONTINUOUS
 62
           3
100
AcDbLine
 10
-38.4
 20
-1642.15956011435
 11
-38.4
 21
-1577.15956011435
  0
LINE
  5
2D2
100
AcDbEntity
  8
1
  6
CONTINUOUS
 62
           3
100
AcDbLine
 10
-35.0
 20
-1573.759560114351
 11
0.0
 21
-1573.759560114351
  0
LINE
  5
2D1
100
AcDbEntity
  8
1
  6
CONTINUOUS
 62
           3
100
AcDbLine
 10
0.0
 20
-1573.759560114351
 11
0.0
 21
-1572.15956011435
  0
LINE
  5
2D0
100
AcDbEntity
  8
1
  6
CONTINUOUS
 62
           2
100
AcDbLine
 10
-35.0
 20
-1572.15956011435
 11
-505.0
 21
-1572.15956011435
  0
LINE
  5
2CF
100
AcDbEntity
  8
1
  6
CONTINUOUS
 62
           2
100
AcDbLine
 10
-35.0
 20
-1647.15956011435
 11
-505.0
 21
-1647.15956011435
  0
LINE
  5
2CE
100
AcDbEntity
  8
1
  6
DOT_CENTER
 62
           3
100
AcDbLine
 10
-587.98193092465
 20
-1280.15956011435
 11
52.088557391071
 21
-1282.15956011435
  0
LINE
  5
2CD
100
AcDbEntity
  8
1
  6
CONTINUOUS
 62
           2
100
AcDbLine
 10
-10.0
 20
-1325.15956011435
 11
-230.0
 21
-1325.15956011435
  0
LINE
  5
2CC
100
AcDbEntity
  8
1
  6
CONTINUOUS
 62
           2
100
AcDbLine
 10
-176.0
 20
-1305.15956011435
 11
-176.0
 21
-1325.15956011435
  0
LINE
  5
2CB
100
AcDbEntity
  8
1
  6
CONTINUOUS
 62
           2
100
AcDbLine
 10
-224.0
 20
-1305.15956011435
 11
-176.0
 21
-1305.15956011435
  0
LINE
  5
2CA
100
AcDbEntity
  8
1
  6
CONTINUOUS
 62
           2
100
AcDbLine
 10
-224.0
 20
-1325.15956011435
 11
-224.0
 21
-1305.15956011435
  0
LINE
  5
2C9
100
AcDbEntity
  8
1
  6
CONTINUOUS
 62
           2
100
AcDbLine
 10
-185.0
 20
-1241.15956011435
 11
-180.0
 21
-1305.15956011435
  0
LINE
  5
2C8
100
AcDbEntity
  8
1
  6
CONTINUOUS
 62
           2
100
AcDbLine
 10
-215.0
 20
-1241.15956011435
 11
-185.0
 21
-1241.15956011435
  0
LINE
  5
2C7
100
AcDbEntity
  8
1
  6
CONTINUOUS
 62
           2
100
AcDbLine
 10
-220.0
 20
-1305.15956011435
 11
-215.0
 21
-1241.15956011435
  0
LINE
  5
2C6
100
AcDbEntity
  8
1
  6
CONTINUOUS
 62
           2
100
AcDbLine
 10
-16.0
 20
-1305.15956011435
 11
-16.0
 21
-1325.15956011435
  0
LINE
  5
2C5
100
AcDbEntity
  8
1
  6
CONTINUOUS
 62
           2
100
AcDbLine
 10
-64.0
 20
-1305.15956011435
 11
-16.0
 21
-1305.15956011435
  0
LINE
  5
2C4
100
AcDbEntity
  8
1
  6
CONTINUOUS
 62
           2
100
AcDbLine
 10
-64.0
 20
-1325.15956011435
 11
-64.0
 21
-1305.15956011435
  0
LINE
  5
2C3
100
AcDbEntity
  8
1
  6
CONTINUOUS
 62
           2
100
AcDbLine
 10
-25.0
 20
-1241.15956011435
 11
-20.0
 21
-1305.15956011435
  0
LINE
  5
2C2
100
AcDbEntity
  8
1
  6
CONTINUOUS
 62
           2
100
AcDbLine
 10
-55.0
 20
-1241.15956011435
 11
-25.0
 21
-1241.15956011435
  0
LINE
  5
2C1
100
AcDbEntity
  8
1
  6
CONTINUOUS
 62
           2
100
AcDbLine
 10
-60.0
 20
-1305.15956011435
 11
-55.0
 21
-1241.15956011435
  0
LINE
  5
2C0
100
AcDbEntity
  8
1
  6
CONTINUOUS
 62
           2
100
AcDbLine
 10
-182.96875
 20
-1267.15956011435
 11
-57.03125
 21
-1267.15956011435
  0
LINE
  5
2BF
100
AcDbEntity
  8
1
  6
CONTINUOUS
 62
           2
100
AcDbLine
 10
-220.0
 20
-1297.15956011435
 11
-240.0
 21
-1297.15956011435
  0
LINE
  5
2BE
100
AcDbEntity
  8
1
  6
CONTINUOUS
 62
           2
100
AcDbLine
 10
-59.375
 20
-1297.15956011435
 11
-180.625
 21
-1297.15956011435
  0
LINE
  5
2BD
100
AcDbEntity
  8
1
  6
CONTINUOUS
 62
           2
100
AcDbLine
 10
-230.0
 20
-1395.606928535403
 11
-230.0
 21
-1325.15956011435
  0
LINE
  5
2BC
100
AcDbEntity
  8
1
  6
CONTINUOUS
 62
           2
100
AcDbLine
 10
-230.0
 20
-1518.712191693301
 11
-230.0
 21
-1572.15956011435
  0
LINE
  5
2BB
100
AcDbEntity
  8
1
  6
CONTINUOUS
 62
           2
100
AcDbLine
 10
-10.0
 20
-1447.65956011435
 11
-10.0
 21
-1325.15956011435
  0
LINE
  5
2BA
100
AcDbEntity
  8
1
  6
CONTINUOUS
 62
           2
100
AcDbLine
 10
-10.0
 20
-1572.15956011435
 11
-10.0
 21
-1466.65956011435
  0
LINE
  5
2B9
100
AcDbEntity
  8
1
  6
CONTINUOUS
 62
           2
100
AcDbLine
 10
-215.0
 20
-1537.15956011435
 11
-215.0
 21
-1572.15956011435
  0
LINE
  5
2B8
100
AcDbEntity
  8
1
  6
CONTINUOUS
 62
           2
100
AcDbLine
 10
-15.0
 20
-1572.15956011435
 11
-15.0
 21
-1537.15956011435
  0
LINE
  5
2B7
100
AcDbEntity
  8
1
  6
PHANTOM
 62
           3
100
AcDbLine
 10
30.0
 20
-1232.15956011435
 11
0.0
 21
-1232.15956011435
  0
LINE
  5
2B6
100
AcDbEntity
  8
1
  6
PHANTOM
 62
           3
100
AcDbLine
 10
30.0
 20
-1332.15956011435
 11
30.0
 21
-1232.15956011435
  0
LINE
  5
2B5
100
AcDbEntity
  8
1
  6
PHANTOM
 62
           3
100
AcDbLine
 10
0.0
 20
-1332.15956011435
 11
30.0
 21
-1332.15956011435
  0
LINE
  5
2B4
100
AcDbEntity
  8
1
  6
PHANTOM
 62
           3
100
AcDbLine
 10
0.0
 20
-1232.15956011435
 11
0.0
 21
-1332.15956011435
  0
LINE
  5
2B3
100
AcDbEntity
  8
1
  6
PHANTOM
 62
           3
100
AcDbLine
 10
0.0
 20
-1375.15956011435
 11
30.0
 21
-1375.15956011435
  0
LINE
  5
2B2
100
AcDbEntity
  8
1
  6
PHANTOM
 62
           3
100
AcDbLine
 10
0.0
 20
-1539.15956011435
 11
0.0
 21
-1375.15956011435
  0
LINE
  5
2B1
100
AcDbEntity
  8
1
  6
PHANTOM
 62
           3
100
AcDbLine
 10
30.0
 20
-1539.15956011435
 11
0.0
 21
-1539.15956011435
  0
LINE
  5
2B0
100
AcDbEntity
  8
1
  6
PHANTOM
 62
           3
100
AcDbLine
 10
30.0
 20
-1375.15956011435
 11
30.0
 21
-1539.15956011435
  0
LINE
  5
2AF
100
AcDbEntity
  8
1
  6
DOT_CENTER
 62
           3
100
AcDbLine
 10
10.0
 20
-1539.15956011435
 11
10.0
 21
-1232.15956011435
  0
LINE
  5
2AE
100
AcDbEntity
  8
1
  6
DOT_CENTER
 62
           3
100
AcDbLine
 10
20.0
 20
-1232.15956011435
 11
20.0
 21
-1539.15956011435
  0
LINE
  5
2AD
100
AcDbEntity
  8
1
  6
CONTINUOUS
 62
           2
100
AcDbLine
 10
30.0
 20
-1267.15956011435
 11
-22.96875
 21
-1267.15956011435
  0
LINE
  5
2AC
100
AcDbEntity
  8
1
  6
CONTINUOUS
 62
           2
100
AcDbLine
 10
30.0
 20
-1297.15956011435
 11
30.0
 21
-1267.15956011435
  0
LINE
  5
2AB
100
AcDbEntity
  8
1
  6
CONTINUOUS
 62
           2
100
AcDbLine
 10
-20.625
 20
-1297.15956011435
 11
30.0
 21
-1297.15956011435
  0
LINE
  5
2AA
100
AcDbEntity
  8
1
  6
PHANTOM
 62
           3
100
AcDbLine
 10
70.0
 20
-1572.15956011435
 11
0.0
 21
-1572.15956011435
  0
LINE
  5
2A9
100
AcDbEntity
  8
1
  6
PHANTOM
 62
           3
100
AcDbLine
 10
70.0
 20
-1182.15956011435
 11
70.0
 21
-1572.15956011435
  0
LINE
  5
2A8
100
AcDbEntity
  8
1
  6
PHANTOM
 62
           3
100
AcDbLine
 10
-10.0
 20
-1182.15956011435
 11
70.0
 21
-1182.15956011435
  0
LINE
  5
2A7
100
AcDbEntity
  8
1
  6
PHANTOM
 62
           3
100
AcDbLine
 10
-10.0
 20
-1325.15956011435
 11
-10.0
 21
-1182.15956011435
  0
LINE
  5
2A6
100
AcDbEntity
  8
1
  6
CONTINUOUS
 62
           2
100
AcDbLine
 10
-240.0
 20
-1267.15956011435
 11
-217.03125
 21
-1267.15956011435
  0
LINE
  5
2A5
100
AcDbEntity
  8
1
  6
CONTINUOUS
 62
           2
100
AcDbLine
 10
0.0
 20
-1647.15956011435
 11
-500.0
 21
-1647.15956011435
  0
LINE
  5
2A4
100
AcDbEntity
  8
1
  6
CONTINUOUS
 62
           2
100
AcDbLine
 10
0.0
 20
-1647.15956011435
 11
-500.0
 21
-1647.15956011435
  0
LINE
  5
2A3
100
AcDbEntity
  8
1
  6
CONTINUOUS
 62
           2
100
AcDbLine
 10
0.0
 20
-1647.15956011435
 11
-500.0
 21
-1647.15956011435
  0
LINE
  5
2A2
100
AcDbEntity
  8
1
  6
CONTINUOUS
 62
           2
100
AcDbLine
 10
-240.0
 20
-947.15956011435
 11
-240.0
 21
-1572.15956011435
  0
LINE
  5
2A1
100
AcDbEntity
  8
1
  6
DOT_CENTER
 62
           3
100
AcDbLine
 10
2723.16128701684
 20
-1521.274312379051
 11
2723.16128701684
 21
-1778.988639622251
  0
LINE
  5
2A0
100
AcDbEntity
  8
1
  6
CONTINUOUS
 62
           3
100
AcDbLine
 10
3501.661287016838
 20
-957.159560114347
 11
3289.661287016839
 21
-957.159560114347
  0
LINE
  5
29F
100
AcDbEntity
  8
1
  6
CONTINUOUS
 62
           2
100
AcDbLine
 10
3268.661287016839
 20
-957.159560114347
 11
3289.661287016839
 21
-957.159560114347
  0
LINE
  5
29E
100
AcDbEntity
  8
1
  6
CONTINUOUS
 62
           2
100
AcDbLine
 10
3292.661287016839
 20
-954.159560114347
 11
3292.661287016839
 21
-933.159560114347
  0
LINE
  5
29D
100
AcDbEntity
  8
1
  6
CONTINUOUS
 62
           2
100
AcDbLine
 10
3295.661287016839
 20
-930.159560114347
 11
3495.661287016838
 21
-930.159560114347
  0
LINE
  5
29C
100
AcDbEntity
  8
1
  6
CONTINUOUS
 62
           2
100
AcDbLine
 10
3498.661287016838
 20
-933.159560114347
 11
3498.661287016838
 21
-954.159560114347
  0
LINE
  5
29B
100
AcDbEntity
  8
1
  6
CONTINUOUS
 62
           2
100
AcDbLine
 10
3501.661287016838
 20
-957.159560114347
 11
3522.661287016838
 21
-957.159560114347
  0
LINE
  5
29A
100
AcDbEntity
  8
1
  6
CONTINUOUS
 62
           2
100
AcDbLine
 10
3495.661287016838
 20
-990.159560114347
 11
3495.661287016838
 21
-1125.159560114349
  0
LINE
  5
299
100
AcDbEntity
  8
1
  6
CONTINUOUS
 62
           3
100
AcDbLine
 10
3289.661287016839
 20
-963.159560114347
 11
3501.661287016838
 21
-963.159560114347
  0
LINE
  5
298
100
AcDbEntity
  8
1
  6
CONTINUOUS
 62
           2
100
AcDbLine
 10
3265.661287016839
 20
-960.159560114347
 11
3295.661287016839
 21
-960.159560114347
  0
LINE
  5
297
100
AcDbEntity
  8
1
  6
CONTINUOUS
 62
           2
100
AcDbLine
 10
3289.661287016839
 20
-963.159560114347
 11
3268.661287016839
 21
-963.159560114347
  0
LINE
  5
296
100
AcDbEntity
  8
1
  6
CONTINUOUS
 62
           2
100
AcDbLine
 10
3292.661287016839
 20
-987.159560114347
 11
3292.661287016839
 21
-966.159560114347
  0
LINE
  5
295
100
AcDbEntity
  8
1
  6
CONTINUOUS
 62
           2
100
AcDbLine
 10
3495.661287016838
 20
-990.159560114347
 11
3295.661287016839
 21
-990.159560114347
  0
LINE
  5
294
100
AcDbEntity
  8
1
  6
CONTINUOUS
 62
           2
100
AcDbLine
 10
3498.661287016838
 20
-966.159560114347
 11
3498.661287016838
 21
-987.159560114347
  0
LINE
  5
293
100
AcDbEntity
  8
1
  6
CONTINUOUS
 62
           2
100
AcDbLine
 10
3522.661287016838
 20
-963.159560114347
 11
3501.661287016838
 21
-963.159560114347
  0
LINE
  5
292
100
AcDbEntity
  8
1
  6
CONTINUOUS
 62
           2
100
AcDbLine
 10
3495.661287016838
 20
-960.159560114347
 11
3525.661287016838
 21
-960.159560114347
  0
LINE
  5
291
100
AcDbEntity
  8
1
  6
CONTINUOUS
 62
           2
100
AcDbLine
 10
3295.661287016839
 20
-960.159560114347
 11
3495.661287016838
 21
-960.159560114347
  0
LINE
  5
290
100
AcDbEntity
  8
1
  6
CONTINUOUS
 62
           2
100
AcDbLine
 10
3295.661287016839
 20
-1125.159560114349
 11
3295.661287016839
 21
-990.159560114347
  0
LINE
  5
28F
100
AcDbEntity
  8
1
  6
DOT_CENTER
 62
           3
100
AcDbLine
 10
3395.661287016838
 20
-1449.680023746437
 11
3395.661287016838
 21
-906.570625283249
  0
LINE
  5
28E
100
AcDbEntity
  8
1
  6
DOT_CENTER
 62
           3
100
AcDbLine
 10
3202.615446162279
 20
-1280.159560114349
 11
3580.990404220428
 21
-1280.159560114349
  0
LINE
  5
28D
100
AcDbEntity
  8
1
  6
CONTINUOUS
 62
           2
100
AcDbLine
 10
3270.661287016839
 20
-1155.159560114349
 11
3270.66128701684
 21
-1405.159560114349
  0
LINE
  5
28C
100
AcDbEntity
  8
1
  6
CONTINUOUS
 62
           2
100
AcDbLine
 10
3520.661287016838
 20
-1405.159560114349
 11
3270.66128701684
 21
-1405.159560114349
  0
LINE
  5
28B
100
AcDbEntity
  8
1
  6
CONTINUOUS
 62
           2
100
AcDbLine
 10
3520.661287016838
 20
-1155.159560114349
 11
3520.661287016838
 21
-1405.159560114349
  0
LINE
  5
28A
100
AcDbEntity
  8
1
  6
CONTINUOUS
 62
           2
100
AcDbLine
 10
3270.661287016839
 20
-1155.159560114349
 11
3520.661287016838
 21
-1155.159560114349
  0
LINE
  5
289
100
AcDbEntity
  8
1
  6
CONTINUOUS
 62
           2
100
AcDbLine
 10
3550.661287016838
 20
-1125.159560114349
 11
3550.661287016838
 21
-1435.159560114349
  0
LINE
  5
288
100
AcDbEntity
  8
1
  6
CONTINUOUS
 62
           2
100
AcDbLine
 10
3240.661287016839
 20
-1125.159560114349
 11
3550.661287016838
 21
-1125.159560114349
  0
LINE
  5
287
100
AcDbEntity
  8
1
  6
CONTINUOUS
 62
           2
100
AcDbLine
 10
3550.661287016838
 20
-1435.159560114349
 11
3240.661287016839
 21
-1435.159560114349
  0
LINE
  5
286
100
AcDbEntity
  8
1
  6
CONTINUOUS
 62
           2
100
AcDbLine
 10
3240.661287016839
 20
-1125.159560114349
 11
3240.661287016839
 21
-1435.159560114349
  0
LINE
  5
285
100
AcDbEntity
  8
1
  6
DOT_CENTER
 62
           3
100
AcDbLine
 10
2282.54128701684
 20
-1455.15956011435
 11
2395.661287016839
 21
-1455.15956011435
  0
LINE
  5
284
100
AcDbEntity
  8
1
  6
DOT_CENTER
 62
           3
100
AcDbLine
 10
2395.661287016839
 20
-1568.279560114351
 11
2395.661287016839
 21
-1342.03956011435
  0
LINE
  5
283
100
AcDbEntity
  8
1
  6
DOT_CENTER
 62
           3
100
AcDbLine
 10
2395.661287016839
 20
-1455.15956011435
 11
2508.78128701684
 21
-1455.15956011435
  0
LINE
  5
282
100
AcDbEntity
  8
1
  6
CONTINUOUS
 62
           2
100
AcDbLine
 10
2235.661287016839
 20
-1645.159560114349
 11
3135.661287016839
 21
-1645.15956011435
  0
LINE
  5
281
100
AcDbEntity
  8
1
  6
CONTINUOUS
 62
           2
100
AcDbLine
 10
2235.661287016839
 20
-1570.15956011435
 11
2235.661287016839
 21
-1645.159560114349
  0
LINE
  5
280
100
AcDbEntity
  8
1
  6
CONTINUOUS
 62
           2
100
AcDbLine
 10
3135.661287016839
 20
-1570.15956011435
 11
2235.661287016839
 21
-1570.15956011435
  0
LINE
  5
27F
100
AcDbEntity
  8
1
  6
CONTINUOUS
 62
           2
100
AcDbLine
 10
3135.661287016839
 20
-1645.15956011435
 11
3135.661287016839
 21
-1570.15956011435
  0
LINE
  5
27E
100
AcDbEntity
  8
1
  6
DOT_CENTER
 62
           3
100
AcDbLine
 10
2608.580967058261
 20
-1280.15956011435
 11
3102.787136106909
 21
-1280.15956011435
  0
LINE
  5
27D
100
AcDbEntity
  8
1
  6
DOT_CENTER
 62
           3
100
AcDbLine
 10
2885.661287016839
 20
-1506.55741441273
 11
2885.661287016839
 21
-1025.886713313568
  0
LINE
  5
27C
100
AcDbEntity
  8
1
  6
CONTINUOUS
 62
           2
100
AcDbLine
 10
2995.661287016839
 20
-1323.15956011435
 11
3095.661287016839
 21
-1570.15956011435
  0
LINE
  5
27B
100
AcDbEntity
  8
1
  6
PHANTOM
 62
           3
100
AcDbLine
 10
2372.883232152935
 20
-1376.38672078114
 11
2871.772229172997
 21
-1232.12734100873
  0
LINE
  5
27A
100
AcDbEntity
  8
1
  6
PHANTOM
 62
           3
100
AcDbLine
 10
2427.93798441468
 20
-1530.54002711402
 11
2905.342200064304
 21
-1326.123259504391
  0
LINE
  5
279
100
AcDbEntity
  8
1
  6
CONTINUOUS
 62
           2
100
AcDbLine
 10
2995.661287016839
 20
-1260.15956011435
 11
2995.661287016839
 21
-1570.15956011435
  0
LINE
  5
278
100
AcDbEntity
  8
1
  6
CONTINUOUS
 62
           2
100
AcDbLine
 10
2915.661287016839
 20
-1180.15956011435
 11
2995.661287016839
 21
-1260.15956011435
  0
LINE
  5
277
100
AcDbEntity
  8
1
  6
CONTINUOUS
 62
           2
100
AcDbLine
 10
2305.661287016839
 20
-1340.15956011435
 11
2915.661287016839
 21
-1180.15956011435
  0
LINE
  5
276
100
AcDbEntity
  8
1
  6
CONTINUOUS
 62
           2
100
AcDbLine
 10
2265.661287016839
 20
-1380.15956011435
 11
2305.661287016839
 21
-1340.15956011435
  0
LINE
  5
275
100
AcDbEntity
  8
1
  6
CONTINUOUS
 62
           2
100
AcDbLine
 10
2265.661287016839
 20
-1570.15956011435
 11
2265.661287016839
 21
-1380.15956011435
  0
LINE
  5
274
100
AcDbEntity
  8
1
  6
CONTINUOUS
 62
           3
100
AcDbLine
 10
2235.661287016839
 20
-1643.55956011435
 11
3135.661287016839
 21
-1643.55956011435
  0
LINE
  5
273
100
AcDbEntity
  8
1
  6
CONTINUOUS
 62
           3
100
AcDbLine
 10
3135.661287016839
 20
-1571.759560114351
 11
2235.661287016839
 21
-1571.759560114351
  0
LINE
  5
272
100
AcDbEntity
  8
1
  6
CONTINUOUS
 62
           2
100
AcDbLine
 10
3175.661287016839
 20
-1645.15956011435
 11
3175.661287016839
 21
-945.15956011435
  0
LINE
  5
271
100
AcDbEntity
  8
1
  6
CONTINUOUS
 62
           2
100
AcDbLine
 10
3175.661287016839
 20
-945.15956011435
 11
2510.661287016839
 21
-945.15956011435
  0
LINE
  5
270
100
AcDbEntity
  8
1
  6
CONTINUOUS
 62
           2
100
AcDbLine
 10
2510.661287016839
 20
-945.15956011435
 11
2510.661287016839
 21
-1535.15956011435
  0
LINE
  5
26F
100
AcDbEntity
  8
1
  6
DOT_CENTER
 62
           3
100
AcDbLine
 10
-400.0
 20
-900.37446478819
 11
-400.0
 21
-1683.810401793009
  0
LINE
  5
26E
100
AcDbEntity
  8
1
  6
CONTINUOUS
 62
           2
100
AcDbLine
 10
-600.0
 20
-947.15956011435
 11
-240.0
 21
-947.15956011435
  0
LINE
  5
26D
100
AcDbEntity
  8
1
  6
PHANTOM
 62
           3
100
AcDbLine
 10
-3866.293970901607
 20
551.451609291846
 11
-4277.0
 21
551.451609291844
  0
LINE
  5
26C
100
AcDbEntity
  8
1
  6
PHANTOM
 62
           3
100
AcDbLine
 10
-4277.0
 20
551.451609291844
 11
-4277.0
 21
1048.951609291842
  0
LINE
  5
26B
100
AcDbEntity
  8
1
  6
DOT_CENTER
 62
           3
100
AcDbLine
 10
-4251.5
 20
786.451609291846
 11
-4216.5
 21
786.451609291846
  0
LINE
  5
26A
100
AcDbEntity
  8
1
  6
PHANTOM
 62
           3
100
AcDbLine
 10
-4234.0
 20
768.951609291846
 11
-4234.000000000001
 21
803.951609291846
  0
LINE
  5
269
100
AcDbEntity
  8
1
  6
PHANTOM
 62
           3
100
AcDbLine
 10
-4271.0
 20
663.45160929185
 11
-4196.999999999999
 21
663.45160929185
  0
LINE
  5
268
100
AcDbEntity
  8
1
  6
PHANTOM
 62
           3
100
AcDbLine
 10
-4196.999999999999
 20
663.45160929185
 11
-4197.0
 21
609.451609291847
  0
LINE
  5
267
100
AcDbEntity
  8
1
  6
PHANTOM
 62
           3
100
AcDbLine
 10
-4197.0
 20
609.451609291847
 11
-4271.0
 21
609.451609291847
  0
LINE
  5
266
100
AcDbEntity
  8
1
  6
PHANTOM
 62
           3
100
AcDbLine
 10
-4271.0
 20
609.451609291847
 11
-4271.0
 21
663.45160929185
  0
LINE
  5
265
100
AcDbEntity
  8
1
  6
DOT_CENTER
 62
           3
100
AcDbLine
 10
-4234.0
 20
587.627946440645
 11
-4234.0
 21
786.451609291846
  0
LINE
  5
264
100
AcDbEntity
  8
1
  6
DOT_CENTER
 62
           3
100
AcDbLine
 10
-4258.32456752108
 20
599.451609291846
 11
-3831.73373399308
 21
599.451609291846
  0
LINE
  5
263
100
AcDbEntity
  8
1
  6
DOT_CENTER
 62
           3
100
AcDbLine
 10
-4040.0
 20
736.433145106941
 11
-4040.0
 21
579.691669178441
  0
LINE
  5
262
100
AcDbEntity
  8
1
  6
DOT_CENTER
 62
           3
100
AcDbLine
 10
-4050.0
 20
1102.315751203743
 11
-4050.0
 21
499.534215070341
  0
LINE
  5
261
100
AcDbEntity
  8
1
  6
PHANTOM
 62
           3
100
AcDbLine
 10
-4075.0
 20
714.451609291848
 11
-3897.0
 21
714.451609291848
  0
LINE
  5
260
100
AcDbEntity
  8
1
  6
PHANTOM
 62
           3
100
AcDbLine
 10
-4025.0
 20
714.451609291848
 11
-4025.0
 21
964.451609291848
  0
LINE
  5
25F
100
AcDbEntity
  8
1
  6
PHANTOM
 62
           3
100
AcDbLine
 10
-4075.0
 20
964.451609291848
 11
-4075.0
 21
714.451609291848
  0
LINE
  5
25E
100
AcDbEntity
  8
1
  6
PHANTOM
 62
           3
100
AcDbLine
 10
-3961.0
 20
714.451609291848
 11
-3961.0
 21
964.451609291848
  0
LINE
  5
25D
100
AcDbEntity
  8
1
  6
PHANTOM
 62
           3
100
AcDbLine
 10
-3897.0
 20
964.451609291848
 11
-4075.0
 21
964.451609291848
  0
LINE
  5
25C
100
AcDbEntity
  8
1
  6
PHANTOM
 62
           3
100
AcDbLine
 10
-4011.0
 20
964.451609291848
 11
-4011.0
 21
714.451609291848
  0
LINE
  5
25B
100
AcDbEntity
  8
1
  6
PHANTOM
 62
           3
100
AcDbLine
 10
-3897.0
 20
714.451609291848
 11
-3897.0
 21
964.451609291848
  0
LINE
  5
25A
100
AcDbEntity
  8
1
  6
PHANTOM
 62
           3
100
AcDbLine
 10
-3946.999999999999
 20
964.451609291848
 11
-3947.0
 21
714.451609291848
  0
LINE
  5
259
100
AcDbEntity
  8
1
  6
DOT_CENTER
 62
           3
100
AcDbLine
 10
-4087.49547282805
 20
824.451609291848
 11
-3809.72576865085
 21
824.451609291848
  0
LINE
  5
258
100
AcDbEntity
  8
1
  6
DOT_CENTER
 62
           3
100
AcDbLine
 10
-3889.999999999999
 20
569.771322600644
 11
-3889.999999999999
 21
805.875571151244
  0
LINE
  5
257
100
AcDbEntity
  8
1
  6
PHANTOM
 62
           3
100
AcDbLine
 10
-3866.293970901607
 20
1048.951609291842
 11
-3866.293970901607
 21
551.451609291846
  0
LINE
  5
256
100
AcDbEntity
  8
1
  6
PHANTOM
 62
           3
100
AcDbLine
 10
-3913.999999999999
 20
580.45160929185
 11
-3865.999999999999
 21
580.45160929185
  0
LINE
  5
255
100
AcDbEntity
  8
1
  6
PHANTOM
 62
           3
100
AcDbLine
 10
-3865.999999999999
 20
580.45160929185
 11
-3865.999999999999
 21
618.451609291847
  0
LINE
  5
254
100
AcDbEntity
  8
1
  6
PHANTOM
 62
           3
100
AcDbLine
 10
-3865.999999999999
 20
618.451609291847
 11
-3913.999999999999
 21
618.451609291847
  0
LINE
  5
253
100
AcDbEntity
  8
1
  6
PHANTOM
 62
           3
100
AcDbLine
 10
-3913.999999999999
 20
618.451609291847
 11
-3913.999999999999
 21
580.45160929185
  0
LINE
  5
252
100
AcDbEntity
  8
1
  6
PHANTOM
 62
           3
100
AcDbLine
 10
-3849.0
 20
686.766292160437
 11
-3775.0
 21
686.766292160437
  0
LINE
  5
251
100
AcDbEntity
  8
1
  6
PHANTOM
 62
           3
100
AcDbLine
 10
-3775.0
 20
686.766292160437
 11
-3775.0
 21
632.766292160435
  0
LINE
  5
250
100
AcDbEntity
  8
1
  6
PHANTOM
 62
           3
100
AcDbLine
 10
-3775.0
 20
632.766292160435
 11
-3849.0
 21
632.766292160435
  0
LINE
  5
24F
100
AcDbEntity
  8
1
  6
PHANTOM
 62
           3
100
AcDbLine
 10
-3849.0
 20
632.766292160435
 11
-3849.0
 21
686.766292160437
  0
LINE
  5
24E
100
AcDbEntity
  8
1
  6
PHANTOM
 62
           3
100
AcDbLine
 10
-4130.0
 20
1044.451609291848
 11
-4130.0
 21
884.451609291848
  0
LINE
  5
24D
100
AcDbEntity
  8
1
  6
PHANTOM
 62
           3
100
AcDbLine
 10
-3970.0
 20
1044.451609291848
 11
-3970.0
 21
964.451609291848
  0
LINE
  5
24C
100
AcDbEntity
  8
1
  6
PHANTOM
 62
           3
100
AcDbLine
 10
-4130.0
 20
884.451609291848
 11
-4075.0
 21
884.451609291848
  0
LINE
  5
24B
100
AcDbEntity
  8
1
  6
PHANTOM
 62
           3
100
AcDbLine
 10
-3950.0
 20
1044.451609291846
 11
-3950.0
 21
1048.951609291844
  0
LINE
  5
24A
100
AcDbEntity
  8
1
  6
PHANTOM
 62
           3
100
AcDbLine
 10
-4150.0
 20
1044.451609291846
 11
-4150.0
 21
1048.951609291844
  0
LINE
  5
249
100
AcDbEntity
  8
1
  6
PHANTOM
 62
           3
100
AcDbLine
 10
-4150.0
 20
1044.451609291846
 11
-3950.0
 21
1044.451609291846
  0
LINE
  5
248
100
AcDbEntity
  8
1
  6
PHANTOM
 62
           3
100
AcDbLine
 10
-396.0
 20
1044.451609291846
 11
-196.0
 21
1044.451609291846
  0
LINE
  5
247
100
AcDbEntity
  8
1
  6
PHANTOM
 62
           3
100
AcDbLine
 10
-396.0
 20
1044.451609291846
 11
-396.0
 21
1048.951609291844
  0
LINE
  5
246
100
AcDbEntity
  8
1
  6
PHANTOM
 62
           3
100
AcDbLine
 10
-196.0
 20
1044.451609291846
 11
-196.0
 21
1048.951609291844
  0
LINE
  5
245
100
AcDbEntity
  8
1
  6
PHANTOM
 62
           3
100
AcDbLine
 10
-216.0
 20
1044.451609291848
 11
-216.0
 21
964.451609291848
  0
LINE
  5
244
100
AcDbEntity
  8
1
  6
PHANTOM
 62
           3
100
AcDbLine
 10
-376.0
 20
1044.451609291848
 11
-376.0
 21
884.451609291848
  0
LINE
  5
243
100
AcDbEntity
  8
1
  6
PHANTOM
 62
           3
100
AcDbLine
 10
-21.0
 20
632.766292160435
 11
-95.0
 21
632.766292160435
  0
LINE
  5
242
100
AcDbEntity
  8
1
  6
PHANTOM
 62
           3
100
AcDbLine
 10
-21.0
 20
686.766292160437
 11
-21.0
 21
632.766292160435
  0
LINE
  5
241
100
AcDbEntity
  8
1
  6
PHANTOM
 62
           3
100
AcDbLine
 10
-95.0
 20
686.766292160437
 11
-21.0
 21
686.766292160437
  0
LINE
  5
240
100
AcDbEntity
  8
1
  6
PHANTOM
 62
           3
100
AcDbLine
 10
-112.293970901607
 20
1048.951609291842
 11
-112.293970901607
 21
551.451609291846
  0
LINE
  5
23F
100
AcDbEntity
  8
1
  6
DOT_CENTER
 62
           3
100
AcDbLine
 10
-333.49547282805
 20
824.451609291848
 11
-55.72576865085
 21
824.451609291848
  0
LINE
  5
23E
100
AcDbEntity
  8
1
  6
DOT_CENTER
 62
           3
100
AcDbLine
 10
-296.0
 20
1102.315751203743
 11
-296.0
 21
499.534215070341
  0
LINE
  5
23D
100
AcDbEntity
  8
1
  6
PHANTOM
 62
           3
100
AcDbLine
 10
-523.0
 20
551.451609291844
 11
-523.0
 21
1048.951609291842
  0
LINE
  5
23C
100
AcDbEntity
  8
1
  6
DOT_CENTER
 62
           3
100
AcDbLine
 10
-3950.0
 20
2624.983001830537
 11
-3950.0
 21
1720.718055674731
  0
LINE
  5
23B
100
AcDbEntity
  8
1
  6
PHANTOM
 62
           3
100
AcDbLine
 10
-643.0
 20
437.291355253998
 11
-264.490140283201
 21
-218.30695294127
  0
LINE
  5
23A
100
AcDbEntity
  8
1
  6
CONTINUOUS
 62
           2
100
AcDbLine
 10
-759.0
 20
-992.159560114349
 11
-759.0
 21
-1007.159560114349
  0
LINE
  5
239
100
AcDbEntity
  8
1
  6
CONTINUOUS
 62
           2
100
AcDbLine
 10
-739.0
 20
-992.159560114349
 11
-759.0
 21
-992.159560114349
  0
LINE
  5
238
100
AcDbEntity
  8
1
  6
CONTINUOUS
 62
           2
100
AcDbLine
 10
-739.0
 20
-1007.159560114349
 11
-739.0
 21
-992.159560114349
  0
LINE
  5
237
100
AcDbEntity
  8
1
  6
CONTINUOUS
 62
           2
100
AcDbLine
 10
-759.0
 20
-1007.159560114349
 11
-739.0
 21
-1007.159560114349
  0
LINE
  5
236
100
AcDbEntity
  8
1
  6
CONTINUOUS
 62
           2
100
AcDbLine
 10
-746.6
 20
-1007.159560114349
 11
-746.6
 21
-1012.159560114349
  0
LINE
  5
235
100
AcDbEntity
  8
1
  6
CONTINUOUS
 62
           2
100
AcDbLine
 10
-751.4
 20
-1007.159560114349
 11
-751.4
 21
-1012.159560114349
  0
LINE
  5
234
100
AcDbEntity
  8
1
  6
CONTINUOUS
 62
           2
100
AcDbLine
 10
-734.0
 20
-1012.159560114349
 11
-734.0
 21
-1017.159560114349
  0
LINE
  5
233
100
AcDbEntity
  8
1
  6
CONTINUOUS
 62
           2
100
AcDbLine
 10
-764.0
 20
-1012.159560114349
 11
-764.0
 21
-1017.159560114349
  0
LINE
  5
232
100
AcDbEntity
  8
1
  6
CONTINUOUS
 62
           2
100
AcDbLine
 10
-764.0
 20
-1012.159560114349
 11
-734.0
 21
-1012.159560114349
  0
LINE
  5
231
100
AcDbEntity
  8
1
  6
CONTINUOUS
 62
           3
100
AcDbLine
 10
-3675.0
 20
-1017.159560114349
 11
-3675.0
 21
-1167.159560114349
  0
LINE
  5
230
100
AcDbEntity
  8
1
  6
CONTINUOUS
 62
           2
100
AcDbLine
 10
1022.66128701684
 20
-1154.159560114349
 11
1058.661287016839
 21
-1154.15956011435
  0
LINE
  5
22F
100
AcDbEntity
  8
1
  6
CONTINUOUS
 62
           2
100
AcDbLine
 10
1022.66128701684
 20
-4010.15956011435
 11
1022.66128701684
 21
-1154.159560114349
  0
LINE
  5
22E
100
AcDbEntity
  8
1
  6
CONTINUOUS
 62
           2
100
AcDbLine
 10
1022.66128701684
 20
-4010.15956011435
 11
1058.661287016839
 21
-4010.159560114348
  0
LINE
  5
22D
100
AcDbEntity
  8
1
  6
CONTINUOUS
 62
           3
100
AcDbLine
 10
1351.661287016837
 20
-2545.159560114349
 11
1351.661287016837
 21
-2495.159560114349
  0
LINE
  5
22C
100
AcDbEntity
  8
1
  6
CONTINUOUS
 62
           3
100
AcDbLine
 10
1351.661287016837
 20
-2545.159560114349
 11
1351.661287016837
 21
-2495.159560114349
  0
LINE
  5
22B
100
AcDbEntity
  8
1
  6
CONTINUOUS
 62
           3
100
AcDbLine
 10
1351.661287016837
 20
-2507.659560114349
 11
1358.661287016837
 21
-2507.659560114349
  0
LINE
  5
22A
100
AcDbEntity
  8
1
  6
CONTINUOUS
 62
           3
100
AcDbLine
 10
1351.661287016837
 20
-2520.159560114349
 11
1358.661287016837
 21
-2520.159560114349
  0
LINE
  5
229
100
AcDbEntity
  8
1
  6
CONTINUOUS
 62
           3
100
AcDbLine
 10
1351.661287016837
 20
-2532.659560114349
 11
1358.661287016837
 21
-2532.659560114349
  0
LINE
  5
228
100
AcDbEntity
  8
1
  6
CONTINUOUS
 62
           3
100
AcDbLine
 10
1358.661287016837
 20
-2545.159560114349
 11
1358.661287016837
 21
-2495.159560114349
  0
LINE
  5
227
100
AcDbEntity
  8
1
  6
CONTINUOUS
 62
           3
100
AcDbLine
 10
1351.661287016837
 20
-2995.159560114349
 11
1351.661287016837
 21
-2945.159560114349
  0
LINE
  5
226
100
AcDbEntity
  8
1
  6
CONTINUOUS
 62
           3
100
AcDbLine
 10
1351.661287016837
 20
-2957.659560114349
 11
1358.661287016837
 21
-2957.659560114349
  0
LINE
  5
225
100
AcDbEntity
  8
1
  6
CONTINUOUS
 62
           3
100
AcDbLine
 10
1351.661287016837
 20
-2970.159560114349
 11
1358.661287016837
 21
-2970.159560114349
  0
LINE
  5
224
100
AcDbEntity
  8
1
  6
CONTINUOUS
 62
           3
100
AcDbLine
 10
1351.661287016837
 20
-2982.659560114349
 11
1358.661287016837
 21
-2982.659560114349
  0
LINE
  5
223
100
AcDbEntity
  8
1
  6
CONTINUOUS
 62
           3
100
AcDbLine
 10
1358.661287016839
 20
-2995.159560114349
 11
1358.661287016839
 21
-2945.159560114349
  0
LINE
  5
222
100
AcDbEntity
  8
1
  6
CONTINUOUS
 62
           3
100
AcDbLine
 10
1372.66128701684
 20
-2945.159560114349
 11
1372.66128701684
 21
-2995.159560114349
  0
LINE
  5
221
100
AcDbEntity
  8
1
  6
CONTINUOUS
 62
           3
100
AcDbLine
 10
1372.661287016841
 20
-2495.159560114349
 11
1372.661287016841
 21
-2545.159560114349
  0
LINE
  5
220
100
AcDbEntity
  8
1
  6
CONTINUOUS
 62
           3
100
AcDbLine
 10
1351.661287016837
 20
-2945.159560114349
 11
1379.661287016842
 21
-2945.159560114349
  0
LINE
  5
21F
100
AcDbEntity
  8
1
  6
CONTINUOUS
 62
           3
100
AcDbLine
 10
1379.661287016842
 20
-2945.159560114349
 11
1379.661287016841
 21
-2995.159560114349
  0
LINE
  5
21E
100
AcDbEntity
  8
1
  6
CONTINUOUS
 62
           3
100
AcDbLine
 10
1379.661287016841
 20
-2995.159560114349
 11
1351.661287016837
 21
-2995.159560114349
  0
LINE
  5
21D
100
AcDbEntity
  8
1
  6
CONTINUOUS
 62
           3
100
AcDbLine
 10
1372.661287016841
 20
-2957.659560114349
 11
1379.661287016842
 21
-2957.659560114349
  0
LINE
  5
21C
100
AcDbEntity
  8
1
  6
CONTINUOUS
 62
           3
100
AcDbLine
 10
1372.661287016841
 20
-2970.159560114349
 11
1379.661287016842
 21
-2970.159560114349
  0
LINE
  5
21B
100
AcDbEntity
  8
1
  6
CONTINUOUS
 62
           3
100
AcDbLine
 10
1372.661287016841
 20
-2982.659560114349
 11
1379.661287016842
 21
-2982.659560114349
  0
LINE
  5
21A
100
AcDbEntity
  8
1
  6
CONTINUOUS
 62
           3
100
AcDbLine
 10
1351.661287016837
 20
-2495.159560114349
 11
1379.661287016842
 21
-2495.159560114349
  0
LINE
  5
219
100
AcDbEntity
  8
1
  6
CONTINUOUS
 62
           3
100
AcDbLine
 10
1379.661287016842
 20
-2495.159560114349
 11
1379.661287016841
 21
-2545.159560114349
  0
LINE
  5
218
100
AcDbEntity
  8
1
  6
CONTINUOUS
 62
           3
100
AcDbLine
 10
1379.661287016841
 20
-2545.159560114349
 11
1351.661287016837
 21
-2545.159560114349
  0
LINE
  5
217
100
AcDbEntity
  8
1
  6
CONTINUOUS
 62
           3
100
AcDbLine
 10
1372.661287016841
 20
-2507.659560114349
 11
1379.661287016842
 21
-2507.659560114349
  0
LINE
  5
216
100
AcDbEntity
  8
1
  6
CONTINUOUS
 62
           3
100
AcDbLine
 10
1372.661287016841
 20
-2520.159560114349
 11
1379.661287016842
 21
-2520.159560114349
  0
LINE
  5
215
100
AcDbEntity
  8
1
  6
CONTINUOUS
 62
           3
100
AcDbLine
 10
1372.661287016841
 20
-2532.659560114349
 11
1379.661287016842
 21
-2532.659560114349
  0
LINE
  5
214
100
AcDbEntity
  8
1
  6
CONTINUOUS
 62
           3
100
AcDbLine
 10
1365.661287016839
 20
-2445.159560114349
 11
1365.661287016839
 21
-3045.159560114348
  0
LINE
  5
213
100
AcDbEntity
  8
1
  6
CONTINUOUS
 62
           3
100
AcDbLine
 10
1585.661287016839
 20
-3045.159560114348
 11
1585.661287016839
 21
-3050.159560114348
  0
LINE
  5
212
100
AcDbEntity
  8
1
  6
CONTINUOUS
 62
           3
100
AcDbLine
 10
1352.66115365236
 20
-3050.159560114348
 11
1352.66115365236
 21
-3045.159560114348
  0
LINE
  5
211
100
AcDbEntity
  8
1
  6
CONTINUOUS
 62
           3
100
AcDbLine
 10
1585.661287016839
 20
-2645.159560114349
 11
1635.661287016839
 21
-2645.159560114349
  0
LINE
  5
210
100
AcDbEntity
  8
1
  6
CONTINUOUS
 62
           3
100
AcDbLine
 10
1352.66115365236
 20
-3050.159560114348
 11
1635.661287016839
 21
-3050.159560114348
  0
LINE
  5
20F
100
AcDbEntity
  8
1
  6
CONTINUOUS
 62
           2
100
AcDbLine
 10
1335.661287016839
 20
-2445.159560114349
 11
1335.661287016839
 21
-3045.159560114348
  0
LINE
  5
20E
100
AcDbEntity
  8
1
  6
CONTINUOUS
 62
           2
100
AcDbLine
 10
1585.661287016839
 20
-2445.159560114349
 11
1335.661287016839
 21
-2445.159560114349
  0
LINE
  5
20D
100
AcDbEntity
  8
1
  6
CONTINUOUS
 62
           2
100
AcDbLine
 10
1335.661287016839
 20
-3045.159560114348
 11
1585.661287016839
 21
-3045.159560114348
  0
LINE
  5
20C
100
AcDbEntity
  8
1
  6
DOT_CENTER
 62
           3
100
AcDbLine
 10
-749.0
 20
-986.342353458188
 11
-749.0
 21
-1239.495964108618
  0
LINE
  5
20B
100
AcDbEntity
  8
1
  6
CONTINUOUS
 62
           2
100
AcDbLine
 10
-3749.999999999999
 20
3623.951609291844
 11
-3750.0
 21
546.951609291842
  0
LINE
  5
20A
100
AcDbEntity
  8
1
  6
DOT_CENTER
 62
           3
100
AcDbLine
 10
-2175.0
 20
-972.471926023038
 11
-2175.0
 21
-4151.02069694551
  0
LINE
  5
209
100
AcDbEntity
  8
1
  6
DOT_CENTER
 62
           3
100
AcDbLine
 10
-400.0
 20
2619.306809873228
 11
-400.0
 21
1827.114418862211
  0
LINE
  5
208
100
AcDbEntity
  8
1
  6
CONTINUOUS
 62
           2
100
AcDbLine
 10
-525.0
 20
-3997.159560114348
 11
0.0
 21
-3997.159560114348
  0
LINE
  5
207
100
AcDbEntity
  8
1
  6
CONTINUOUS
 62
           2
100
AcDbLine
 10
-400.0
 20
-2447.159560114349
 11
-400.0
 21
-3047.159560114348
  0
LINE
  5
206
100
AcDbEntity
  8
1
  6
CONTINUOUS
 62
           2
100
AcDbLine
 10
-400.0
 20
-3047.159560114348
 11
0.0
 21
-3047.159560114348
  0
LINE
  5
205
100
AcDbEntity
  8
1
  6
CONTINUOUS
 62
           2
100
AcDbLine
 10
-400.0
 20
748.951609291842
 11
-400.0
 21
998.951609291842
  0
LINE
  5
204
100
AcDbEntity
  8
1
  6
CONTINUOUS
 62
           2
100
AcDbLine
 10
0.0
 20
748.951609291842
 11
-400.0
 21
748.951609291842
  0
LINE
  5
203
100
AcDbEntity
  8
1
  6
CONTINUOUS
 62
           2
100
AcDbLine
 10
0.0
 20
3548.951609291842
 11
0.0
 21
748.951609291842
  0
LINE
  5
202
100
AcDbEntity
  8
1
  6
CONTINUOUS
 62
           3
100
AcDbLine
 10
-320.0
 20
2963.951609291842
 11
-290.0
 21
2653.951609291842
  0
LINE
  5
201
100
AcDbEntity
  8
1
  6
CONTINUOUS
 62
           3
100
AcDbLine
 10
-290.0
 20
2963.951609291842
 11
-320.0
 21
2653.951609291842
  0
LINE
  5
200
100
AcDbEntity
  8
1
  6
DOT_CENTER
 62
           3
100
AcDbLine
 10
-450.0
 20
3003.047385375441
 11
-450.0
 21
2637.018945612446
  0
LINE
  5
1FF
100
AcDbEntity
  8
1
  6
CONTINUOUS
 62
           3
100
AcDbLine
 10
-350.0
 20
2908.951609291842
 11
-550.0
 21
2708.951609291842
  0
LINE
  5
1FE
100
AcDbEntity
  8
1
  6
CONTINUOUS
 62
           3
100
AcDbLine
 10
-550.0
 20
2908.951609291842
 11
-350.0
 21
2708.951609291842
  0
LINE
  5
1FD
100
AcDbEntity
  8
1
  6
CONTINUOUS
 62
           2
100
AcDbLine
 10
-580.0
 20
2938.951609291842
 11
-580.0
 21
2678.951609291842
  0
LINE
  5
1FC
100
AcDbEntity
  8
1
  6
CONTINUOUS
 62
           2
100
AcDbLine
 10
-550.0
 20
2908.951609291842
 11
-550.0
 21
2708.951609291842
  0
LINE
  5
1FB
100
AcDbEntity
  8
1
  6
CONTINUOUS
 62
           2
100
AcDbLine
 10
-350.0
 20
2908.951609291842
 11
-350.0
 21
2708.951609291842
  0
LINE
  5
1FA
100
AcDbEntity
  8
1
  6
CONTINUOUS
 62
           2
100
AcDbLine
 10
-550.0
 20
2908.951609291842
 11
-350.0
 21
2908.951609291842
  0
LINE
  5
1F9
100
AcDbEntity
  8
1
  6
CONTINUOUS
 62
           2
100
AcDbLine
 10
-550.0
 20
2708.951609291842
 11
-350.0
 21
2708.951609291842
  0
LINE
  5
1F8
100
AcDbEntity
  8
1
  6
CONTINUOUS
 62
           2
100
AcDbLine
 10
-580.0
 20
2678.951609291842
 11
-320.0
 21
2678.951609291842
  0
LINE
  5
1F7
100
AcDbEntity
  8
1
  6
CONTINUOUS
 62
           2
100
AcDbLine
 10
-580.0
 20
2938.951609291842
 11
-320.0
 21
2938.951609291842
  0
LINE
  5
1F6
100
AcDbEntity
  8
1
  6
CONTINUOUS
 62
           2
100
AcDbLine
 10
-600.0
 20
2653.951609291842
 11
-290.0
 21
2653.951609291842
  0
LINE
  5
1F5
100
AcDbEntity
  8
1
  6
CONTINUOUS
 62
           2
100
AcDbLine
 10
-600.0
 20
2963.951609291842
 11
-290.0
 21
2963.951609291842
  0
LINE
  5
1F4
100
AcDbEntity
  8
1
  6
CONTINUOUS
 62
           2
100
AcDbLine
 10
-290.0
 20
2963.951609291842
 11
-290.0
 21
2653.951609291842
  0
LINE
  5
1F3
100
AcDbEntity
  8
1
  6
CONTINUOUS
 62
           2
100
AcDbLine
 10
-3825.0
 20
-1017.159560114349
 11
-3825.0
 21
-4097.159560114348
  0
LINE
  5
1F2
100
AcDbEntity
  8
1
  6
CONTINUOUS
 62
           2
100
AcDbLine
 10
-400.0
 20
-2447.159560114349
 11
0.0
 21
-2447.159560114349
  0
LINE
  5
1F1
100
AcDbEntity
  8
1
  6
CONTINUOUS
 62
           2
100
AcDbLine
 10
-3825.0
 20
-1017.159560114349
 11
-525.0
 21
-1017.159560114349
  0
LINE
  5
1F0
100
AcDbEntity
  8
1
  6
CONTINUOUS
 62
           3
100
AcDbLine
 10
-3675.0
 20
3547.951609291842
 11
-3675.0
 21
547.951609291844
  0
LINE
  5
1EF
100
AcDbEntity
  8
1
  6
CONTINUOUS
 62
           3
100
AcDbLine
 10
-675.0
 20
3549.951609291842
 11
-675.0
 21
547.951609291844
  0
LINE
  5
1EE
100
AcDbEntity
  8
1
  6
CONTINUOUS
 62
           3
100
AcDbLine
 10
-3750.0
 20
547.951609291844
 11
-600.0
 21
547.951609291844
  0
LINE
  5
1ED
100
AcDbEntity
  8
1
  6
DOT_CENTER
 62
           3
100
AcDbLine
 10
-689.882154218611
 20
2298.951609291842
 11
151.580722099921
 21
2298.951609291842
  0
LINE
  5
1EC
100
AcDbEntity
  8
1
  6
DOT_CENTER
 62
           3
100
AcDbLine
 10
-704.05099704815
 20
2808.951609291842
 11
-243.563605088239
 21
2808.951609291842
  0
LINE
  5
1EB
100
AcDbEntity
  8
1
  6
DOT_CENTER
 62
           3
100
AcDbLine
 10
-2175.0
 20
3708.153976155753
 11
-2175.0
 21
311.022697068871
  0
LINE
  5
1EA
100
AcDbEntity
  8
1
  6
CONTINUOUS
 62
           2
100
AcDbLine
 10
-600.0
 20
3623.951609291844
 11
-600.0
 21
546.951609291842
  0
LINE
  5
1E9
100
AcDbEntity
  8
1
  6
CONTINUOUS
 62
           2
100
AcDbLine
 10
-3825.0
 20
471.951609291842
 11
-525.0
 21
471.951609291842
  0
LINE
  5
1E8
100
AcDbEntity
  8
1
  6
CONTINUOUS
 62
           2
100
AcDbLine
 10
-4499.175686041333
 20
-4097.159560114348
 11
112.064889039902
 21
-4097.159560114348
  0
LINE
  5
1E7
100
AcDbEntity
  8
1
  6
CONTINUOUS
 62
           3
100
AcDbLine
 10
-675.0
 20
-1167.159560114349
 11
-675.0
 21
-1017.159560114349
  0
LINE
  5
1E6
100
AcDbEntity
  8
1
  6
CONTINUOUS
 62
           2
100
AcDbLine
 10
-598.0
 20
3548.951609291842
 11
0.0
 21
3548.951609291842
  0
LINE
  5
1E5
100
AcDbEntity
  8
1
  6
CONTINUOUS
 62
           2
100
AcDbLine
 10
-600.0
 20
1048.951609291842
 11
0.0
 21
1048.951609291842
  0
LINE
  5
1E4
100
AcDbEntity
  8
1
  6
CONTINUOUS
 62
           2
100
AcDbLine
 10
-498.0
 20
998.951609291842
 11
-498.0
 21
1048.951609291842
  0
LINE
  5
1E3
100
AcDbEntity
  8
1
  6
CONTINUOUS
 62
           2
100
AcDbLine
 10
-525.0
 20
-4047.159560114348
 11
0.0
 21
-4047.159560114348
  0
LINE
  5
1E2
100
AcDbEntity
  8
1
  6
DOT_CENTER
 62
           3
100
AcDbLine
 10
-383.17579697549
 20
-3595.959560114347
 11
-161.358499250163
 21
-3595.959560114347
  0
LINE
  5
1E1
100
AcDbEntity
  8
1
  6
DOT_CENTER
 62
           3
100
AcDbLine
 10
-298.0
 20
-3277.323616272947
 11
-298.0
 21
-3759.950316160527
  0
LINE
  5
1E0
100
AcDbEntity
  8
1
  6
CONTINUOUS
 62
           2
100
AcDbLine
 10
-3825.0
 20
546.951609291842
 11
-3825.0
 21
471.951609291842
  0
LINE
  5
1DF
100
AcDbEntity
  8
1
  6
CONTINUOUS
 62
           2
100
AcDbLine
 10
-3750.0
 20
546.951609291842
 11
-3825.0
 21
546.951609291842
  0
LINE
  5
1DE
100
AcDbEntity
  8
1
  6
CONTINUOUS
 62
           2
100
AcDbLine
 10
-524.999999999999
 20
546.951609291842
 11
-600.0
 21
546.951609291842
  0
LINE
  5
1DD
100
AcDbEntity
  8
1
  6
CONTINUOUS
 62
           2
100
AcDbLine
 10
-524.999999999999
 20
546.951609291842
 11
-525.0
 21
471.951609291842
  0
LINE
  5
1DC
100
AcDbEntity
  8
1
  6
CONTINUOUS
 62
           1
100
AcDbLine
 10
-638.0
 20
471.951609291842
 11
-638.0
 21
455.951609291842
  0
LINE
  5
1DB
100
AcDbEntity
  8
1
  6
CONTINUOUS
 62
           1
100
AcDbLine
 10
-588.0
 20
471.951609291842
 11
-588.0
 21
455.632760168032
  0
LINE
  5
1DA
100
AcDbEntity
  8
1
  6
CONTINUOUS
 62
           1
100
AcDbLine
 10
-3759.999999999999
 20
471.951609291842
 11
-3759.999999999999
 21
455.951609291842
  0
LINE
  5
1D9
100
AcDbEntity
  8
1
  6
CONTINUOUS
 62
           1
100
AcDbLine
 10
-3710.0
 20
471.951609291842
 11
-3710.0
 21
455.951609291842
  0
LINE
  5
1D8
100
AcDbEntity
  8
1
  6
CONTINUOUS
 62
           3
100
AcDbLine
 10
-2168.0
 20
465.451609291842
 11
-660.0
 21
465.451609291842
  0
LINE
  5
1D7
100
AcDbEntity
  8
1
  6
CONTINUOUS
 62
           3
100
AcDbLine
 10
-3688.0
 20
465.451609291842
 11
-2178.0
 21
465.451609291842
  0
LINE
  5
1D6
100
AcDbEntity
  8
1
  6
CONTINUOUS
 62
           3
100
AcDbLine
 10
-642.104421207403
 20
455.951609291842
 11
-588.0
 21
455.951609291842
  0
LINE
  5
1D5
100
AcDbEntity
  8
1
  6
CONTINUOUS
 62
           3
100
AcDbLine
 10
-637.989650579345
 20
451.451609291842
 11
-588.0
 21
451.451609291842
  0
LINE
  5
1D4
100
AcDbEntity
  8
1
  6
CONTINUOUS
 62
           3
100
AcDbLine
 10
-588.0
 20
451.451609291842
 11
-588.0
 21
455.951609291842
  0
LINE
  5
1D3
100
AcDbEntity
  8
1
  6
DOT_CENTER
 62
           3
100
AcDbLine
 10
-648.0
 20
432.585365482421
 11
-648.0
 21
458.846544596021
  0
LINE
  5
1D2
100
AcDbEntity
  8
1
  6
DOT_CENTER
 62
           3
100
AcDbLine
 10
-659.180852346584
 20
445.951609291842
 11
-635.101834248152
 21
445.951609291842
  0
LINE
  5
1D1
100
AcDbEntity
  8
1
  6
CONTINUOUS
 62
           3
100
AcDbLine
 10
-656.351646544244
 20
440.451609291842
 11
-652.203024370286
 21
442.404133267572
  0
LINE
  5
1D0
100
AcDbEntity
  8
1
  6
CONTINUOUS
 62
           1
100
AcDbLine
 10
-676.0
 20
442.451609291842
 11
-676.0
 21
441.451609291842
  0
LINE
  5
1CF
100
AcDbEntity
  8
1
  6
CONTINUOUS
 62
           3
100
AcDbLine
 10
-2168.0
 20
465.451609291842
 11
-2168.0
 21
440.451609291842
  0
LINE
  5
1CE
100
AcDbEntity
  8
1
  6
CONTINUOUS
 62
           3
100
AcDbLine
 10
-2168.0
 20
465.451609291842
 11
-2153.0
 21
465.451609291842
  0
LINE
  5
1CD
100
AcDbEntity
  8
1
  6
CONTINUOUS
 62
           3
100
AcDbLine
 10
-660.0
 20
440.451609291842
 11
-660.0
 21
465.451609291842
  0
LINE
  5
1CC
100
AcDbEntity
  8
1
  6
CONTINUOUS
 62
           3
100
AcDbLine
 10
-675.0
 20
465.451609291842
 11
-660.0
 21
465.451609291842
  0
LINE
  5
1CB
100
AcDbEntity
  8
1
  6
CONTINUOUS
 62
           3
100
AcDbLine
 10
-795.0
 20
435.951609291842
 11
-648.0
 21
435.951609291842
  0
LINE
  5
1CA
100
AcDbEntity
  8
1
  6
CONTINUOUS
 62
           3
100
AcDbLine
 10
-795.0
 20
435.951609291842
 11
-795.0
 21
440.451609291842
  0
LINE
  5
1C9
100
AcDbEntity
  8
1
  6
DOT_CENTER
 62
           3
100
AcDbLine
 10
-782.0
 20
425.669954979552
 11
-782.0
 21
449.451609291842
  0
LINE
  5
1C8
100
AcDbEntity
  8
1
  6
DOT_CENTER
 62
           3
100
AcDbLine
 10
-737.0
 20
424.103463587241
 11
-737.0
 21
449.451609291842
  0
LINE
  5
1C7
100
AcDbEntity
  8
1
  6
DOT_CENTER
 62
           3
100
AcDbLine
 10
-692.0
 20
422.760756679552
 11
-692.0
 21
449.451609291842
  0
LINE
  5
1C6
100
AcDbEntity
  8
1
  6
DOT_CENTER
 62
           3
100
AcDbLine
 10
-613.0
 20
445.829222474761
 11
-613.0
 21
473.57245574299
  0
LINE
  5
1C5
100
AcDbEntity
  8
1
  6
CONTINUOUS
 62
           3
100
AcDbLine
 10
-3759.999999999999
 20
455.951609291842
 11
-3705.895578792597
 21
455.951609291842
  0
LINE
  5
1C4
100
AcDbEntity
  8
1
  6
CONTINUOUS
 62
           3
100
AcDbLine
 10
-3759.999999999999
 20
451.451609291842
 11
-3710.010349420651
 21
451.451609291842
  0
LINE
  5
1C3
100
AcDbEntity
  8
1
  6
CONTINUOUS
 62
           3
100
AcDbLine
 10
-3759.999999999999
 20
455.951609291842
 11
-3759.999999999999
 21
451.451609291842
  0
LINE
  5
1C2
100
AcDbEntity
  8
1
  6
DOT_CENTER
 62
           3
100
AcDbLine
 10
-3700.0
 20
458.846544596021
 11
-3700.0
 21
432.585365482421
  0
LINE
  5
1C1
100
AcDbEntity
  8
1
  6
DOT_CENTER
 62
           3
100
AcDbLine
 10
-3712.898165751849
 20
445.951609291842
 11
-3688.819147653415
 21
445.951609291842
  0
LINE
  5
1C0
100
AcDbEntity
  8
1
  6
CONTINUOUS
 62
           3
100
AcDbLine
 10
-3695.796975629713
 20
442.404133267572
 11
-3691.648353455755
 21
440.451609291842
  0
LINE
  5
1BF
100
AcDbEntity
  8
1
  6
CONTINUOUS
 62
           3
100
AcDbLine
 10
-2178.0
 20
440.451609291842
 11
-2178.0
 21
465.451609291842
  0
LINE
  5
1BE
100
AcDbEntity
  8
1
  6
CONTINUOUS
 62
           3
100
AcDbLine
 10
-2193.0
 20
465.451609291842
 11
-2178.0
 21
465.451609291842
  0
LINE
  5
1BD
100
AcDbEntity
  8
1
  6
CONTINUOUS
 62
           3
100
AcDbLine
 10
-2178.0
 20
440.451609291842
 11
-3700.0
 21
440.451609291842
  0
LINE
  5
1BC
100
AcDbEntity
  8
1
  6
CONTINUOUS
 62
           3
100
AcDbLine
 10
-3688.0
 20
465.451609291842
 11
-3673.0
 21
465.451609291842
  0
LINE
  5
1BB
100
AcDbEntity
  8
1
  6
CONTINUOUS
 62
           3
100
AcDbLine
 10
-3700.0
 20
435.951609291842
 11
-3553.0
 21
435.951609291842
  0
LINE
  5
1BA
100
AcDbEntity
  8
1
  6
CONTINUOUS
 62
           3
100
AcDbLine
 10
-3553.0
 20
440.451609291842
 11
-3553.0
 21
435.951609291842
  0
LINE
  5
1B9
100
AcDbEntity
  8
1
  6
DOT_CENTER
 62
           3
100
AcDbLine
 10
-3566.0
 20
449.451609291842
 11
-3566.0
 21
425.669954979552
  0
LINE
  5
1B8
100
AcDbEntity
  8
1
  6
DOT_CENTER
 62
           3
100
AcDbLine
 10
-3611.0
 20
449.451609291842
 11
-3611.0
 21
424.103463587241
  0
LINE
  5
1B7
100
AcDbEntity
  8
1
  6
DOT_CENTER
 62
           3
100
AcDbLine
 10
-3656.0
 20
449.451609291842
 11
-3656.0
 21
422.760756679552
  0
LINE
  5
1B6
100
AcDbEntity
  8
1
  6
DOT_CENTER
 62
           3
100
AcDbLine
 10
-3735.0
 20
473.57245574299
 11
-3735.0
 21
445.829222474761
  0
LINE
  5
1B5
100
AcDbEntity
  8
1
  6
DOT_CENTER
 62
           3
100
AcDbLine
 10
-2118.0
 20
453.523706901202
 11
-2118.0
 21
399.967480129522
  0
LINE
  5
1B4
100
AcDbEntity
  8
1
  6
DOT_CENTER
 62
           3
100
AcDbLine
 10
-2147.0
 20
449.024983852393
 11
-2147.0
 21
426.531368608272
  0
LINE
  5
1B3
100
AcDbEntity
  8
1
  6
DOT_CENTER
 62
           3
100
AcDbLine
 10
-2089.0
 20
450.738783109071
 11
-2089.0
 21
428.67361767915
  0
LINE
  5
1B2
100
AcDbEntity
  8
1
  6
DOT_CENTER
 62
           3
100
AcDbLine
 10
-1975.0
 20
455.308914460262
 11
-1975.0
 21
418.414624906433
  0
LINE
  5
1B1
100
AcDbEntity
  8
1
  6
DOT_CENTER
 62
           3
100
AcDbLine
 10
-1959.0
 20
453.523706901202
 11
-1959.0
 21
419.853190221013
  0
LINE
  5
1B0
100
AcDbEntity
  8
1
  6
DOT_CENTER
 62
           3
100
AcDbLine
 10
-2213.0
 20
451.802448393562
 11
-2213.0
 21
425.625649121921
  0
LINE
  5
1AF
100
AcDbEntity
  8
1
  6
DOT_CENTER
 62
           3
100
AcDbLine
 10
-2219.0
 20
451.802448393562
 11
-2219.0
 21
425.625649121921
  0
LINE
  5
1AE
100
AcDbEntity
  8
1
  6
PHANTOM
 62
           3
100
AcDbLine
 10
-521.0
 20
-3222.959560114346
 11
-100.999999999999
 21
-3222.959560114346
  0
LINE
  5
1AD
100
AcDbEntity
  8
1
  6
PHANTOM
 62
           3
100
AcDbLine
 10
-100.999999999999
 20
-3222.959560114346
 11
-101.0
 21
-3695.959560114347
  0
LINE
  5
1AC
100
AcDbEntity
  8
1
  6
PHANTOM
 62
           3
100
AcDbLine
 10
-101.0
 20
-3695.959560114347
 11
-521.0
 21
-3695.959560114347
  0
LINE
  5
1AB
100
AcDbEntity
  8
1
  6
PHANTOM
 62
           3
100
AcDbLine
 10
-521.0
 20
-3695.959560114347
 11
-521.0
 21
-3222.959560114346
  0
LINE
  5
1AA
100
AcDbEntity
  8
1
  6
PHANTOM
 62
           3
100
AcDbLine
 10
-97.0
 20
-3403.459560114346
 11
-23.0
 21
-3403.459560114346
  0
LINE
  5
1A9
100
AcDbEntity
  8
1
  6
PHANTOM
 62
           3
100
AcDbLine
 10
-23.0
 20
-3403.459560114346
 11
-23.0
 21
-3477.459560114347
  0
LINE
  5
1A8
100
AcDbEntity
  8
1
  6
PHANTOM
 62
           3
100
AcDbLine
 10
-23.0
 20
-3477.459560114347
 11
-97.0
 21
-3477.459560114347
  0
LINE
  5
1A7
100
AcDbEntity
  8
1
  6
PHANTOM
 62
           3
100
AcDbLine
 10
-97.0
 20
-3477.459560114347
 11
-97.0
 21
-3403.459560114346
  0
LINE
  5
1A6
100
AcDbEntity
  8
1
  6
PHANTOM
 62
           3
100
AcDbLine
 10
-398.0
 20
-3695.959560114346
 11
-198.0
 21
-3695.959560114346
  0
LINE
  5
1A5
100
AcDbEntity
  8
1
  6
PHANTOM
 62
           3
100
AcDbLine
 10
-198.0
 20
-3695.959560114346
 11
-198.0
 21
-3530.459560114347
  0
LINE
  5
1A4
100
AcDbEntity
  8
1
  6
PHANTOM
 62
           3
100
AcDbLine
 10
-398.0
 20
-3495.959560114346
 11
-398.0
 21
-3541.959560114347
  0
LINE
  5
1A3
100
AcDbEntity
  8
1
  6
DOT_CENTER
 62
           3
100
AcDbLine
 10
-362.043182908959
 20
-3420.459560114347
 11
-120.94641211323
 21
-3420.459560114347
  0
LINE
  5
1A2
100
AcDbEntity
  8
1
  6
PHANTOM
 62
           3
100
AcDbLine
 10
-323.0
 20
-3530.459560114347
 11
-273.0
 21
-3530.459560114347
  0
LINE
  5
1A1
100
AcDbEntity
  8
1
  6
PHANTOM
 62
           3
100
AcDbLine
 10
-273.0
 20
-3530.459560114347
 11
-273.0
 21
-3392.459560114347
  0
LINE
  5
1A0
100
AcDbEntity
  8
1
  6
PHANTOM
 62
           3
100
AcDbLine
 10
-323.0
 20
-3310.459560114347
 11
-323.0
 21
-3530.459560114347
  0
LINE
  5
19F
100
AcDbEntity
  8
1
  6
PHANTOM
 62
           3
100
AcDbLine
 10
-259.0
 20
-3530.459560114347
 11
-209.0
 21
-3530.459560114349
  0
LINE
  5
19E
100
AcDbEntity
  8
1
  6
PHANTOM
 62
           3
100
AcDbLine
 10
-209.0
 20
-3530.459560114349
 11
-209.0
 21
-3392.459560114347
  0
LINE
  5
19D
100
AcDbEntity
  8
1
  6
PHANTOM
 62
           3
100
AcDbLine
 10
-259.0
 20
-3392.459560114347
 11
-259.0
 21
-3530.459560114347
  0
LINE
  5
19C
100
AcDbEntity
  8
1
  6
PHANTOM
 62
           3
100
AcDbLine
 10
-195.0
 20
-3530.459560114347
 11
-145.0
 21
-3530.459560114347
  0
LINE
  5
19B
100
AcDbEntity
  8
1
  6
PHANTOM
 62
           3
100
AcDbLine
 10
-145.0
 20
-3530.459560114347
 11
-145.0
 21
-3310.459560114347
  0
LINE
  5
19A
100
AcDbEntity
  8
1
  6
PHANTOM
 62
           3
100
AcDbLine
 10
-145.0
 20
-3310.459560114347
 11
-159.999999999999
 21
-3310.459560114346
  0
LINE
  5
199
100
AcDbEntity
  8
1
  6
PHANTOM
 62
           3
100
AcDbLine
 10
-195.0
 20
-3392.459560114347
 11
-195.0
 21
-3530.459560114347
  0
LINE
  5
198
100
AcDbEntity
  8
1
  6
PHANTOM
 62
           3
100
AcDbLine
 10
-273.0
 20
-3530.459560114347
 11
-259.0
 21
-3530.459560114347
  0
LINE
  5
197
100
AcDbEntity
  8
1
  6
PHANTOM
 62
           3
100
AcDbLine
 10
-209.0
 20
-3530.459560114349
 11
-195.0
 21
-3530.459560114347
  0
LINE
  5
196
100
AcDbEntity
  8
1
  6
PHANTOM
 62
           3
100
AcDbLine
 10
-323.0
 20
-3495.959560114346
 11
-398.0
 21
-3495.959560114346
  0
LINE
  5
195
100
AcDbEntity
  8
1
  6
DOT_CENTER
 62
           3
100
AcDbLine
 10
-508.63786956614
 20
-3440.459560114346
 11
0.000000000001
 21
-3440.459560114346
  0
LINE
  5
194
100
AcDbEntity
  8
1
  6
DOT_CENTER
 62
           3
100
AcDbLine
 10
-480.0
 20
-3719.517621620848
 11
-480.0
 21
-3204.447453188949
  0
LINE
  5
193
100
AcDbEntity
  8
1
  6
DOT_CENTER
 62
           3
100
AcDbLine
 10
-538.799999999999
 20
-3264.959560114347
 11
-421.2
 21
-3264.959560114347
  0
LINE
  5
192
100
AcDbEntity
  8
1
  6
PHANTOM
 62
           3
100
AcDbLine
 10
-499.0
 20
-3623.459560114347
 11
-461.0
 21
-3623.459560114347
  0
LINE
  5
191
100
AcDbEntity
  8
1
  6
PHANTOM
 62
           3
100
AcDbLine
 10
-461.0
 20
-3623.459560114347
 11
-461.0
 21
-3608.459560114347
  0
LINE
  5
190
100
AcDbEntity
  8
1
  6
PHANTOM
 62
           3
100
AcDbLine
 10
-461.0
 20
-3608.459560114347
 11
-499.0
 21
-3608.459560114347
  0
LINE
  5
18F
100
AcDbEntity
  8
1
  6
PHANTOM
 62
           3
100
AcDbLine
 10
-499.0
 20
-3608.459560114347
 11
-499.0
 21
-3623.459560114347
  0
LINE
  5
18E
100
AcDbEntity
  8
1
  6
PHANTOM
 62
           3
100
AcDbLine
 10
-494.0
 20
-3608.459560114347
 11
-494.0
 21
-3595.959560114347
  0
LINE
  5
18D
100
AcDbEntity
  8
1
  6
PHANTOM
 62
           3
100
AcDbLine
 10
-466.0
 20
-3607.851394977747
 11
-466.0
 21
-3595.959560114347
  0
LINE
  5
18C
100
AcDbEntity
  8
1
  6
PHANTOM
 62
           3
100
AcDbLine
 10
-494.0
 20
-3595.959560114347
 11
-466.0
 21
-3595.959560114347
  0
LINE
  5
18B
100
AcDbEntity
  8
1
  6
PHANTOM
 62
           3
100
AcDbLine
 10
-494.0
 20
-3635.959560114347
 11
-466.0
 21
-3635.959560114347
  0
LINE
  5
18A
100
AcDbEntity
  8
1
  6
PHANTOM
 62
           3
100
AcDbLine
 10
-494.0
 20
-3635.959560114347
 11
-494.0
 21
-3623.459560114347
  0
LINE
  5
189
100
AcDbEntity
  8
1
  6
PHANTOM
 62
           3
100
AcDbLine
 10
-466.0
 20
-3635.959560114347
 11
-466.0
 21
-3623.459560114347
  0
LINE
  5
188
100
AcDbEntity
  8
1
  6
PHANTOM
 62
           3
100
AcDbLine
 10
-517.0
 20
-3307.959560114346
 11
-443.0
 21
-3307.959560114346
  0
LINE
  5
187
100
AcDbEntity
  8
1
  6
PHANTOM
 62
           3
100
AcDbLine
 10
-443.0
 20
-3307.959560114346
 11
-443.0
 21
-3381.959560114347
  0
LINE
  5
186
100
AcDbEntity
  8
1
  6
PHANTOM
 62
           3
100
AcDbLine
 10
-443.0
 20
-3381.959560114347
 11
-517.0
 21
-3381.959560114347
  0
LINE
  5
185
100
AcDbEntity
  8
1
  6
PHANTOM
 62
           3
100
AcDbLine
 10
-517.0
 20
-3381.959560114347
 11
-517.0
 21
-3307.959560114346
  0
LINE
  5
184
100
AcDbEntity
  8
1
  6
PHANTOM
 62
           3
100
AcDbLine
 10
-521.903366550619
 20
-3344.959560114347
 11
-439.23852577231
 21
-3344.959560114347
  0
LINE
  5
183
100
AcDbEntity
  8
1
  6
PHANTOM
 62
           3
100
AcDbLine
 10
-318.0
 20
-3392.459560114347
 11
-159.999999999999
 21
-3392.459560114347
  0
LINE
  5
182
100
AcDbEntity
  8
1
  6
PHANTOM
 62
           3
100
AcDbLine
 10
-159.999999999999
 20
-3392.459560114347
 11
-159.999999999999
 21
-3230.459560114346
  0
LINE
  5
181
100
AcDbEntity
  8
1
  6
PHANTOM
 62
           3
100
AcDbLine
 10
-159.999999999999
 20
-3230.459560114346
 11
-318.0
 21
-3230.459560114346
  0
LINE
  5
180
100
AcDbEntity
  8
1
  6
PHANTOM
 62
           3
100
AcDbLine
 10
-318.0
 20
-3230.459560114346
 11
-318.0
 21
-3392.459560114347
  0
LINE
  5
17F
100
AcDbEntity
  8
1
  6
PHANTOM
 62
           3
100
AcDbLine
 10
-318.0
 20
-3310.459560114346
 11
-323.0
 21
-3310.459560114347
  0
LINE
  5
17E
100
AcDbEntity
  8
1
  6
PHANTOM
 62
           3
100
AcDbLine
 10
-308.807583936799
 20
-3265.440714487546
 11
-260.068489880859
 21
-3265.440714487546
  0
LINE
  5
17D
100
AcDbEntity
  8
1
  6
PHANTOM
 62
           3
100
AcDbLine
 10
-260.068489880859
 20
-3265.440714487546
 11
-260.068489880859
 21
-3237.415735405349
  0
LINE
  5
17C
100
AcDbEntity
  8
1
  6
PHANTOM
 62
           3
100
AcDbLine
 10
-260.068489880859
 20
-3237.415735405349
 11
-308.807583936799
 21
-3237.415735405349
  0
LINE
  5
17B
100
AcDbEntity
  8
1
  6
PHANTOM
 62
           3
100
AcDbLine
 10
-308.807583936799
 20
-3237.415735405349
 11
-308.807583936799
 21
-3265.440714487546
  0
LINE
  5
17A
100
AcDbEntity
  8
1
  6
PHANTOM
 62
           3
100
AcDbLine
 10
-318.0
 20
-3354.459560114347
 11
-159.999999999999
 21
-3354.459560114347
  0
LINE
  5
179
100
AcDbEntity
  8
1
  6
PHANTOM
 62
           3
100
AcDbLine
 10
-495.0
 20
-3515.959560114347
 11
-465.0
 21
-3515.959560114347
  0
LINE
  5
178
100
AcDbEntity
  8
1
  6
PHANTOM
 62
           3
100
AcDbLine
 10
-492.0
 20
-3477.959560114346
 11
-468.0
 21
-3477.959560114346
  0
LINE
  5
177
100
AcDbEntity
  8
1
  6
PHANTOM
 62
           3
100
AcDbLine
 10
-492.0
 20
-3477.959560114346
 11
-495.0
 21
-3510.959560114347
  0
LINE
  5
176
100
AcDbEntity
  8
1
  6
PHANTOM
 62
           3
100
AcDbLine
 10
-495.0
 20
-3510.959560114347
 11
-495.0
 21
-3515.959560114347
  0
LINE
  5
175
100
AcDbEntity
  8
1
  6
PHANTOM
 62
           3
100
AcDbLine
 10
-465.0
 20
-3510.959560114347
 11
-468.0
 21
-3477.959560114346
  0
LINE
  5
174
100
AcDbEntity
  8
1
  6
PHANTOM
 62
           3
100
AcDbLine
 10
-465.0
 20
-3515.959560114347
 11
-465.0
 21
-3510.959560114347
  0
LINE
  5
173
100
AcDbEntity
  8
1
  6
PHANTOM
 62
           3
100
AcDbLine
 10
-489.0
 20
-3515.959560114347
 11
-489.0
 21
-3541.959560114347
  0
LINE
  5
172
100
AcDbEntity
  8
1
  6
PHANTOM
 62
           3
100
AcDbLine
 10
-471.0
 20
-3515.959560114347
 11
-471.0
 21
-3541.959560114347
  0
LINE
  5
171
100
AcDbEntity
  8
1
  6
PHANTOM
 62
           3
100
AcDbLine
 10
-489.0
 20
-3477.959560114346
 11
-489.0
 21
-3462.459560114347
  0
LINE
  5
170
100
AcDbEntity
  8
1
  6
PHANTOM
 62
           3
100
AcDbLine
 10
-471.0
 20
-3477.959560114346
 11
-471.0
 21
-3462.459560114347
  0
LINE
  5
16F
100
AcDbEntity
  8
1
  6
PHANTOM
 62
           3
100
AcDbLine
 10
-458.0
 20
-3428.459560114346
 11
-458.0
 21
-3452.459560114346
  0
LINE
  5
16E
100
AcDbEntity
  8
1
  6
PHANTOM
 62
           3
100
AcDbLine
 10
-480.0
 20
-3428.459560114346
 11
-458.0
 21
-3428.459560114346
  0
LINE
  5
16D
100
AcDbEntity
  8
1
  6
PHANTOM
 62
           3
100
AcDbLine
 10
-458.0
 20
-3452.459560114346
 11
-480.0
 21
-3452.459560114346
  0
LINE
  5
16C
100
AcDbEntity
  8
1
  6
PHANTOM
 62
           3
100
AcDbLine
 10
-468.0
 20
-3428.459560114346
 11
-468.0
 21
-3418.459560114346
  0
LINE
  5
16B
100
AcDbEntity
  8
1
  6
PHANTOM
 62
           3
100
AcDbLine
 10
-492.0
 20
-3418.459560114346
 11
-492.0
 21
-3462.459560114347
  0
LINE
  5
16A
100
AcDbEntity
  8
1
  6
PHANTOM
 62
           3
100
AcDbLine
 10
-492.0
 20
-3462.459560114347
 11
-468.0
 21
-3462.459560114347
  0
LINE
  5
169
100
AcDbEntity
  8
1
  6
PHANTOM
 62
           3
100
AcDbLine
 10
-492.0
 20
-3418.459560114346
 11
-468.0
 21
-3418.459560114346
  0
LINE
  5
168
100
AcDbEntity
  8
1
  6
PHANTOM
 62
           3
100
AcDbLine
 10
-468.0
 20
-3452.459560114344
 11
-468.0
 21
-3462.459560114347
  0
LINE
  5
167
100
AcDbEntity
  8
1
  6
PHANTOM
 62
           3
100
AcDbLine
 10
-489.0
 20
-3418.459560114346
 11
-489.0
 21
-3381.959560114347
  0
LINE
  5
166
100
AcDbEntity
  8
1
  6
PHANTOM
 62
           3
100
AcDbLine
 10
-471.0
 20
-3418.459560114346
 11
-471.0
 21
-3381.959560114347
  0
LINE
  5
165
100
AcDbEntity
  8
1
  6
PHANTOM
 62
           3
100
AcDbLine
 10
-378.0
 20
-3675.959560114347
 11
-218.0
 21
-3675.959560114347
  0
LINE
  5
164
100
AcDbEntity
  8
1
  6
PHANTOM
 62
           3
100
AcDbLine
 10
-378.0
 20
-3675.959560114347
 11
-378.0
 21
-3515.959560114347
  0
LINE
  5
163
100
AcDbEntity
  8
1
  6
PHANTOM
 62
           3
100
AcDbLine
 10
-378.0
 20
-3515.959560114347
 11
-323.0
 21
-3515.959560114347
  0
LINE
  5
162
100
AcDbEntity
  8
1
  6
PHANTOM
 62
           3
100
AcDbLine
 10
-218.0
 20
-3675.959560114347
 11
-218.0
 21
-3530.459560114347
  0
LINE
  5
161
100
AcDbEntity
  8
1
  6
PHANTOM
 62
           3
100
AcDbLine
 10
-504.0
 20
-3541.959560114347
 11
-378.0
 21
-3541.959560114347
  0
LINE
  5
160
100
AcDbEntity
  8
1
  6
PHANTOM
 62
           3
100
AcDbLine
 10
-504.0
 20
-3571.959560114347
 11
-378.0
 21
-3571.959560114347
  0
LINE
  5
15F
100
AcDbEntity
  8
1
  6
PHANTOM
 62
           3
100
AcDbLine
 10
-504.0
 20
-3541.959560114347
 11
-504.0
 21
-3571.959560114347
  0
LINE
  5
15E
100
AcDbEntity
  8
1
  6
PHANTOM
 62
           3
100
AcDbLine
 10
-398.0
 20
-3571.959560114347
 11
-398.0
 21
-3695.959560114346
  0
LINE
  5
15D
100
AcDbEntity
  8
1
  6
PHANTOM
 62
           3
100
AcDbLine
 10
-489.0
 20
-3571.959560114347
 11
-489.0
 21
-3595.959560114347
  0
LINE
  5
15C
100
AcDbEntity
  8
1
  6
PHANTOM
 62
           3
100
AcDbLine
 10
-471.0
 20
-3571.959560114347
 11
-471.0
 21
-3595.959560114347
  0
LINE
  5
15B
100
AcDbEntity
  8
1
  6
PHANTOM
 62
           3
100
AcDbLine
 10
-460.355020021021
 20
-3594.959560114346
 11
-386.355020021019
 21
-3594.959560114346
  0
LINE
  5
15A
100
AcDbEntity
  8
1
  6
PHANTOM
 62
           3
100
AcDbLine
 10
-386.355020021019
 20
-3594.959560114346
 11
-386.355020021021
 21
-3668.959560114347
  0
LINE
  5
159
100
AcDbEntity
  8
1
  6
PHANTOM
 62
           3
100
AcDbLine
 10
-386.355020021021
 20
-3668.959560114347
 11
-460.355020021021
 21
-3668.959560114347
  0
LINE
  5
158
100
AcDbEntity
  8
1
  6
PHANTOM
 62
           3
100
AcDbLine
 10
-460.355020021021
 20
-3668.959560114347
 11
-460.355020021021
 21
-3594.959560114346
  0
LINE
  5
157
100
AcDbEntity
  8
1
  6
DOT_CENTER
 62
           3
100
AcDbLine
 10
-465.25838657164
 20
-3631.959560114347
 11
-382.59354579333
 21
-3631.959560114347
  0
LINE
  5
156
100
AcDbEntity
  8
1
  6
DOT_CENTER
 62
           3
100
AcDbLine
 10
-423.355020021019
 20
-3588.613093053748
 11
-423.355020021019
 21
-3676.11154369315
  0
LINE
  5
155
100
AcDbEntity
  8
1
  6
CONTINUOUS
 62
           3
100
AcDbLine
 10
-505.0
 20
-3027.159560114348
 11
-400.0
 21
-3027.159560114348
  0
LINE
  5
154
100
AcDbEntity
  8
1
  6
CONTINUOUS
 62
           3
100
AcDbLine
 10
-505.0
 20
-2987.159560114349
 11
-505.0
 21
-3027.159560114348
  0
LINE
  5
153
100
AcDbEntity
  8
1
  6
CONTINUOUS
 62
           3
100
AcDbLine
 10
-400.0
 20
-2987.159560114349
 11
-505.0
 21
-2987.159560114349
  0
LINE
  5
152
100
AcDbEntity
  8
1
  6
CONTINUOUS
 62
           3
100
AcDbLine
 10
-330.0
 20
-2717.159560114349
 11
-330.0
 21
-2732.159560114349
  0
LINE
  5
151
100
AcDbEntity
  8
1
  6
CONTINUOUS
 62
           3
100
AcDbLine
 10
-330.0
 20
-2732.159560114349
 11
-285.0
 21
-2732.159560114349
  0
LINE
  5
150
100
AcDbEntity
  8
1
  6
CONTINUOUS
 62
           3
100
AcDbLine
 10
-285.0
 20
-2732.159560114349
 11
-285.0
 21
-2717.159560114349
  0
LINE
  5
14F
100
AcDbEntity
  8
1
  6
CONTINUOUS
 62
           3
100
AcDbLine
 10
-285.0
 20
-2717.159560114349
 11
-330.0
 21
-2717.159560114349
  0
LINE
  5
14E
100
AcDbEntity
  8
1
  6
CONTINUOUS
 62
           3
100
AcDbLine
 10
-332.5
 20
-2742.159560114349
 11
-332.5
 21
-2792.159560114349
  0
LINE
  5
14D
100
AcDbEntity
  8
1
  6
CONTINUOUS
 62
           3
100
AcDbLine
 10
-332.5
 20
-2792.159560114349
 11
-282.5
 21
-2792.159560114349
  0
LINE
  5
14C
100
AcDbEntity
  8
1
  6
CONTINUOUS
 62
           3
100
AcDbLine
 10
-282.5
 20
-2792.159560114349
 11
-282.5
 21
-2742.159560114349
  0
LINE
  5
14B
100
AcDbEntity
  8
1
  6
CONTINUOUS
 62
           3
100
AcDbLine
 10
-282.5
 20
-2742.159560114349
 11
-332.5
 21
-2742.159560114349
  0
LINE
  5
14A
100
AcDbEntity
  8
1
  6
CONTINUOUS
 62
           3
100
AcDbLine
 10
-337.5
 20
-2892.159560114349
 11
-337.5
 21
-2942.159560114349
  0
LINE
  5
149
100
AcDbEntity
  8
1
  6
CONTINUOUS
 62
           3
100
AcDbLine
 10
-337.5
 20
-2942.159560114349
 11
-277.5
 21
-2942.159560114349
  0
LINE
  5
148
100
AcDbEntity
  8
1
  6
CONTINUOUS
 62
           3
100
AcDbLine
 10
-277.5
 20
-2942.159560114349
 11
-277.5
 21
-2892.159560114349
  0
LINE
  5
147
100
AcDbEntity
  8
1
  6
CONTINUOUS
 62
           3
100
AcDbLine
 10
-277.5
 20
-2892.159560114349
 11
-337.5
 21
-2892.159560114349
  0
LINE
  5
146
100
AcDbEntity
  8
1
  6
CONTINUOUS
 62
           3
100
AcDbLine
 10
-312.5
 20
-2907.159560114349
 11
-312.5
 21
-2927.159560114349
  0
LINE
  5
145
100
AcDbEntity
  8
1
  6
CONTINUOUS
 62
           3
100
AcDbLine
 10
-312.5
 20
-2927.159560114349
 11
-302.5
 21
-2927.159560114349
  0
LINE
  5
144
100
AcDbEntity
  8
1
  6
CONTINUOUS
 62
           3
100
AcDbLine
 10
-302.5
 20
-2927.159560114349
 11
-302.5
 21
-2907.159560114349
  0
LINE
  5
143
100
AcDbEntity
  8
1
  6
CONTINUOUS
 62
           3
100
AcDbLine
 10
-302.5
 20
-2907.159560114349
 11
-312.5
 21
-2907.159560114349
  0
LINE
  5
142
100
AcDbEntity
  8
1
  6
CONTINUOUS
 62
           3
100
AcDbLine
 10
-179.999999999999
 20
-2772.159560114349
 11
-179.999999999999
 21
-2922.159560114349
  0
LINE
  5
141
100
AcDbEntity
  8
1
  6
CONTINUOUS
 62
           3
100
AcDbLine
 10
-179.999999999999
 20
-2922.159560114349
 11
-34.999999999999
 21
-2922.159560114349
  0
LINE
  5
140
100
AcDbEntity
  8
1
  6
CONTINUOUS
 62
           3
100
AcDbLine
 10
-34.999999999999
 20
-2922.159560114349
 11
-34.999999999999
 21
-2772.159560114349
  0
LINE
  5
13F
100
AcDbEntity
  8
1
  6
CONTINUOUS
 62
           3
100
AcDbLine
 10
-34.999999999999
 20
-2772.159560114349
 11
-179.999999999999
 21
-2772.159560114349
  0
LINE
  5
13E
100
AcDbEntity
  8
1
  6
CONTINUOUS
 62
           3
100
AcDbLine
 10
-235.0
 20
-2787.159560114349
 11
-235.0
 21
-2807.159560114349
  0
LINE
  5
13D
100
AcDbEntity
  8
1
  6
CONTINUOUS
 62
           3
100
AcDbLine
 10
-235.0
 20
-2807.159560114349
 11
-204.999999999999
 21
-2807.159560114349
  0
LINE
  5
13C
100
AcDbEntity
  8
1
  6
CONTINUOUS
 62
           3
100
AcDbLine
 10
-204.999999999999
 20
-2807.159560114349
 11
-204.999999999999
 21
-2787.159560114349
  0
LINE
  5
13B
100
AcDbEntity
  8
1
  6
CONTINUOUS
 62
           3
100
AcDbLine
 10
-204.999999999999
 20
-2787.159560114349
 11
-235.0
 21
-2787.159560114349
  0
LINE
  5
13A
100
AcDbEntity
  8
1
  6
CONTINUOUS
 62
           3
100
AcDbLine
 10
-235.0
 20
-2847.159560114349
 11
-235.0
 21
-2867.159560114349
  0
LINE
  5
139
100
AcDbEntity
  8
1
  6
CONTINUOUS
 62
           3
100
AcDbLine
 10
-235.0
 20
-2867.159560114349
 11
-204.999999999999
 21
-2867.159560114349
  0
LINE
  5
138
100
AcDbEntity
  8
1
  6
CONTINUOUS
 62
           3
100
AcDbLine
 10
-204.999999999999
 20
-2867.159560114349
 11
-204.999999999999
 21
-2847.159560114349
  0
LINE
  5
137
100
AcDbEntity
  8
1
  6
CONTINUOUS
 62
           3
100
AcDbLine
 10
-204.999999999999
 20
-2847.159560114349
 11
-235.0
 21
-2847.159560114349
  0
LINE
  5
136
100
AcDbEntity
  8
1
  6
CONTINUOUS
 62
           2
100
AcDbLine
 10
0.000000000001
 20
-2497.159560114349
 11
7.000000000001
 21
-2497.159560114349
  0
LINE
  5
135
100
AcDbEntity
  8
1
  6
CONTINUOUS
 62
           2
100
AcDbLine
 10
7.000000000001
 20
-2497.159560114349
 11
7.000000000001
 21
-2547.159560114349
  0
LINE
  5
134
100
AcDbEntity
  8
1
  6
CONTINUOUS
 62
           2
100
AcDbLine
 10
7.000000000001
 20
-2547.159560114349
 11
0.000000000001
 21
-2547.159560114349
  0
LINE
  5
133
100
AcDbEntity
  8
1
  6
CONTINUOUS
 62
           2
100
AcDbLine
 10
0.000000000001
 20
-2509.659560114349
 11
7.000000000001
 21
-2509.659560114349
  0
LINE
  5
132
100
AcDbEntity
  8
1
  6
CONTINUOUS
 62
           2
100
AcDbLine
 10
0.000000000001
 20
-2522.159560114349
 11
7.000000000001
 21
-2522.159560114349
  0
LINE
  5
131
100
AcDbEntity
  8
1
  6
CONTINUOUS
 62
           2
100
AcDbLine
 10
0.000000000001
 20
-2534.659560114349
 11
7.000000000001
 21
-2534.659560114349
  0
LINE
  5
130
100
AcDbEntity
  8
1
  6
CONTINUOUS
 62
           2
100
AcDbLine
 10
0.000000000001
 20
-2947.159560114349
 11
7.000000000001
 21
-2947.159560114349
  0
LINE
  5
12F
100
AcDbEntity
  8
1
  6
CONTINUOUS
 62
           2
100
AcDbLine
 10
7.000000000001
 20
-2947.159560114349
 11
7.000000000001
 21
-2997.159560114349
  0
LINE
  5
12E
100
AcDbEntity
  8
1
  6
CONTINUOUS
 62
           2
100
AcDbLine
 10
7.000000000001
 20
-2997.159560114349
 11
0.000000000001
 21
-2997.159560114349
  0
LINE
  5
12D
100
AcDbEntity
  8
1
  6
CONTINUOUS
 62
           2
100
AcDbLine
 10
0.000000000001
 20
-2959.659560114349
 11
7.000000000001
 21
-2959.659560114349
  0
LINE
  5
12C
100
AcDbEntity
  8
1
  6
CONTINUOUS
 62
           2
100
AcDbLine
 10
0.000000000001
 20
-2972.159560114349
 11
7.000000000001
 21
-2972.159560114349
  0
LINE
  5
12B
100
AcDbEntity
  8
1
  6
CONTINUOUS
 62
           2
100
AcDbLine
 10
0.000000000001
 20
-2984.659560114349
 11
7.000000000001
 21
-2984.659560114349
  0
LINE
  5
12A
100
AcDbEntity
  8
1
  6
CONTINUOUS
 62
           2
100
AcDbLine
 10
-400.0
 20
-2827.159560114349
 11
-418.0
 21
-2827.159560114349
  0
LINE
  5
129
100
AcDbEntity
  8
1
  6
CONTINUOUS
 62
           2
100
AcDbLine
 10
-418.0
 20
-2827.159560114349
 11
-418.0
 21
-2867.159560114349
  0
LINE
  5
128
100
AcDbEntity
  8
1
  6
CONTINUOUS
 62
           2
100
AcDbLine
 10
-418.0
 20
-2867.159560114349
 11
-400.0
 21
-2867.159560114349
  0
LINE
  5
127
100
AcDbEntity
  8
1
  6
CONTINUOUS
 62
           3
100
AcDbLine
 10
-300.0
 20
-3047.159560114348
 11
-300.0
 21
-3052.159560114348
  0
LINE
  5
126
100
AcDbEntity
  8
1
  6
CONTINUOUS
 62
           3
100
AcDbLine
 10
-300.0
 20
-3047.159560114348
 11
-99.999999999999
 21
-3047.159560114348
  0
LINE
  5
125
100
AcDbEntity
  8
1
  6
CONTINUOUS
 62
           3
100
AcDbLine
 10
-99.999999999999
 20
-3052.159560114348
 11
-99.999999999999
 21
-3047.159560114348
  0
LINE
  5
124
100
AcDbEntity
  8
1
  6
CONTINUOUS
 62
           3
100
AcDbLine
 10
-300.0
 20
-3052.159560114348
 11
-99.999999999999
 21
-3052.159560114348
  0
LINE
  5
123
100
AcDbEntity
  8
1
  6
CONTINUOUS
 62
           2
100
AcDbLine
 10
1058.661287016839
 20
-4097.159560114346
 11
4210.661287016837
 21
-4097.159560114347
  0
LINE
  5
122
100
AcDbEntity
  8
1
  6
CONTINUOUS
 62
           2
100
AcDbLine
 10
4210.661287016838
 20
-1017.159560114349
 11
3495.661287016837
 21
-1017.159560114349
  0
LINE
  5
121
100
AcDbEntity
  8
1
  6
CONTINUOUS
 62
           2
100
AcDbLine
 10
1058.661287016839
 20
-1017.159560114349
 11
1058.661287016839
 21
-4097.159560114346
  0
LINE
  5
120
100
AcDbEntity
  8
1
  6
CONTINUOUS
 62
           2
100
AcDbLine
 10
1635.661287016839
 20
-2645.159560114349
 11
4135.661287016838
 21
-2645.159560114349
  0
LINE
  5
11F
100
AcDbEntity
  8
1
  6
CONTINUOUS
 62
           2
100
AcDbLine
 10
4135.661287016838
 20
-2645.159560114349
 11
4135.66128701684
 21
-4097.159560114346
  0
LINE
  5
11E
100
AcDbEntity
  8
1
  6
CONTINUOUS
 62
           2
100
AcDbLine
 10
4135.661287016838
 20
-2645.159560114349
 11
4135.66128701684
 21
-1017.159560114349
  0
LINE
  5
11D
100
AcDbEntity
  8
1
  6
CONTINUOUS
 62
           2
100
AcDbLine
 10
1135.661287016839
 20
-4097.159560114346
 11
1135.661287016839
 21
-1017.159560114349
  0
LINE
  5
11C
100
AcDbEntity
  8
1
  6
CONTINUOUS
 62
           2
100
AcDbLine
 10
1635.661287016839
 20
-3997.159560114346
 11
4135.661287016838
 21
-3997.159560114346
  0
LINE
  5
11B
100
AcDbEntity
  8
1
  6
CONTINUOUS
 62
           3
100
AcDbLine
 10
1635.661287016839
 20
-4047.159560114346
 11
4135.661287016838
 21
-4047.159560114346
  0
LINE
  5
11A
100
AcDbEntity
  8
1
  6
CONTINUOUS
 62
           2
100
AcDbLine
 10
1135.661287016839
 20
-4032.159560114346
 11
1635.661287016839
 21
-4032.159560114346
  0
LINE
  5
119
100
AcDbEntity
  8
1
  6
CONTINUOUS
 62
           3
100
AcDbLine
 10
1135.661287016839
 20
-4027.159560114346
 11
1635.661287016839
 21
-4027.159560114346
  0
LINE
  5
118
100
AcDbEntity
  8
1
  6
CONTINUOUS
 62
           3
100
AcDbLine
 10
1635.661287016839
 20
-2671.159560114349
 11
4135.661287016839
 21
-2671.159560114349
  0
LINE
  5
117
100
AcDbEntity
  8
1
  6
CONTINUOUS
 62
           3
100
AcDbLine
 10
4135.661287016838
 20
-1094.159560114349
 11
3495.661287016837
 21
-1094.159560114348
  0
LINE
  5
116
100
AcDbEntity
  8
1
  6
CONTINUOUS
 62
           2
100
AcDbLine
 10
3295.661287016839
 20
-1017.159560114349
 11
3175.661287016839
 21
-1017.159560114349
  0
LINE
  5
115
100
AcDbEntity
  8
1
  6
CONTINUOUS
 62
           2
100
AcDbLine
 10
2510.661287016839
 20
-1017.159560114349
 11
1058.661287016839
 21
-1017.159560114349
  0
LINE
  5
114
100
AcDbEntity
  8
1
  6
CONTINUOUS
 62
           3
100
AcDbLine
 10
-3675.0
 20
2047.951609291843
 11
-675.0
 21
2047.951609291843
  0
LINE
  5
113
100
AcDbEntity
  8
1
  6
CONTINUOUS
 62
           3
100
AcDbLine
 10
-3675.0
 20
1547.951609291843
 11
-675.0
 21
1547.951609291843
  0
LINE
  5
112
100
AcDbEntity
  8
1
  6
CONTINUOUS
 62
           3
100
AcDbLine
 10
-675.0
 20
2547.951609291843
 11
-3675.0
 21
2547.951609291843
  0
LINE
  5
111
100
AcDbEntity
  8
1
  6
CONTINUOUS
 62
           3
100
AcDbLine
 10
1635.661287016839
 20
-2645.159560114349
 11
1635.661287016839
 21
-1094.159560114348
  0
LINE
  5
110
100
AcDbEntity
  8
1
  6
CONTINUOUS
 62
           3
100
AcDbLine
 10
2135.661287016839
 20
-2671.159560114349
 11
2135.661287016839
 21
-3995.959560114344
  0
LINE
  5
10F
100
AcDbEntity
  8
1
  6
CONTINUOUS
 62
           2
100
AcDbLine
 10
0.0
 20
-4097.159560114348
 11
0.0
 21
-1647.15956011435
  0
LINE
  5
10E
100
AcDbEntity
  8
1
  6
CONTINUOUS
 62
           2
100
AcDbLine
 10
2235.661287016839
 20
-1645.159560114349
 11
2235.66128701684
 21
-2645.159560114349
  0
LINE
  5
10D
100
AcDbEntity
  8
1
  6
CONTINUOUS
 62
           2
100
AcDbLine
 10
3135.661287016839
 20
-1645.15956011435
 11
3135.661287016839
 21
-2645.159560114349
  0
LINE
  5
10C
100
AcDbEntity
  8
1
  6
CONTINUOUS
 62
           3
100
AcDbLine
 10
3295.661287016839
 20
-1094.159560114348
 11
3175.661287016839
 21
-1094.159560114348
  0
LINE
  5
10B
100
AcDbEntity
  8
1
  6
CONTINUOUS
 62
           3
100
AcDbLine
 10
2510.661287016839
 20
-1094.159560114348
 11
1135.661287016839
 21
-1094.159560114348
  0
LINE
  5
10A
100
AcDbEntity
  8
1
  6
CONTINUOUS
 62
           2
100
AcDbLine
 10
-4350.0
 20
3548.951609291842
 11
-3749.999999999999
 21
3548.951609291842
  0
LINE
  5
109
100
AcDbEntity
  8
1
  6
CONTINUOUS
 62
           2
100
AcDbLine
 10
-4350.0
 20
2748.951609291842
 11
-4350.0
 21
3548.951609291842
  0
LINE
  5
108
100
AcDbEntity
  8
1
  6
CONTINUOUS
 62
           3
100
AcDbLine
 10
-4059.999999999999
 20
2653.951609291842
 11
-4029.999999999999
 21
2963.951609291842
  0
LINE
  5
107
100
AcDbEntity
  8
1
  6
CONTINUOUS
 62
           3
100
AcDbLine
 10
-4029.999999999999
 20
2653.951609291842
 11
-4059.999999999999
 21
2963.951609291842
  0
LINE
  5
106
100
AcDbEntity
  8
1
  6
DOT_CENTER
 62
           3
100
AcDbLine
 10
-3899.999999999999
 20
2664.219129669478
 11
-3899.999999999999
 21
3003.047385375441
  0
LINE
  5
105
100
AcDbEntity
  8
1
  6
CONTINUOUS
 62
           3
100
AcDbLine
 10
-3799.999999999999
 20
2708.951609291842
 11
-3999.999999999999
 21
2908.951609291842
  0
LINE
  5
104
100
AcDbEntity
  8
1
  6
CONTINUOUS
 62
           3
100
AcDbLine
 10
-3999.999999999999
 20
2708.951609291842
 11
-3799.999999999999
 21
2908.951609291842
  0
LINE
  5
103
100
AcDbEntity
  8
1
  6
CONTINUOUS
 62
           2
100
AcDbLine
 10
-3769.999999999999
 20
2678.951609291842
 11
-3769.999999999999
 21
2938.951609291842
  0
LINE
  5
102
100
AcDbEntity
  8
1
  6
CONTINUOUS
 62
           2
100
AcDbLine
 10
-3799.999999999999
 20
2708.951609291842
 11
-3799.999999999999
 21
2908.951609291842
  0
LINE
  5
101
100
AcDbEntity
  8
1
  6
CONTINUOUS
 62
           2
100
AcDbLine
 10
-3999.999999999999
 20
2705.853369420493
 11
-3999.999999999999
 21
2908.951609291842
  0
LINE
  5
100
100
AcDbEntity
  8
1
  6
CONTINUOUS
 62
           2
100
AcDbLine
 10
-3999.999999999999
 20
2908.951609291842
 11
-3799.999999999999
 21
2908.951609291842
  0
LINE
  5
FF
100
AcDbEntity
  8
1
  6
CONTINUOUS
 62
           2
100
AcDbLine
 10
-3999.999999999999
 20
2708.951609291842
 11
-3799.999999999999
 21
2708.951609291842
  0
LINE
  5
FE
100
AcDbEntity
  8
1
  6
CONTINUOUS
 62
           2
100
AcDbLine
 10
-4029.999999999999
 20
2678.951609291842
 11
-3769.999999999999
 21
2678.951609291842
  0
LINE
  5
FD
100
AcDbEntity
  8
1
  6
CONTINUOUS
 62
           2
100
AcDbLine
 10
-4029.999999999999
 20
2938.951609291842
 11
-3769.999999999999
 21
2938.951609291842
  0
LINE
  5
FC
100
AcDbEntity
  8
1
  6
CONTINUOUS
 62
           2
100
AcDbLine
 10
-4059.999999999999
 20
2653.951609291842
 11
-3750.0
 21
2653.951609291842
  0
LINE
  5
FB
100
AcDbEntity
  8
1
  6
CONTINUOUS
 62
           2
100
AcDbLine
 10
-4059.999999999999
 20
2963.951609291842
 11
-3751.999999999999
 21
2963.951609291842
  0
LINE
  5
FA
100
AcDbEntity
  8
1
  6
CONTINUOUS
 62
           2
100
AcDbLine
 10
-4029.999999999999
 20
2653.951609291842
 11
-4029.999999999999
 21
2963.951609291842
  0
LINE
  5
F9
100
AcDbEntity
  8
1
  6
CONTINUOUS
 62
           2
100
AcDbLine
 10
-4059.999999999999
 20
2653.951609291842
 11
-4059.999999999999
 21
2963.951609291842
  0
LINE
  5
F8
100
AcDbEntity
  8
1
  6
PHANTOM
 62
           3
100
AcDbLine
 10
-4106.436394911762
 20
2808.951609291842
 11
-3645.949002951851
 21
2808.951609291842
  0
LINE
  5
F7
100
AcDbEntity
  8
1
  6
CONTINUOUS
 62
           2
100
AcDbLine
 10
-4350.0
 20
1048.951609291842
 11
-3751.999999999999
 21
1048.951609291842
  0
LINE
  5
F6
100
AcDbEntity
  8
1
  6
CONTINUOUS
 62
           2
100
AcDbLine
 10
-3949.999999999999
 20
748.951609291842
 11
-4350.0
 21
748.951609291842
  0
LINE
  5
F5
100
AcDbEntity
  8
1
  6
CONTINUOUS
 62
           2
100
AcDbLine
 10
-4350.0
 20
748.951609291842
 11
-4350.0
 21
998.951609291842
  0
LINE
  5
F4
100
AcDbEntity
  8
1
  6
CONTINUOUS
 62
           2
100
AcDbLine
 10
-3949.999999999999
 20
998.951609291842
 11
-3949.999999999999
 21
748.951609291842
  0
LINE
  5
F3
100
AcDbEntity
  8
1
  6
CONTINUOUS
 62
           2
100
AcDbLine
 10
-4350.0
 20
998.951609291842
 11
-3851.999999999999
 21
998.951609291842
  0
LINE
  5
F2
100
AcDbEntity
  8
1
  6
CONTINUOUS
 62
           2
100
AcDbLine
 10
-3851.999999999999
 20
1048.951609291842
 11
-3851.999999999999
 21
998.951609291842
  0
LINE
  5
F1
100
AcDbEntity
  8
1
  6
DOT_CENTER
 62
           3
100
AcDbLine
 10
-4406.58534764896
 20
2098.951609291842
 11
-3644.68867284325
 21
2098.951609291842
  0
LINE
  5
F0
100
AcDbEntity
  8
1
  6
CONTINUOUS
 62
           2
100
AcDbLine
 10
-4350.0
 20
-3997.159560114348
 11
-3825.0
 21
-3997.159560114348
  0
LINE
  5
EF
100
AcDbEntity
  8
1
  6
CONTINUOUS
 62
           2
100
AcDbLine
 10
-4350.0
 20
-4047.159560114348
 11
-3825.0
 21
-4047.159560114348
  0
LINE
  5
EE
100
AcDbEntity
  8
1
  6
CONTINUOUS
 62
           2
100
AcDbLine
 10
-4350.0
 20
-4097.159560114348
 11
-4350.0
 21
-1647.15956011435
  0
LINE
  5
ED
100
AcDbEntity
  8
1
  6
CONTINUOUS
 62
           2
100
AcDbLine
 10
-4350.0
 20
-2447.159560114349
 11
-3950.0
 21
-2447.159560114349
  0
LINE
  5
EC
100
AcDbEntity
  8
1
  6
CONTINUOUS
 62
           2
100
AcDbLine
 10
-3949.999999999999
 20
-3047.159560114348
 11
-3950.0
 21
-2447.159560114349
  0
LINE
  5
EB
100
AcDbEntity
  8
1
  6
CONTINUOUS
 62
           2
100
AcDbLine
 10
-4350.0
 20
-3047.159560114348
 11
-3949.999999999999
 21
-3047.159560114348
  0
LINE
  5
EA
100
AcDbEntity
  8
1
  6
CONTINUOUS
 62
           3
100
AcDbLine
 10
-4280.0
 20
-2717.159560114349
 11
-4280.0
 21
-2732.159560114349
  0
LINE
  5
E9
100
AcDbEntity
  8
1
  6
CONTINUOUS
 62
           3
100
AcDbLine
 10
-4280.0
 20
-2732.159560114349
 11
-4234.999999999999
 21
-2732.159560114349
  0
LINE
  5
E8
100
AcDbEntity
  8
1
  6
CONTINUOUS
 62
           3
100
AcDbLine
 10
-4234.999999999999
 20
-2732.159560114349
 11
-4234.999999999999
 21
-2717.159560114349
  0
LINE
  5
E7
100
AcDbEntity
  8
1
  6
CONTINUOUS
 62
           3
100
AcDbLine
 10
-4234.999999999999
 20
-2717.159560114349
 11
-4280.0
 21
-2717.159560114349
  0
LINE
  5
E6
100
AcDbEntity
  8
1
  6
CONTINUOUS
 62
           3
100
AcDbLine
 10
-4282.5
 20
-2742.159560114349
 11
-4282.5
 21
-2792.159560114349
  0
LINE
  5
E5
100
AcDbEntity
  8
1
  6
CONTINUOUS
 62
           3
100
AcDbLine
 10
-4282.5
 20
-2792.159560114349
 11
-4232.499999999999
 21
-2792.159560114349
  0
LINE
  5
E4
100
AcDbEntity
  8
1
  6
CONTINUOUS
 62
           3
100
AcDbLine
 10
-4232.499999999999
 20
-2792.159560114349
 11
-4232.499999999999
 21
-2742.159560114349
  0
LINE
  5
E3
100
AcDbEntity
  8
1
  6
CONTINUOUS
 62
           3
100
AcDbLine
 10
-4232.499999999999
 20
-2742.159560114349
 11
-4282.5
 21
-2742.159560114349
  0
LINE
  5
E2
100
AcDbEntity
  8
1
  6
CONTINUOUS
 62
           3
100
AcDbLine
 10
-4287.5
 20
-2892.159560114349
 11
-4287.5
 21
-2942.159560114349
  0
LINE
  5
E1
100
AcDbEntity
  8
1
  6
CONTINUOUS
 62
           3
100
AcDbLine
 10
-4287.5
 20
-2942.159560114349
 11
-4227.499999999999
 21
-2942.159560114349
  0
LINE
  5
E0
100
AcDbEntity
  8
1
  6
CONTINUOUS
 62
           3
100
AcDbLine
 10
-4227.499999999999
 20
-2942.159560114349
 11
-4227.499999999999
 21
-2892.159560114349
  0
LINE
  5
DF
100
AcDbEntity
  8
1
  6
CONTINUOUS
 62
           3
100
AcDbLine
 10
-4227.499999999999
 20
-2892.159560114349
 11
-4287.5
 21
-2892.159560114349
  0
LINE
  5
DE
100
AcDbEntity
  8
1
  6
CONTINUOUS
 62
           3
100
AcDbLine
 10
-4262.5
 20
-2907.159560114349
 11
-4262.5
 21
-2927.159560114349
  0
LINE
  5
DD
100
AcDbEntity
  8
1
  6
CONTINUOUS
 62
           3
100
AcDbLine
 10
-4262.5
 20
-2927.159560114349
 11
-4252.5
 21
-2927.159560114349
  0
LINE
  5
DC
100
AcDbEntity
  8
1
  6
CONTINUOUS
 62
           3
100
AcDbLine
 10
-4252.5
 20
-2927.159560114349
 11
-4252.5
 21
-2907.159560114349
  0
LINE
  5
DB
100
AcDbEntity
  8
1
  6
CONTINUOUS
 62
           3
100
AcDbLine
 10
-4252.5
 20
-2907.159560114349
 11
-4262.5
 21
-2907.159560114349
  0
LINE
  5
DA
100
AcDbEntity
  8
1
  6
CONTINUOUS
 62
           3
100
AcDbLine
 10
-4129.999999999999
 20
-2772.159560114349
 11
-4129.999999999999
 21
-2922.159560114349
  0
LINE
  5
D9
100
AcDbEntity
  8
1
  6
CONTINUOUS
 62
           3
100
AcDbLine
 10
-4129.999999999999
 20
-2922.159560114349
 11
-3984.999999999999
 21
-2922.159560114349
  0
LINE
  5
D8
100
AcDbEntity
  8
1
  6
CONTINUOUS
 62
           3
100
AcDbLine
 10
-3984.999999999999
 20
-2922.159560114349
 11
-3984.999999999999
 21
-2772.159560114349
  0
LINE
  5
D7
100
AcDbEntity
  8
1
  6
CONTINUOUS
 62
           3
100
AcDbLine
 10
-3984.999999999999
 20
-2772.159560114349
 11
-4129.999999999999
 21
-2772.159560114349
  0
LINE
  5
D6
100
AcDbEntity
  8
1
  6
CONTINUOUS
 62
           3
100
AcDbLine
 10
-4184.999999999999
 20
-2787.159560114349
 11
-4184.999999999999
 21
-2807.159560114349
  0
LINE
  5
D5
100
AcDbEntity
  8
1
  6
CONTINUOUS
 62
           3
100
AcDbLine
 10
-4184.999999999999
 20
-2807.159560114349
 11
-4154.999999999999
 21
-2807.159560114349
  0
LINE
  5
D4
100
AcDbEntity
  8
1
  6
CONTINUOUS
 62
           3
100
AcDbLine
 10
-4154.999999999999
 20
-2807.159560114349
 11
-4154.999999999999
 21
-2787.159560114349
  0
LINE
  5
D3
100
AcDbEntity
  8
1
  6
CONTINUOUS
 62
           3
100
AcDbLine
 10
-4154.999999999999
 20
-2787.159560114349
 11
-4184.999999999999
 21
-2787.159560114349
  0
LINE
  5
D2
100
AcDbEntity
  8
1
  6
CONTINUOUS
 62
           3
100
AcDbLine
 10
-4184.999999999999
 20
-2847.159560114349
 11
-4184.999999999999
 21
-2867.159560114349
  0
LINE
  5
D1
100
AcDbEntity
  8
1
  6
CONTINUOUS
 62
           3
100
AcDbLine
 10
-4184.999999999999
 20
-2867.159560114349
 11
-4154.999999999999
 21
-2867.159560114349
  0
LINE
  5
D0
100
AcDbEntity
  8
1
  6
CONTINUOUS
 62
           3
100
AcDbLine
 10
-4154.999999999999
 20
-2867.159560114349
 11
-4154.999999999999
 21
-2847.159560114349
  0
LINE
  5
CF
100
AcDbEntity
  8
1
  6
CONTINUOUS
 62
           3
100
AcDbLine
 10
-4154.999999999999
 20
-2847.159560114349
 11
-4184.999999999999
 21
-2847.159560114349
  0
LINE
  5
CE
100
AcDbEntity
  8
1
  6
CONTINUOUS
 62
           2
100
AcDbLine
 10
-3949.999999999999
 20
-2497.159560114349
 11
-3942.999999999999
 21
-2497.159560114349
  0
LINE
  5
CD
100
AcDbEntity
  8
1
  6
CONTINUOUS
 62
           2
100
AcDbLine
 10
-3942.999999999999
 20
-2497.159560114349
 11
-3942.999999999999
 21
-2547.159560114349
  0
LINE
  5
CC
100
AcDbEntity
  8
1
  6
CONTINUOUS
 62
           2
100
AcDbLine
 10
-3942.999999999999
 20
-2547.159560114349
 11
-3949.999999999999
 21
-2547.159560114349
  0
LINE
  5
CB
100
AcDbEntity
  8
1
  6
CONTINUOUS
 62
           2
100
AcDbLine
 10
-3949.999999999999
 20
-2509.659560114349
 11
-3942.999999999999
 21
-2509.659560114349
  0
LINE
  5
CA
100
AcDbEntity
  8
1
  6
CONTINUOUS
 62
           2
100
AcDbLine
 10
-3949.999999999999
 20
-2522.159560114349
 11
-3942.999999999999
 21
-2522.159560114349
  0
LINE
  5
C9
100
AcDbEntity
  8
1
  6
CONTINUOUS
 62
           2
100
AcDbLine
 10
-3949.999999999999
 20
-2534.659560114349
 11
-3942.999999999999
 21
-2534.659560114349
  0
LINE
  5
C8
100
AcDbEntity
  8
1
  6
CONTINUOUS
 62
           2
100
AcDbLine
 10
-3949.999999999999
 20
-2947.159560114349
 11
-3942.999999999999
 21
-2947.159560114349
  0
LINE
  5
C7
100
AcDbEntity
  8
1
  6
CONTINUOUS
 62
           2
100
AcDbLine
 10
-3942.999999999999
 20
-2947.159560114349
 11
-3942.999999999999
 21
-2997.159560114349
  0
LINE
  5
C6
100
AcDbEntity
  8
1
  6
CONTINUOUS
 62
           2
100
AcDbLine
 10
-3942.999999999999
 20
-2997.159560114349
 11
-3949.999999999999
 21
-2997.159560114349
  0
LINE
  5
C5
100
AcDbEntity
  8
1
  6
CONTINUOUS
 62
           2
100
AcDbLine
 10
-3949.999999999999
 20
-2959.659560114349
 11
-3942.999999999999
 21
-2959.659560114349
  0
LINE
  5
C4
100
AcDbEntity
  8
1
  6
CONTINUOUS
 62
           2
100
AcDbLine
 10
-3949.999999999999
 20
-2972.159560114349
 11
-3942.999999999999
 21
-2972.159560114349
  0
LINE
  5
C3
100
AcDbEntity
  8
1
  6
CONTINUOUS
 62
           2
100
AcDbLine
 10
-3949.999999999999
 20
-2984.659560114349
 11
-3942.999999999999
 21
-2984.659560114349
  0
LINE
  5
C2
100
AcDbEntity
  8
1
  6
CONTINUOUS
 62
           2
100
AcDbLine
 10
-4350.0
 20
-2827.159560114349
 11
-4368.0
 21
-2827.159560114349
  0
LINE
  5
C1
100
AcDbEntity
  8
1
  6
CONTINUOUS
 62
           2
100
AcDbLine
 10
-4368.0
 20
-2827.159560114349
 11
-4368.0
 21
-2867.159560114349
  0
LINE
  5
C0
100
AcDbEntity
  8
1
  6
CONTINUOUS
 62
           2
100
AcDbLine
 10
-4368.0
 20
-2867.159560114349
 11
-4350.0
 21
-2867.159560114349
  0
LINE
  5
BF
100
AcDbEntity
  8
1
  6
CONTINUOUS
 62
           3
100
AcDbLine
 10
-4249.999999999999
 20
-3047.159560114348
 11
-4249.999999999999
 21
-3052.159560114348
  0
LINE
  5
BE
100
AcDbEntity
  8
1
  6
CONTINUOUS
 62
           3
100
AcDbLine
 10
-4049.999999999999
 20
-3052.159560114348
 11
-4049.999999999999
 21
-3047.159560114348
  0
LINE
  5
BD
100
AcDbEntity
  8
1
  6
CONTINUOUS
 62
           3
100
AcDbLine
 10
-4249.999999999999
 20
-3052.159560114348
 11
-4049.999999999999
 21
-3052.159560114348
  0
LINE
  5
BC
100
AcDbEntity
  8
1
  6
CONTINUOUS
 62
           3
100
AcDbLine
 10
-3950.0
 20
-3027.159560114348
 11
-3845.0
 21
-3027.159560114348
  0
LINE
  5
BB
100
AcDbEntity
  8
1
  6
CONTINUOUS
 62
           3
100
AcDbLine
 10
-3845.0
 20
-3027.159560114348
 11
-3845.0
 21
-2987.159560114349
  0
LINE
  5
BA
100
AcDbEntity
  8
1
  6
CONTINUOUS
 62
           3
100
AcDbLine
 10
-3845.0
 20
-2987.159560114349
 11
-3942.999999999999
 21
-2987.159560114349
  0
LINE
  5
B9
100
AcDbEntity
  8
1
  6
DOT_CENTER
 62
           3
100
AcDbLine
 10
-4135.17579697549
 20
-3595.959560114347
 11
-3913.358499250163
 21
-3595.959560114347
  0
LINE
  5
B8
100
AcDbEntity
  8
1
  6
DOT_CENTER
 62
           3
100
AcDbLine
 10
-4050.0
 20
-3277.323616272947
 11
-4050.0
 21
-3759.950316160527
  0
LINE
  5
B7
100
AcDbEntity
  8
1
  6
PHANTOM
 62
           3
100
AcDbLine
 10
-4273.0
 20
-3222.959560114346
 11
-3852.999999999999
 21
-3222.959560114346
  0
LINE
  5
B6
100
AcDbEntity
  8
1
  6
PHANTOM
 62
           3
100
AcDbLine
 10
-3852.999999999999
 20
-3222.959560114346
 11
-3853.0
 21
-3695.959560114347
  0
LINE
  5
B5
100
AcDbEntity
  8
1
  6
PHANTOM
 62
           3
100
AcDbLine
 10
-3853.0
 20
-3695.959560114347
 11
-4273.0
 21
-3695.959560114347
  0
LINE
  5
B4
100
AcDbEntity
  8
1
  6
PHANTOM
 62
           3
100
AcDbLine
 10
-4273.0
 20
-3695.959560114347
 11
-4273.0
 21
-3222.959560114346
  0
LINE
  5
B3
100
AcDbEntity
  8
1
  6
PHANTOM
 62
           3
100
AcDbLine
 10
-3849.0
 20
-3403.459560114346
 11
-3775.0
 21
-3403.459560114346
  0
LINE
  5
B2
100
AcDbEntity
  8
1
  6
PHANTOM
 62
           3
100
AcDbLine
 10
-3775.0
 20
-3403.459560114346
 11
-3775.0
 21
-3477.459560114347
  0
LINE
  5
B1
100
AcDbEntity
  8
1
  6
PHANTOM
 62
           3
100
AcDbLine
 10
-3775.0
 20
-3477.459560114347
 11
-3849.0
 21
-3477.459560114347
  0
LINE
  5
B0
100
AcDbEntity
  8
1
  6
PHANTOM
 62
           3
100
AcDbLine
 10
-3849.0
 20
-3477.459560114347
 11
-3849.0
 21
-3403.459560114346
  0
LINE
  5
AF
100
AcDbEntity
  8
1
  6
PHANTOM
 62
           3
100
AcDbLine
 10
-4150.0
 20
-3695.959560114346
 11
-3950.0
 21
-3695.959560114346
  0
LINE
  5
AE
100
AcDbEntity
  8
1
  6
PHANTOM
 62
           3
100
AcDbLine
 10
-3950.0
 20
-3695.959560114346
 11
-3950.0
 21
-3530.459560114347
  0
LINE
  5
AD
100
AcDbEntity
  8
1
  6
PHANTOM
 62
           3
100
AcDbLine
 10
-4150.0
 20
-3495.959560114346
 11
-4150.0
 21
-3541.959560114347
  0
LINE
  5
AC
100
AcDbEntity
  8
1
  6
DOT_CENTER
 62
           3
100
AcDbLine
 10
-4114.043182908958
 20
-3420.459560114347
 11
-3872.946412113231
 21
-3420.459560114347
  0
LINE
  5
AB
100
AcDbEntity
  8
1
  6
PHANTOM
 62
           3
100
AcDbLine
 10
-4075.0
 20
-3530.459560114347
 11
-4025.0
 21
-3530.459560114347
  0
LINE
  5
AA
100
AcDbEntity
  8
1
  6
PHANTOM
 62
           3
100
AcDbLine
 10
-4025.0
 20
-3530.459560114347
 11
-4025.0
 21
-3392.459560114347
  0
LINE
  5
A9
100
AcDbEntity
  8
1
  6
PHANTOM
 62
           3
100
AcDbLine
 10
-4075.0
 20
-3310.459560114347
 11
-4075.0
 21
-3530.459560114347
  0
LINE
  5
A8
100
AcDbEntity
  8
1
  6
PHANTOM
 62
           3
100
AcDbLine
 10
-4011.0
 20
-3530.459560114347
 11
-3961.0
 21
-3530.459560114349
  0
LINE
  5
A7
100
AcDbEntity
  8
1
  6
PHANTOM
 62
           3
100
AcDbLine
 10
-3961.0
 20
-3530.459560114349
 11
-3961.0
 21
-3392.459560114347
  0
LINE
  5
A6
100
AcDbEntity
  8
1
  6
PHANTOM
 62
           3
100
AcDbLine
 10
-4011.0
 20
-3392.459560114347
 11
-4011.0
 21
-3530.459560114347
  0
LINE
  5
A5
100
AcDbEntity
  8
1
  6
PHANTOM
 62
           3
100
AcDbLine
 10
-3947.0
 20
-3530.459560114347
 11
-3897.0
 21
-3530.459560114347
  0
LINE
  5
A4
100
AcDbEntity
  8
1
  6
PHANTOM
 62
           3
100
AcDbLine
 10
-3897.0
 20
-3530.459560114347
 11
-3897.0
 21
-3310.459560114347
  0
LINE
  5
A3
100
AcDbEntity
  8
1
  6
PHANTOM
 62
           3
100
AcDbLine
 10
-3897.0
 20
-3310.459560114347
 11
-3911.999999999999
 21
-3310.459560114346
  0
LINE
  5
A2
100
AcDbEntity
  8
1
  6
PHANTOM
 62
           3
100
AcDbLine
 10
-3947.0
 20
-3392.459560114347
 11
-3947.0
 21
-3530.459560114347
  0
LINE
  5
A1
100
AcDbEntity
  8
1
  6
PHANTOM
 62
           3
100
AcDbLine
 10
-4025.0
 20
-3530.459560114347
 11
-4011.0
 21
-3530.459560114347
  0
LINE
  5
A0
100
AcDbEntity
  8
1
  6
PHANTOM
 62
           3
100
AcDbLine
 10
-3961.0
 20
-3530.459560114349
 11
-3947.0
 21
-3530.459560114347
  0
LINE
  5
9F
100
AcDbEntity
  8
1
  6
PHANTOM
 62
           3
100
AcDbLine
 10
-4075.0
 20
-3495.959560114346
 11
-4150.0
 21
-3495.959560114346
  0
LINE
  5
9E
100
AcDbEntity
  8
1
  6
DOT_CENTER
 62
           3
100
AcDbLine
 10
-4260.63786956614
 20
-3440.459560114346
 11
-3751.999999999999
 21
-3440.459560114346
  0
LINE
  5
9D
100
AcDbEntity
  8
1
  6
DOT_CENTER
 62
           3
100
AcDbLine
 10
-4232.0
 20
-3719.517621620848
 11
-4232.0
 21
-3204.447453188949
  0
LINE
  5
9C
100
AcDbEntity
  8
1
  6
DOT_CENTER
 62
           3
100
AcDbLine
 10
-4290.799999999999
 20
-3264.959560114347
 11
-4173.2
 21
-3264.959560114347
  0
LINE
  5
9B
100
AcDbEntity
  8
1
  6
PHANTOM
 62
           3
100
AcDbLine
 10
-4251.0
 20
-3623.459560114347
 11
-4213.0
 21
-3623.459560114347
  0
LINE
  5
9A
100
AcDbEntity
  8
1
  6
PHANTOM
 62
           3
100
AcDbLine
 10
-4213.0
 20
-3623.459560114347
 11
-4213.0
 21
-3608.459560114347
  0
LINE
  5
99
100
AcDbEntity
  8
1
  6
PHANTOM
 62
           3
100
AcDbLine
 10
-4213.0
 20
-3608.459560114347
 11
-4251.0
 21
-3608.459560114347
  0
LINE
  5
98
100
AcDbEntity
  8
1
  6
PHANTOM
 62
           3
100
AcDbLine
 10
-4251.0
 20
-3608.459560114347
 11
-4251.0
 21
-3623.459560114347
  0
LINE
  5
97
100
AcDbEntity
  8
1
  6
PHANTOM
 62
           3
100
AcDbLine
 10
-4246.0
 20
-3608.459560114347
 11
-4246.0
 21
-3595.959560114347
  0
LINE
  5
96
100
AcDbEntity
  8
1
  6
PHANTOM
 62
           3
100
AcDbLine
 10
-4218.0
 20
-3607.851394977747
 11
-4218.0
 21
-3595.959560114347
  0
LINE
  5
95
100
AcDbEntity
  8
1
  6
PHANTOM
 62
           3
100
AcDbLine
 10
-4246.0
 20
-3595.959560114347
 11
-4218.0
 21
-3595.959560114347
  0
LINE
  5
94
100
AcDbEntity
  8
1
  6
PHANTOM
 62
           3
100
AcDbLine
 10
-4246.0
 20
-3635.959560114347
 11
-4218.0
 21
-3635.959560114347
  0
LINE
  5
93
100
AcDbEntity
  8
1
  6
PHANTOM
 62
           3
100
AcDbLine
 10
-4246.0
 20
-3635.959560114347
 11
-4246.0
 21
-3623.459560114347
  0
LINE
  5
92
100
AcDbEntity
  8
1
  6
PHANTOM
 62
           3
100
AcDbLine
 10
-4218.0
 20
-3635.959560114347
 11
-4218.0
 21
-3623.459560114347
  0
LINE
  5
91
100
AcDbEntity
  8
1
  6
PHANTOM
 62
           3
100
AcDbLine
 10
-4269.0
 20
-3307.959560114346
 11
-4195.0
 21
-3307.959560114346
  0
LINE
  5
90
100
AcDbEntity
  8
1
  6
PHANTOM
 62
           3
100
AcDbLine
 10
-4195.0
 20
-3307.959560114346
 11
-4195.0
 21
-3381.959560114347
  0
LINE
  5
8F
100
AcDbEntity
  8
1
  6
PHANTOM
 62
           3
100
AcDbLine
 10
-4195.0
 20
-3381.959560114347
 11
-4269.0
 21
-3381.959560114347
  0
LINE
  5
8E
100
AcDbEntity
  8
1
  6
PHANTOM
 62
           3
100
AcDbLine
 10
-4269.0
 20
-3381.959560114347
 11
-4269.0
 21
-3307.959560114346
  0
LINE
  5
8D
100
AcDbEntity
  8
1
  6
DOT_CENTER
 62
           3
100
AcDbLine
 10
-4273.903366550619
 20
-3344.959560114347
 11
-4191.23852577231
 21
-3344.959560114347
  0
LINE
  5
8C
100
AcDbEntity
  8
1
  6
PHANTOM
 62
           3
100
AcDbLine
 10
-4070.0
 20
-3392.459560114347
 11
-3911.999999999999
 21
-3392.459560114347
  0
LINE
  5
8B
100
AcDbEntity
  8
1
  6
PHANTOM
 62
           3
100
AcDbLine
 10
-3911.999999999999
 20
-3392.459560114347
 11
-3911.999999999999
 21
-3230.459560114346
  0
LINE
  5
8A
100
AcDbEntity
  8
1
  6
PHANTOM
 62
           3
100
AcDbLine
 10
-3911.999999999999
 20
-3230.459560114346
 11
-4070.0
 21
-3230.459560114346
  0
LINE
  5
89
100
AcDbEntity
  8
1
  6
PHANTOM
 62
           3
100
AcDbLine
 10
-4070.0
 20
-3230.459560114346
 11
-4070.0
 21
-3392.459560114347
  0
LINE
  5
88
100
AcDbEntity
  8
1
  6
PHANTOM
 62
           3
100
AcDbLine
 10
-4070.0
 20
-3310.459560114346
 11
-4075.0
 21
-3310.459560114347
  0
LINE
  5
87
100
AcDbEntity
  8
1
  6
PHANTOM
 62
           3
100
AcDbLine
 10
-4060.807583936798
 20
-3265.440714487546
 11
-4012.068489880859
 21
-3265.440714487546
  0
LINE
  5
86
100
AcDbEntity
  8
1
  6
PHANTOM
 62
           3
100
AcDbLine
 10
-4012.068489880859
 20
-3265.440714487546
 11
-4012.068489880859
 21
-3237.415735405349
  0
LINE
  5
85
100
AcDbEntity
  8
1
  6
PHANTOM
 62
           3
100
AcDbLine
 10
-4012.068489880859
 20
-3237.415735405349
 11
-4060.807583936798
 21
-3237.415735405349
  0
LINE
  5
84
100
AcDbEntity
  8
1
  6
PHANTOM
 62
           3
100
AcDbLine
 10
-4060.807583936798
 20
-3237.415735405349
 11
-4060.807583936798
 21
-3265.440714487546
  0
LINE
  5
83
100
AcDbEntity
  8
1
  6
PHANTOM
 62
           3
100
AcDbLine
 10
-4070.0
 20
-3354.459560114347
 11
-3911.999999999999
 21
-3354.459560114347
  0
LINE
  5
82
100
AcDbEntity
  8
1
  6
PHANTOM
 62
           3
100
AcDbLine
 10
-4247.0
 20
-3515.959560114347
 11
-4217.0
 21
-3515.959560114347
  0
LINE
  5
81
100
AcDbEntity
  8
1
  6
PHANTOM
 62
           3
100
AcDbLine
 10
-4244.0
 20
-3477.959560114346
 11
-4220.0
 21
-3477.959560114346
  0
LINE
  5
80
100
AcDbEntity
  8
1
  6
PHANTOM
 62
           3
100
AcDbLine
 10
-4244.0
 20
-3477.959560114346
 11
-4247.0
 21
-3510.959560114347
  0
LINE
  5
7F
100
AcDbEntity
  8
1
  6
PHANTOM
 62
           3
100
AcDbLine
 10
-4247.0
 20
-3510.959560114347
 11
-4247.0
 21
-3515.959560114347
  0
LINE
  5
7E
100
AcDbEntity
  8
1
  6
PHANTOM
 62
           3
100
AcDbLine
 10
-4217.0
 20
-3510.959560114347
 11
-4220.0
 21
-3477.959560114346
  0
LINE
  5
7D
100
AcDbEntity
  8
1
  6
PHANTOM
 62
           3
100
AcDbLine
 10
-4217.0
 20
-3515.959560114347
 11
-4217.0
 21
-3510.959560114347
  0
LINE
  5
7C
100
AcDbEntity
  8
1
  6
PHANTOM
 62
           3
100
AcDbLine
 10
-4241.0
 20
-3515.959560114347
 11
-4241.0
 21
-3541.959560114347
  0
LINE
  5
7B
100
AcDbEntity
  8
1
  6
PHANTOM
 62
           3
100
AcDbLine
 10
-4223.0
 20
-3515.959560114347
 11
-4223.0
 21
-3541.959560114347
  0
LINE
  5
7A
100
AcDbEntity
  8
1
  6
PHANTOM
 62
           3
100
AcDbLine
 10
-4241.0
 20
-3477.959560114346
 11
-4241.0
 21
-3462.459560114347
  0
LINE
  5
79
100
AcDbEntity
  8
1
  6
PHANTOM
 62
           3
100
AcDbLine
 10
-4223.0
 20
-3477.959560114346
 11
-4223.0
 21
-3462.459560114347
  0
LINE
  5
78
100
AcDbEntity
  8
1
  6
PHANTOM
 62
           3
100
AcDbLine
 10
-4210.0
 20
-3428.459560114346
 11
-4210.0
 21
-3452.459560114346
  0
LINE
  5
77
100
AcDbEntity
  8
1
  6
PHANTOM
 62
           3
100
AcDbLine
 10
-4232.0
 20
-3428.459560114346
 11
-4210.0
 21
-3428.459560114346
  0
LINE
  5
76
100
AcDbEntity
  8
1
  6
PHANTOM
 62
           3
100
AcDbLine
 10
-4210.0
 20
-3452.459560114346
 11
-4232.0
 21
-3452.459560114346
  0
LINE
  5
75
100
AcDbEntity
  8
1
  6
PHANTOM
 62
           3
100
AcDbLine
 10
-4220.0
 20
-3428.459560114346
 11
-4220.0
 21
-3418.459560114346
  0
LINE
  5
74
100
AcDbEntity
  8
1
  6
PHANTOM
 62
           3
100
AcDbLine
 10
-4244.0
 20
-3418.459560114346
 11
-4244.0
 21
-3462.459560114347
  0
LINE
  5
73
100
AcDbEntity
  8
1
  6
PHANTOM
 62
           3
100
AcDbLine
 10
-4244.0
 20
-3462.459560114347
 11
-4220.0
 21
-3462.459560114347
  0
LINE
  5
72
100
AcDbEntity
  8
1
  6
PHANTOM
 62
           3
100
AcDbLine
 10
-4244.0
 20
-3418.459560114346
 11
-4220.0
 21
-3418.459560114346
  0
LINE
  5
71
100
AcDbEntity
  8
1
  6
PHANTOM
 62
           3
100
AcDbLine
 10
-4220.0
 20
-3452.459560114344
 11
-4220.0
 21
-3462.459560114347
  0
LINE
  5
70
100
AcDbEntity
  8
1
  6
PHANTOM
 62
           3
100
AcDbLine
 10
-4241.0
 20
-3418.459560114346
 11
-4241.0
 21
-3381.959560114347
  0
LINE
  5
6F
100
AcDbEntity
  8
1
  6
PHANTOM
 62
           3
100
AcDbLine
 10
-4223.0
 20
-3418.459560114346
 11
-4223.0
 21
-3381.959560114347
  0
LINE
  5
6E
100
AcDbEntity
  8
1
  6
PHANTOM
 62
           3
100
AcDbLine
 10
-4130.0
 20
-3675.959560114347
 11
-3970.0
 21
-3675.959560114347
  0
LINE
  5
6D
100
AcDbEntity
  8
1
  6
PHANTOM
 62
           3
100
AcDbLine
 10
-4130.0
 20
-3675.959560114347
 11
-4130.0
 21
-3515.959560114347
  0
LINE
  5
6C
100
AcDbEntity
  8
1
  6
PHANTOM
 62
           3
100
AcDbLine
 10
-4130.0
 20
-3515.959560114347
 11
-4075.0
 21
-3515.959560114347
  0
LINE
  5
6B
100
AcDbEntity
  8
1
  6
PHANTOM
 62
           3
100
AcDbLine
 10
-3970.0
 20
-3675.959560114347
 11
-3970.0
 21
-3530.459560114347
  0
LINE
  5
6A
100
AcDbEntity
  8
1
  6
PHANTOM
 62
           3
100
AcDbLine
 10
-4256.0
 20
-3541.959560114347
 11
-4130.0
 21
-3541.959560114347
  0
LINE
  5
69
100
AcDbEntity
  8
1
  6
PHANTOM
 62
           3
100
AcDbLine
 10
-4256.0
 20
-3571.959560114347
 11
-4130.0
 21
-3571.959560114347
  0
LINE
  5
68
100
AcDbEntity
  8
1
  6
PHANTOM
 62
           3
100
AcDbLine
 10
-4256.0
 20
-3541.959560114347
 11
-4256.0
 21
-3571.959560114347
  0
LINE
  5
67
100
AcDbEntity
  8
1
  6
PHANTOM
 62
           3
100
AcDbLine
 10
-4150.0
 20
-3571.959560114347
 11
-4150.0
 21
-3695.959560114346
  0
LINE
  5
66
100
AcDbEntity
  8
1
  6
PHANTOM
 62
           3
100
AcDbLine
 10
-4241.0
 20
-3571.959560114347
 11
-4241.0
 21
-3595.959560114347
  0
LINE
  5
65
100
AcDbEntity
  8
1
  6
PHANTOM
 62
           3
100
AcDbLine
 10
-4223.0
 20
-3571.959560114347
 11
-4223.0
 21
-3595.959560114347
  0
LINE
  5
64
100
AcDbEntity
  8
1
  6
PHANTOM
 62
           3
100
AcDbLine
 10
-4212.355020021021
 20
-3594.959560114346
 11
-4138.355020021018
 21
-3594.959560114346
  0
LINE
  5
63
100
AcDbEntity
  8
1
  6
PHANTOM
 62
           3
100
AcDbLine
 10
-4138.355020021018
 20
-3594.959560114346
 11
-4138.355020021021
 21
-3668.959560114347
  0
LINE
  5
62
100
AcDbEntity
  8
1
  6
PHANTOM
 62
           3
100
AcDbLine
 10
-4138.355020021021
 20
-3668.959560114347
 11
-4212.355020021021
 21
-3668.959560114347
  0
LINE
  5
61
100
AcDbEntity
  8
1
  6
PHANTOM
 62
           3
100
AcDbLine
 10
-4212.355020021021
 20
-3668.959560114347
 11
-4212.355020021021
 21
-3594.959560114346
  0
LINE
  5
60
100
AcDbEntity
  8
1
  6
DOT_CENTER
 62
           3
100
AcDbLine
 10
-4217.25838657164
 20
-3631.959560114347
 11
-4134.59354579333
 21
-3631.959560114347
  0
LINE
  5
5F
100
AcDbEntity
  8
1
  6
DOT_CENTER
 62
           3
100
AcDbLine
 10
-4175.355020021018
 20
-3588.613093053748
 11
-4175.355020021018
 21
-3676.11154369315
  0
LINE
  5
5E
100
AcDbEntity
  8
1
  6
CONTINUOUS
 62
           2
100
AcDbLine
 10
-3591.0
 20
-1007.159560114349
 11
-3591.0
 21
-992.159560114349
  0
LINE
  5
5D
100
AcDbEntity
  8
1
  6
CONTINUOUS
 62
           2
100
AcDbLine
 10
-3591.0
 20
-992.159560114349
 11
-3611.0
 21
-992.159560114349
  0
LINE
  5
5C
100
AcDbEntity
  8
1
  6
CONTINUOUS
 62
           2
100
AcDbLine
 10
-3611.0
 20
-992.159560114349
 11
-3611.0
 21
-1007.159560114349
  0
LINE
  5
5B
100
AcDbEntity
  8
1
  6
CONTINUOUS
 62
           2
100
AcDbLine
 10
-3611.0
 20
-1007.159560114349
 11
-3591.0
 21
-1007.159560114349
  0
LINE
  5
5A
100
AcDbEntity
  8
1
  6
CONTINUOUS
 62
           2
100
AcDbLine
 10
-3603.400000000001
 20
-1012.159560114349
 11
-3603.400000000001
 21
-1007.159560114349
  0
LINE
  5
59
100
AcDbEntity
  8
1
  6
CONTINUOUS
 62
           2
100
AcDbLine
 10
-3598.6
 20
-1012.159560114349
 11
-3598.6
 21
-1007.159560114349
  0
LINE
  5
58
100
AcDbEntity
  8
1
  6
CONTINUOUS
 62
           2
100
AcDbLine
 10
-3616.0
 20
-1017.159560114349
 11
-3616.0
 21
-1012.159560114349
  0
LINE
  5
57
100
AcDbEntity
  8
1
  6
CONTINUOUS
 62
           2
100
AcDbLine
 10
-3586.0
 20
-1017.159560114349
 11
-3586.0
 21
-1012.159560114349
  0
LINE
  5
56
100
AcDbEntity
  8
1
  6
CONTINUOUS
 62
           2
100
AcDbLine
 10
-3616.0
 20
-1012.159560114349
 11
-3586.0
 21
-1012.159560114349
  0
LINE
  5
55
100
AcDbEntity
  8
1
  6
DOT_CENTER
 62
           3
100
AcDbLine
 10
-3601.0
 20
-1239.495964108618
 11
-3601.0
 21
-986.342353458188
  0
LINE
  5
54
100
AcDbEntity
  8
1
  6
DOT_CENTER
 62
           3
100
AcDbLine
 10
-1415.0
 20
453.523706901202
 11
-1415.0
 21
399.967480129522
  0
LINE
  5
53
100
AcDbEntity
  8
1
  6
DOT_CENTER
 62
           3
100
AcDbLine
 10
-2935.0
 20
399.967480129522
 11
-2935.0
 21
453.523706901202
  0
LINE
  5
52
100
AcDbEntity
  8
1
  6
PHANTOM
 62
           3
100
AcDbLine
 10
-1415.0
 20
440.451609291842
 11
-756.820693123828
 21
60.451609291842
  0
LINE
  5
51
100
AcDbEntity
  8
1
  6
CONTINUOUS
 62
           3
100
AcDbLine
 10
-3675.0
 20
1047.951609291844
 11
-675.0
 21
1047.951609291844
  0
LINE
  5
50
100
AcDbEntity
  8
1
  6
CONTINUOUS
 62
           3
100
AcDbLine
 10
-3675.0
 20
3047.951609291843
 11
-675.0
 21
3047.951609291844
  0
LINE
  5
4F
100
AcDbEntity
  8
1
  6
PHANTOM
 62
           3
100
AcDbLine
 10
-4085.5098597168
 20
-218.30695294127
 11
-3706.999999999999
 21
437.291355253998
  0
LINE
  5
4E
100
AcDbEntity
  8
1
  6
CONTINUOUS
 62
           3
100
AcDbLine
 10
-390.0
 20
-3017.659560114348
 11
-365.0
 21
-3017.659560114348
  0
LINE
  5
4D
100
AcDbEntity
  8
1
  6
CONTINUOUS
 62
           3
100
AcDbLine
 10
-365.0
 20
-3017.659560114348
 11
-365.0
 21
-3037.159560114349
  0
LINE
  5
4C
100
AcDbEntity
  8
1
  6
CONTINUOUS
 62
           3
100
AcDbLine
 10
-365.0
 20
-3037.159560114349
 11
-390.0
 21
-3037.159560114349
  0
LINE
  5
4B
100
AcDbEntity
  8
1
  6
CONTINUOUS
 62
           3
100
AcDbLine
 10
-390.0
 20
-3037.159560114349
 11
-390.0
 21
-3017.659560114348
  0
LINE
  5
4A
100
AcDbEntity
  8
1
  6
CONTINUOUS
 62
           3
100
AcDbLine
 10
-70.0
 20
-3007.159560114349
 11
-10.0
 21
-3007.159560114349
  0
LINE
  5
49
100
AcDbEntity
  8
1
  6
CONTINUOUS
 62
           3
100
AcDbLine
 10
-10.0
 20
-3007.159560114349
 11
-10.0
 21
-3037.159560114349
  0
LINE
  5
48
100
AcDbEntity
  8
1
  6
CONTINUOUS
 62
           3
100
AcDbLine
 10
-10.0
 20
-3037.159560114349
 11
-70.0
 21
-3037.159560114349
  0
LINE
  5
47
100
AcDbEntity
  8
1
  6
CONTINUOUS
 62
           3
100
AcDbLine
 10
-70.0
 20
-3037.159560114349
 11
-70.0
 21
-3007.159560114349
  0
LINE
  5
46
100
AcDbEntity
  8
1
  6
CONTINUOUS
 62
           3
100
AcDbLine
 10
-260.0
 20
-2983.159560114349
 11
-140.0
 21
-2983.159560114349
  0
LINE
  5
45
100
AcDbEntity
  8
1
  6
CONTINUOUS
 62
           3
100
AcDbLine
 10
-140.0
 20
-2983.159560114349
 11
-140.0
 21
-3037.159560114349
  0
LINE
  5
44
100
AcDbEntity
  8
1
  6
CONTINUOUS
 62
           3
100
AcDbLine
 10
-140.0
 20
-3037.159560114349
 11
-260.0
 21
-3037.159560114349
  0
LINE
  5
43
100
AcDbEntity
  8
1
  6
CONTINUOUS
 62
           3
100
AcDbLine
 10
-260.0
 20
-3037.159560114349
 11
-260.0
 21
-2983.159560114349
  0
LINE
  5
42
100
AcDbEntity
  8
1
  6
CONTINUOUS
 62
           3
100
AcDbLine
 10
-4339.999999999999
 20
-3037.159560114349
 11
-4339.999999999999
 21
-3017.659560114348
  0
LINE
  5
41
100
AcDbEntity
  8
1
  6
CONTINUOUS
 62
           3
100
AcDbLine
 10
-4314.999999999999
 20
-3037.159560114349
 11
-4339.999999999999
 21
-3037.159560114349
  0
LINE
  5
40
100
AcDbEntity
  8
1
  6
CONTINUOUS
 62
           3
100
AcDbLine
 10
-4314.999999999999
 20
-3017.659560114348
 11
-4314.999999999999
 21
-3037.159560114349
  0
LINE
  5
3F
100
AcDbEntity
  8
1
  6
CONTINUOUS
 62
           3
100
AcDbLine
 10
-4339.999999999999
 20
-3017.659560114348
 11
-4314.999999999999
 21
-3017.659560114348
  0
LINE
  5
3E
100
AcDbEntity
  8
1
  6
CONTINUOUS
 62
           2
100
AcDbLine
 10
-3950.0
 20
-2647.159560114349
 11
-3825.0
 21
-2647.159560114349
  0
LINE
  5
3D
100
AcDbEntity
  8
1
  6
CONTINUOUS
 62
           2
100
AcDbLine
 10
1585.661287016839
 20
-3045.159560114348
 11
1585.661287016839
 21
-2445.159560114349
  0
LINE
  5
3C
100
AcDbEntity
  8
1
  6
CONTINUOUS
 62
           3
100
AcDbLine
 10
2635.661287016839
 20
-2671.159560114349
 11
2635.661287016839
 21
-3995.959560114344
  0
LINE
  5
3B
100
AcDbEntity
  8
1
  6
CONTINUOUS
 62
           3
100
AcDbLine
 10
3135.661287016839
 20
-2671.159560114349
 11
3135.661287016839
 21
-3995.959560114344
  0
LINE
  5
3A
100
AcDbEntity
  8
1
  6
CONTINUOUS
 62
           3
100
AcDbLine
 10
3635.661287016839
 20
-2671.159560114349
 11
3635.661287016839
 21
-3995.959560114344
  0
LINE
  5
39
100
AcDbEntity
  8
1
  6
CONTINUOUS
 62
           2
100
AcDbLine
 10
-525.0
 20
-2647.159560114349
 11
-400.0
 21
-2647.159560114349
  0
LINE
  5
38
100
AcDbEntity
  8
1
  6
CONTINUOUS
 62
           2
100
AcDbLine
 10
-4110.0
 20
2348.951609291842
 11
-4309.999999999999
 21
2348.951609291842
  0
LINE
  5
37
100
AcDbEntity
  8
1
  6
CONTINUOUS
 62
           2
100
AcDbLine
 10
-4110.0
 20
2308.951609291842
 11
-4339.999999999999
 21
2308.951609291842
  0
LINE
  5
36
100
AcDbEntity
  8
1
  6
CONTINUOUS
 62
           3
100
AcDbLine
 10
-3688.0
 20
465.451609291842
 11
-3688.0
 21
440.451609291842
  0
LINE
  5
35
100
AcDbEntity
  8
1
  6
CONTINUOUS
 62
           3
100
AcDbLine
 10
-648.0
 20
440.451609291842
 11
-2168.0
 21
440.451609291842
  0
LINE
  5
34
100
AcDbEntity
  8
1
  6
CONTINUOUS
 62
           2
100
AcDbLine
 10
-498.0
 20
998.951609291842
 11
0.0
 21
998.951609291842
  0
LINE
  5
33
100
AcDbEntity
  8
1
  6
CONTINUOUS
 62
           2
100
AcDbLine
 10
25.0
 20
1799.451609291853
 11
-15.0
 21
1799.451609291853
  0
LINE
  5
32
100
AcDbEntity
  8
1
  6
CONTINUOUS
 62
           2
100
AcDbLine
 10
-300.0
 20
1923.951609291842
 11
-300.0
 21
1758.951609291842
  0
LINE
  5
31
100
AcDbEntity
  8
1
  6
CONTINUOUS
 62
           2
100
AcDbLine
 10
-320.0
 20
2963.951609291842
 11
-320.0
 21
2653.951609291842
  0
LINE
  5
30
100
AcDbEntity
  8
1
  6
CONTINUOUS
 62
           2
100
AcDbLine
 10
-240.0
 20
2048.951609291842
 11
-40.000000000001
 21
2048.951609291842
  0
LINE
  5
2F
100
AcDbEntity
  8
1
  6
CONTINUOUS
 62
           2
100
AcDbLine
 10
-260.0
 20
1758.951609291842
 11
-260.0
 21
1923.951609291842
  0
LINE
  5
2E
100
AcDbEntity
  8
1
  6
CONTINUOUS
 62
           2
100
AcDbLine
 10
-240.0
 20
1923.951609291842
 11
-600.0
 21
1923.951609291842
  0
LINE
  5
2D
100
AcDbEntity
  8
1
  6
CONTINUOUS
 62
           2
100
AcDbLine
 10
-221.0
 20
1889.751609291852
 11
-176.0
 21
1889.751609291852
  0
LINE
  5
2C
100
AcDbEntity
  8
1
  6
PHANTOM
 62
           3
100
AcDbLine
 10
-3593.179306876172
 20
60.451609291842
 11
-2935.0
 21
440.451609291842
  0
LINE
  5
2B
100
AcDbEntity
  8
1
  6
CONTINUOUS
 62
           3
100
AcDbLine
 10
-2105.0
 20
-1275.159560114349
 11
-2105.0
 21
-3938.159560114349
  0
LINE
  5
2A
100
AcDbEntity
  8
1
  6
CONTINUOUS
 62
           3
100
AcDbLine
 10
-2160.0
 20
-2970.159560114348
 11
-2080.0
 21
-2970.159560114348
  0
LINE
  5
29
100
AcDbEntity
  8
1
  6
CONTINUOUS
 62
           2
100
AcDbLine
 10
-1415.0
 20
-4010.159560114348
 11
-1415.0
 21
-1155.159560114349
  0
LINE
  5
28
100
AcDbEntity
  8
1
  6
CONTINUOUS
 62
           3
100
AcDbLine
 10
-1565.0
 20
-2200.159560114349
 11
-1375.0
 21
-2200.159560114349
  0
ENDSEC
  0
SECTION
  2
OBJECTS
  0
DICTIONARY
  5
19
100
AcDbDictionary
  3
ACAD_GROUP
350
1A
  3
ACAD_MLINESTYLE
350
1B
  0
DICTIONARY
  5
1A
102
{ACAD_REACTORS
330
19
102
}
100
AcDbDictionary
  0
DICTIONARY
  5
1B
102
{ACAD_REACTORS
330
19
102
}
100
AcDbDictionary
  3
STANDARD
350
1C
  0
MLINESTYLE
  5
1C
102
{ACAD_REACTORS
330
1B
102
}
100
AcDbMlineStyle
  2
STANDARD
 70
           0
  3

 62
           0
 51
90.0
 52
90.0
 71
           2
 49
0.5
 62
         256
  6
BYLAYER
 49
-0.5
 62
         256
  6
BYLAYER
  0
ENDSEC
  0
EOF
