  0
SECTION
  2
HEADER
  9
$ACADVER
  1
AC1014
  9
$ACADMAINTVER
 70
           0
  9
$DWGCODEPAGE
  3
DOS932
  9
$INSBASE
 10
0.0
 20
0.0
 30
0.0
  9
$EXTMIN
 10
1.000000000000E+20
 20
1.000000000000E+20
 30
1.000000000000E+20
  9
$EXTMAX
 10
-1.000000000000E+20
 20
-1.000000000000E+20
 30
-1.000000000000E+20
  9
$LIMMIN
 10
0.0
 20
0.0
  9
$LIMMAX
 10
0.0
 20
0.0
  9
$ORTHOMODE
 70
           0
  9
$REGENMODE
 70
           1
  9
$FILLMODE
 70
           1
  9
$QTEXTMODE
 70
           0
  9
$MIRRTEXT
 70
           1
  9
$DRAGMODE
 70
           2
  9
$LTSCALE
 40
1.0
  9
$OSMODE
 70
           0
  9
$ATTMODE
 70
           1
  9
$TEXTSIZE
 40
0.2
  9
$TRACEWID
 40
0.05
  9
$TEXTSTYLE
  7
STANDARD
  9
$CLAYER
  8
0
  9
$CELTYPE
  6
CONTINUOUS
  9
$CECOLOR
 62
         256
  9
$CELTSCALE
 40
1.0
  9
$DELOBJ
 70
           1
  9
$DISPSILH
 70
           0
  9
$DIMSCALE
 40
1.0
  9
$DIMASZ
 40
0.18
  9
$DIMEXO
 40
0.0625
  9
$DIMDLI
 40
0.38
  9
$DIMRND
 40
0.0
  9
$DIMDLE
 40
0.0
  9
$DIMEXE
 40
0.18
  9
$DIMTP
 40
0.0
  9
$DIMTM
 40
0.0
  9
$DIMTXT
 40
0.18
  9
$DIMCEN
 40
0.09
  9
$DIMTSZ
 40
0.0
  9
$DIMTOL
 70
           0
  9
$DIMLIM
 70
           0
  9
$DIMTIH
 70
           1
  9
$DIMTOH
 70
           1
  9
$DIMSE1
 70
           0
  9
$DIMSE2
 70
           0
  9
$DIMTAD
 70
           0
  9
$DIMZIN
 70
           0
  9
$DIMBLK
  1

  9
$DIMASO
 70
           1
  9
$DIMSHO
 70
           1
  9
$DIMPOST
  1

  9
$DIMAPOST
  1

  9
$DIMALT
 70
           0
  9
$DIMALTD
 70
           2
  9
$DIMALTF
 40
25.4
  9
$DIMLFAC
 40
1.0
  9
$DIMTOFL
 70
           0
  9
$DIMTVP
 40
0.0
  9
$DIMTIX
 70
           0
  9
$DIMSOXD
 70
           0
  9
$DIMSAH
 70
           0
  9
$DIMBLK1
  1

  9
$DIMBLK2
  1

  9
$DIMSTYLE
  2
STANDARD
  9
$DIMCLRD
 70
           0
  9
$DIMCLRE
 70
           0
  9
$DIMCLRT
 70
           0
  9
$DIMTFAC
 40
1.0
  9
$DIMGAP
 40
0.09
  9
$DIMJUST
 70
           0
  9
$DIMSD1
 70
           0
  9
$DIMSD2
 70
           0
  9
$DIMTOLJ
 70
           1
  9
$DIMTZIN
 70
           0
  9
$DIMALTZ
 70
           0
  9
$DIMALTTZ
 70
           0
  9
$DIMFIT
 70
           3
  9
$DIMUPT
 70
           0
  9
$DIMUNIT
 70
           2
  9
$DIMDEC
 70
           4
  9
$DIMTDEC
 70
           4
  9
$DIMALTU
 70
           2
  9
$DIMALTTD
 70
           2
  9
$DIMTXSTY
  7
STANDARD
  9
$DIMAUNIT
 70
           0
  9
$LUNITS
 70
           2
  9
$LUPREC
 70
           4
  9
$SKETCHINC
 40
0.1
  9
$FILLETRAD
 40
0.0
  9
$AUNITS
 70
           0
  9
$AUPREC
 70
           0
  9
$MENU
  1
acad
  9
$ELEVATION
 40
0.0
  9
$PELEVATION
 40
0.0
  9
$THICKNESS
 40
0.0
  9
$LIMCHECK
 70
           0
  9
$BLIPMODE
 70
           1
  9
$CHAMFERA
 40
0.0
  9
$CHAMFERB
 40
0.0
  9
$CHAMFERC
 40
0.0
  9
$CHAMFERD
 40
0.0
  9
$SKPOLY
 70
           0
  9
$TDCREATE
 40
0.000000000
  9
$TDUPDATE
 40
0.000000000
  9
$TDINDWG
 40
0.0000000000
  9
$TDUSRTIMER
 40
0.0000000000
  9
$USRTIMER
 70
           1
  9
$ANGBASE
 50
0.0
  9
$ANGDIR
 70
           0
  9
$PDMODE
 70
           0
  9
$PDSIZE
 40
0.0
  9
$PLINEWID
 40
0.0
  9
$COORDS
 70
           0
  9
$SPLFRAME
 70
           0
  9
$SPLINETYPE
 70
           6
  9
$SPLINESEGS
 70
           8
  9
$ATTDIA
 70
           0
  9
$ATTREQ
 70
           1
  9
$HANDLING
 70
           1
  9
$HANDSEED
  5
337
  9
$SURFTAB1
 70
           6
  9
$SURFTAB2
 70
           6
  9
$SURFTYPE
 70
           6
  9
$SURFU
 70
           6
  9
$SURFV
 70
           6
  9
$UCSNAME
  2

  9
$UCSORG
 10
0.0
 20
0.0
 30
0.0
  9
$UCSXDIR
 10
1.0
 20
0.0
 30
0.0
  9
$UCSYDIR
 10
0.0
 20
1.0
 30
0.0
  9
$PUCSNAME
  2

  9
$PUCSORG
 10
0.0
 20
0.0
 30
0.0
  9
$PUCSXDIR
 10
1.0
 20
0.0
 30
0.0
  9
$PUCSYDIR
 10
0.0
 20
1.0
 30
0.0
  9
$USERI1
 70
           0
  9
$USERI2
 70
           0
  9
$USERI3
 70
           0
  9
$USERI4
 70
           0
  9
$USERI5
 70
           0
  9
$USERR1
 40
0.0
  9
$USERR2
 40
0.0
  9
$USERR3
 40
0.0
  9
$USERR4
 40
0.0
  9
$USERR5
 40
0.0
  9
$WORLDVIEW
 70
           1
  9
$SHADEDGE
 70
           3
  9
$SHADEDIF
 70
          70
  9
$TILEMODE
 70
           1
  9
$MAXACTVP
 70
          16
  9
$PINSBASE
 10
0.0
 20
0.0
 30
0.0
  9
$PLIMCHECK
 70
           0
  9
$PEXTMIN
 10
1.000000000000E+20
 20
1.000000000000E+20
 30
1.000000000000E+20
  9
$PEXTMAX
 10
-1.000000000000E+20
 20
-1.000000000000E+20
 30
-1.000000000000E+20
  9
$PLIMMIN
 10
0.0
 20
0.0
  9
$PLIMMAX
 10
12.0
 20
9.0
  9
$UNITMODE
 70
           0
  9
$VISRETAIN
 70
           0
  9
$PLINEGEN
 70
           1
  9
$PSLTSCALE
 70
           0
  9
$TREEDEPTH
 70
        3020
  9
$PICKSTYLE
 70
           1
  9
$CMLSTYLE
  2
STANDARD
  9
$CMLJUST
 70
           0
  9
$CMLSCALE
 40
1.0
  9
$PROXYGRAPHICS
 70
           0
  9
$MEASUREMENT
 70
           0
  0
ENDSEC
  0
SECTION
  2
CLASSES
  0
CLASS
  1
LWPOLYLINE
  2
AcDbPolyline
  3
"AutoCAD"
 90
        0
280
           0
281
           1
  0
CLASS
  1
IMAGE
  2
AcDbRasterImage
  3
ISM
 90
      127
280
           0
281
           1
  0
CLASS
  1
OLE2FRAME
  2
AcDbOle2Frame
  3
""
 90
        0
280
           0
281
           1
  0
CLASS
  1
HATCH
  2
AcDbHatch
  3
"ACAD_SEDONA"
 90
        0
280
           0
281
           1
  0
CLASS
  1
DICTIONARYVAR
  2
AcDbDictionaryVar
  3
"AutoCAD"
 90
        0
280
           0
281
           0
  0
CLASS
  1
RASTERVARIABLES
  2
AcDbRasterVariables
  3
ISM
 90
        0
280
           0
281
           0
  0
CLASS
  1
IMAGEDEF
  2
AcDbRasterImageDef
  3
ISM
 90
        0
280
           0
281
           0
  0
CLASS
  1
IMAGEDEF_REACTOR
  2
AcDbRasterImageDefReactor
  3
ISM
 90
        1
280
           0
281
           0
  0
CLASS
  1
IDBUFFER
  2
AcDbIdBuffer
  3
"Acad"
 90
        0
280
           0
281
           0
  0
CLASS
  1
SPATIAL_FILTER
  2
AcDbSpatialFilter
  3
"Acad"
 90
        0
280
           0
281
           0
  0
CLASS
  1
XRECORD
  2
AcDbXrecord
  3
"<Built In>"
 90
        0
280
           0
281
           0
  0
CLASS
  1
SORTENTSTABLE
  2
AcDbSortentsTable
  3
"AutoCAD"
 90
        0
280
           0
281
           0
  0
CLASS
  1
LAYER_INDEX
  2
AcDbLayerIndex
  3
"Acad"
 90
        0
280
           0
281
           0
  0
CLASS
  1
SPATIAL_INDEX
  2
AcDbSpatialIndex
  3
"Acad"
 90
        0
280
           0
281
           0
  0
CLASS
  1
OBJECT_PTR
  2
CAseDLPNTableRecord
  3
"ASE-LPNTableRecord"
 90
        1
280
           0
281
           0
  0
CLASS
  1
LAYOUT
  2
AcDbLayout
  3
"AutoCAD 2000"
 90
        1
280
           0
281
           0
  0
CLASS
  1
PLOTSETTINGS
  2
AcDbPlotSettings
  3
"AutoCAD 2000"
 90
        1
280
           0
281
           0
  0
CLASS
  1
ACDBDICTIONARYWDFLT
  2
AcDbDictionaryWithDefault
  3
"AutoCAD 2000"
 90
        1
280
           0
281
           0
  0
CLASS
  1
ACDBPLACEHOLDER
  2
AcDbPlaceHolder
  3
"AutoCAD 2000"
 90
        1
280
           0
281
           0
  0
CLASS
  1
VBA_PROJECT
  2
AcDbVbaProject
  3
"acadvba"
 90
        1
280
           0
281
           0
  0
CLASS
  1
WIPEOUT
  2
AcDbWipeout
  3
WipeOut|AutoCAD Express Tool|expresstools@autodesk.com
 90
      127
280
           0
281
           1
  0
CLASS
  1
WIPEOUTVARIABLES
  2
AcDbWipeoutVariables
  3
WipeOut|AutoCAD Express Tool|expresstools@autodesk.com
 90
        0
280
           0
281
           0
  0
CLASS
  1
RTEXT
  2
RText
  3
RText|AutoCAD Express Tool|expresstools@autodesk.com
 90
        0
280
           0
281
           1
  0
CLASS
  1
ARCALIGNEDTEXT
  2
AcDbArcAlignedText
  3
ATEXT|AutoCAD Express Tool|expresstools@autodesk.com
 90
        0
280
           0
281
           1
  0
ENDSEC
  0
SECTION
  2
TABLES
  0
TABLE
  2
VPORT
  5
7
100
AcDbSymbolTable
 70
           1
  0
VPORT
  5
15
100
AcDbSymbolTableRecord
100
AcDbViewportTableRecord
  2
*ACTIVE
 70
           0
 10
0.0
 20
0.0
 11
1.0
 21
1.0
 12
6.591288
 22
4.579184
 13
0.0
 23
0.0
 14
1.0
 24
1.0
 15
0.0
 25
0.0
 16
0.0
 26
0.0
 36
1.0
 17
0.0
 27
0.0
 37
0.0
 40
9.158369
 41
0.688564
 42
50.0
 43
0.0
 44
0.0
 50
0.0
 51
0.0
 71
           0
 72
         100
 73
           1
 74
           1
 75
           0
 76
           0
 77
           0
 78
           0
  0
ENDTAB
  0
TABLE
  2
LTYPE
  5
4
100
AcDbSymbolTable
 70
          10
  0
LTYPE
  5
11
100
AcDbSymbolTableRecord
100
AcDbLinetypeTableRecord
  2
BYBLOCK
 70
          64
  3

 72
          65
 73
           0
 40
0.0
  0
LTYPE
  5
12
100
AcDbSymbolTableRecord
100
AcDbLinetypeTableRecord
  2
BYLAYER
 70
          64
  3

 72
          65
 73
           0
 40
0.0
  0
LTYPE
  5
13
100
AcDbSymbolTableRecord
100
AcDbLinetypeTableRecord
  2
CONTINUOUS
 70
          64
  3
Solid line
 72
          65
 73
           0
 40
0.0
  0
LTYPE
  5
1D
100
AcDbSymbolTableRecord
100
AcDbLinetypeTableRecord
  2
DASHED
 70
          64
  3
Dashed
 72
          65
 73
           2
 40
15.0
 49
12.0
 74
           0
 49
-3.0
 74
           0
  0
LTYPE
  5
1E
100
AcDbSymbolTableRecord
100
AcDbLinetypeTableRecord
  2
DOTTED
 70
          64
  3
Dotted
 72
          65
 73
           2
 40
3.5
 49
0.5
 74
           0
 49
-3.0
 74
           0
  0
LTYPE
  5
1F
100
AcDbSymbolTableRecord
100
AcDbLinetypeTableRecord
  2
DOT_CENTER
 70
          64
  3
Dot_Center
 72
          65
 73
           4
 40
2.0
 49
1.25
 74
           0
 49
-0.25
 74
           0
 49
0.25
 74
           0
 49
-0.25
 74
           0
  0
LTYPE
  5
20
100
AcDbSymbolTableRecord
100
AcDbLinetypeTableRecord
  2
LONG_DASHED
 70
          64
  3
Long_Dashed
 72
          65
 73
           2
 40
2.0
 49
1.5
 74
           0
 49
-0.5
 74
           0
  0
LTYPE
  5
21
100
AcDbSymbolTableRecord
100
AcDbLinetypeTableRecord
  2
DASH_CENTER
 70
          64
  3
Dash_Center
 72
          65
 73
           4
 40
36.0
 49
24.0
 74
           0
 49
-3.0
 74
           0
 49
6.0
 74
           0
 49
-3.0
 74
           0
  0
LTYPE
  5
22
100
AcDbSymbolTableRecord
100
AcDbLinetypeTableRecord
  2
PHANTOM
 70
          64
  3
Phantom
 72
          65
 73
           6
 40
2.5
 49
1.25
 74
           0
 49
-0.25
 74
           0
 49
0.25
 74
           0
 49
-0.25
 74
           0
 49
0.25
 74
           0
 49
-0.25
 74
           0
  0
LTYPE
  5
23
100
AcDbSymbolTableRecord
100
AcDbLinetypeTableRecord
  2
CENTER_DASH_DASH
 70
          64
  3
Center_Dash_Dash
 72
          65
 73
           6
 40
22.0
 49
12.0
 74
           0
 49
-3.0
 74
           0
 49
0.5
 74
           0
 49
-3.0
 74
           0
 49
0.5
 74
           0
 49
-3.0
 74
           0
  0
ENDTAB
  0
TABLE
  2
LAYER
  5
2
100
AcDbSymbolTable
 70
           2
  0
LAYER
  5
14
100
AcDbSymbolTableRecord
100
AcDbLayerTableRecord
  2
0
 70
           0
 62
           7
  6
CONTINUOUS
  0
LAYER
  5
24
100
AcDbSymbolTableRecord
100
AcDbLayerTableRecord
  2
1
 70
           0
 62
           7
  6
CONTINUOUS
  0
ENDTAB
  0
TABLE
  2
STYLE
  5
3
100
AcDbSymbolTable
 70
           1
  0
STYLE
  5
17
100
AcDbSymbolTableRecord
100
AcDbTextStyleTableRecord
  2
STANDARD
 70
           0
 40
0.0
 41
1.0
 50
0.0
 71
           0
 42
0.0
  3
txt
  4

  0
ENDTAB
  0
TABLE
  2
VIEW
  5
5
100
AcDbSymbolTable
 70
           0
  0
ENDTAB
  0
TABLE
  2
UCS
  5
6
100
AcDbSymbolTable
 70
           0
  0
ENDTAB
  0
TABLE
  2
APPID
  5
8
100
AcDbSymbolTable
 70
           1
  0
APPID
  5
16
100
AcDbSymbolTableRecord
100
AcDbRegAppTableRecord
  2
ACAD
 70
           0
  0
ENDTAB
  0
TABLE
  2
DIMSTYLE
  5
9
100
AcDbSymbolTable
 70
           1
  0
DIMSTYLE
105
18
100
AcDbSymbolTableRecord
100
AcDbDimStyleTableRecord
  2
STANDARD
 70
           0
  3

  4

  5

  6

  7

 40
1.0
 41
0.18
 42
0.0625
 43
0.38
 44
0.18
 45
0.0
 46
0.0
 47
0.0
 48
0.0
 71
           0
 72
           0
 73
           1
 74
           1
 75
           0
 76
           0
 77
           0
 78
           0
140
0.18
141
0.09
142
0.0
143
25.4
144
1.0
145
0.0
146
1.0
147
0.09
170
           0
171
           2
172
           0
173
           0
174
           0
175
           0
176
           0
177
           0
178
           0
270
           2
271
           4
272
           4
273
           2
274
           2
275
           0
280
           0
281
           0
282
           0
283
           1
284
           0
285
           0
286
           0
287
           0
288
           0
340
17
  0
ENDTAB
  0
TABLE
  2
BLOCK_RECORD
  5
1
100
AcDbSymbolTable
 70
           2
  0
BLOCK_RECORD
  5
A
100
AcDbSymbolTableRecord
100
AcDbBlockTableRecord
  2
*MODEL_SPACE
  0
BLOCK_RECORD
  5
B
100
AcDbSymbolTableRecord
100
AcDbBlockTableRecord
  2
*PAPER_SPACE
  0
BLOCK_RECORD
  5
25
100
AcDbSymbolTableRecord
100
AcDbBlockTableRecord
  2
CUE_333B_600K
  0
BLOCK_RECORD
  5
27
100
AcDbSymbolTableRecord
100
AcDbBlockTableRecord
  2
CUES03E_01Q
  0
ENDTAB
  0
ENDSEC
  0
SECTION
  2
BLOCKS
  0
BLOCK
  5
D
100
AcDbEntity
  8
0
100
AcDbBlockBegin
  2
*MODEL_SPACE
 70
           0
 10
0.0
 20
0.0
 30
0.0
  3
*MODEL_SPACE
  1

  0
ENDBLK
  5
E
100
AcDbEntity
  8
0
100
AcDbBlockEnd
  0
BLOCK
  5
F
100
AcDbEntity
 67
           1
  8
0
100
AcDbBlockBegin
  2
*PAPER_SPACE
 70
           0
 10
0.0
 20
0.0
 30
0.0
  3
*PAPER_SPACE
  1

  0
ENDBLK
  5
10
100
AcDbEntity
 67
           1
  8
0
100
AcDbBlockEnd
  0
BLOCK
  5
26
100
AcDbEntity
  8
0
100
AcDbBlockBegin
  2
CUE_333B_600K
 70
           0
 10
0.0
 20
0.0
 30
0.0
  3
CUE_333B_600K
  1

  0
ENDBLK
  5
2D
100
AcDbEntity
  8
0
100
AcDbBlockEnd
  0
BLOCK
  5
28
100
AcDbEntity
  8
0
100
AcDbBlockBegin
  2
CUES03E_01Q
 70
           0
 10
0.0
 20
0.0
 30
0.0
  3
CUES03E_01Q
  1

  0
INSERT
  5
29
100
AcDbEntity
  8
0
100
AcDbBlockReference
  2
CUE_333B_600K
 10
0.0
 20
0.0
  0
ENDBLK
  5
2E
100
AcDbEntity
  8
0
100
AcDbBlockEnd
  0
ENDSEC
  0
SECTION
  2
ENTITIES
  0
HATCH
  5
335
100
AcDbEntity
  8
0
  6
CONTINUOUS
 62
           4
100
AcDbHatch
 10
0.0
 20
0.0
 30
0.0
210
0.0
220
0.0
230
1.0
  2
USER
 70
           0
 71
           1
 91
        1
 92
        1
 93
        6
 72
           1
 10
-1681.8020547757931
 20
-1969.980565521601
 11
-1491.8020547757931
 21
-1911.5568112343881
 72
           1
 10
-1491.8020547757931
 20
-1911.5568112343881
 11
-1491.8020547757931
 21
-1739.7973670263891
 72
           1
 10
-1491.8020547757931
 20
-1739.7973670263891
 11
-1761.8020547757931
 21
-1739.7973670263891
 72
           1
 10
-1681.8020547757931
 20
-2029.7973670263891
 11
-1681.8020547757931
 21
-1969.980565521601
 72
           1
 10
-1681.8020547757931
 20
-2029.7973670263891
 11
-1761.8020547757931
 21
-2029.7973670263891
 72
           1
 10
-1761.8020547757931
 20
-1739.7973670263891
 11
-1761.8020547757931
 21
-2029.7973670263891
 97
        4
330
314
330
315
330
1B9
330
1B3
 75
           1
 76
           0
 52
45.0
 41
30.0
 77
           0
 78
           2
 53
45.0
 43
0.0
 44
0.0
 45
-21.213203435596427
 46
21.213203435596427
 79
           0
 53
135.0
 43
0.0
 44
0.0
 45
-21.213203435596419
 46
-21.213203435596434
 79
           0
 98
        1
 10
0.0
 20
0.0
  0
HATCH
  5
334
100
AcDbEntity
  8
0
  6
CONTINUOUS
 62
           4
100
AcDbHatch
 10
0.0
 20
0.0
 30
0.0
210
0.0
220
0.0
230
1.0
  2
USER
 70
           0
 71
           1
 91
        1
 92
        1
 93
        1
 72
           2
 10
-4492.6771199316699
 20
-1507.7973670264
 40
5.0
 50
-180.0
 51
180.0
 73
           1
 97
        1
330
311
 75
           1
 76
           0
 52
45.0
 41
1.0
 77
           0
 78
           2
 53
45.0
 43
0.0
 44
0.0
 45
-0.7071067811865475
 46
0.7071067811865476
 79
           0
 53
135.0
 43
0.0
 44
0.0
 45
-0.7071067811865472
 46
-0.7071067811865478
 79
           0
 98
        1
 10
0.0
 20
0.0
  0
ARC
  5
333
100
AcDbEntity
  8
1
  6
CONTINUOUS
 62
           3
100
AcDbCircle
 10
-3594.555760004907
 20
-2128.097367026399
 40
4.999999999999
100
AcDbArc
 50
4.864514437731
 51
90.0
  0
ARC
  5
332
100
AcDbEntity
  8
1
  6
CONTINUOUS
 62
           3
100
AcDbCircle
 10
-3636.810673694208
 20
-2128.097367026399
 40
5.0
100
AcDbArc
 50
90.0
 51
175.135485562269
  0
ARC
  5
331
100
AcDbEntity
  8
1
  6
CONTINUOUS
 62
           2
100
AcDbCircle
 10
-3607.67711993167
 20
864.163197506525
 40
5.0
100
AcDbArc
 50
-90.0
 51
0.0
  0
ARC
  5
330
100
AcDbEntity
  8
1
  6
CONTINUOUS
 62
           3
100
AcDbCircle
 10
-3613.377119931669
 20
867.142359293465
 40
5.0
100
AcDbArc
 50
-90.0
 51
0.0
  0
ARC
  5
32F
100
AcDbEntity
  8
1
  6
CONTINUOUS
 62
           3
100
AcDbCircle
 10
-3690.977119931669
 20
867.142359293465
 40
5.0
100
AcDbArc
 50
180.0
 51
-90.0
  0
ARC
  5
32E
100
AcDbEntity
  8
1
  6
CONTINUOUS
 62
           2
100
AcDbCircle
 10
-3696.67711993167
 20
864.163197506525
 40
5.0
100
AcDbArc
 50
180.0
 51
-90.0
  0
ARC
  5
32D
100
AcDbEntity
  8
1
  6
CONTINUOUS
 62
           2
100
AcDbCircle
 10
-3696.67711993167
 20
935.046509467056
 40
5.0
100
AcDbArc
 50
90.0
 51
180.0
  0
ARC
  5
32C
100
AcDbEntity
  8
1
  6
CONTINUOUS
 62
           3
100
AcDbCircle
 10
-3690.977119931669
 20
928.967766203606
 40
5.0
100
AcDbArc
 50
90.0
 51
180.0
  0
ARC
  5
32B
100
AcDbEntity
  8
1
  6
CONTINUOUS
 62
           3
100
AcDbCircle
 10
-3613.377119931669
 20
928.967766203606
 40
5.0
100
AcDbArc
 50
0.0
 51
90.0
  0
ARC
  5
32A
100
AcDbEntity
  8
1
  6
CONTINUOUS
 62
           2
100
AcDbCircle
 10
-3607.67711993167
 20
935.046509467056
 40
5.0
100
AcDbArc
 50
0.0
 51
90.0
  0
ARC
  5
329
100
AcDbEntity
  8
1
  6
CONTINUOUS
 62
           3
100
AcDbCircle
 10
-4385.677119931666
 20
-1625.7973670264
 40
4.0
100
AcDbArc
 50
180.0
 51
-90.0
  0
ARC
  5
328
100
AcDbEntity
  8
1
  6
CONTINUOUS
 62
           3
100
AcDbCircle
 10
-4391.677119931666
 20
-1604.7973670264
 40
2.0
100
AcDbArc
 50
0.0
 51
90.0
  0
ARC
  5
327
100
AcDbEntity
  8
1
  6
CONTINUOUS
 62
           3
100
AcDbCircle
 10
-4364.677119931666
 20
-1631.7973670264
 40
2.0
100
AcDbArc
 50
0.0
 51
90.0
  0
ARC
  5
326
100
AcDbEntity
  8
1
  6
CONTINUOUS
 62
           3
100
AcDbCircle
 10
-4599.67711993167
 20
-1625.7973670264
 40
4.0
100
AcDbArc
 50
-90.0
 51
0.0
  0
ARC
  5
325
100
AcDbEntity
  8
1
  6
CONTINUOUS
 62
           3
100
AcDbCircle
 10
-4593.67711993167
 20
-1604.7973670264
 40
2.0
100
AcDbArc
 50
90.0
 51
180.0
  0
ARC
  5
324
100
AcDbEntity
  8
1
  6
CONTINUOUS
 62
           3
100
AcDbCircle
 10
-4620.67711993167
 20
-1631.7973670264
 40
2.0
100
AcDbArc
 50
90.0
 51
180.0
  0
ARC
  5
323
100
AcDbEntity
  8
1
  6
CONTINUOUS
 62
           3
100
AcDbCircle
 10
-4385.677119931666
 20
-1389.7973670264
 40
4.0
100
AcDbArc
 50
90.0
 51
180.0
  0
ARC
  5
322
100
AcDbEntity
  8
1
  6
CONTINUOUS
 62
           3
100
AcDbCircle
 10
-4391.677119931666
 20
-1410.7973670264
 40
2.0
100
AcDbArc
 50
-90.0
 51
0.0
  0
ARC
  5
321
100
AcDbEntity
  8
1
  6
CONTINUOUS
 62
           3
100
AcDbCircle
 10
-4364.677119931666
 20
-1383.7973670264
 40
2.0
100
AcDbArc
 50
-90.0
 51
0.0
  0
ARC
  5
320
100
AcDbEntity
  8
1
  6
CONTINUOUS
 62
           3
100
AcDbCircle
 10
-4385.677119931666
 20
-1375.7973670264
 40
4.0
100
AcDbArc
 50
180.0
 51
-90.0
  0
ARC
  5
31F
100
AcDbEntity
  8
1
  6
CONTINUOUS
 62
           3
100
AcDbCircle
 10
-4391.677119931666
 20
-1354.7973670264
 40
2.0
100
AcDbArc
 50
0.0
 51
90.0
  0
ARC
  5
31E
100
AcDbEntity
  8
1
  6
CONTINUOUS
 62
           3
100
AcDbCircle
 10
-4364.677119931666
 20
-1381.7973670264
 40
2.0
100
AcDbArc
 50
0.0
 51
90.0
  0
ARC
  5
31D
100
AcDbEntity
  8
1
  6
CONTINUOUS
 62
           3
100
AcDbCircle
 10
-4599.67711993167
 20
-1389.7973670264
 40
4.0
100
AcDbArc
 50
0.0
 51
90.0
  0
ARC
  5
31C
100
AcDbEntity
  8
1
  6
CONTINUOUS
 62
           3
100
AcDbCircle
 10
-4593.67711993167
 20
-1410.7973670264
 40
2.0
100
AcDbArc
 50
180.0
 51
-90.0
  0
ARC
  5
31B
100
AcDbEntity
  8
1
  6
CONTINUOUS
 62
           3
100
AcDbCircle
 10
-4620.67711993167
 20
-1383.7973670264
 40
2.0
100
AcDbArc
 50
180.0
 51
-90.0
  0
ARC
  5
31A
100
AcDbEntity
  8
1
  6
CONTINUOUS
 62
           3
100
AcDbCircle
 10
-4599.67711993167
 20
-1375.7973670264
 40
4.0
100
AcDbArc
 50
-90.0
 51
0.0
  0
ARC
  5
319
100
AcDbEntity
  8
1
  6
CONTINUOUS
 62
           3
100
AcDbCircle
 10
-4593.67711993167
 20
-1354.7973670264
 40
2.0
100
AcDbArc
 50
90.0
 51
180.0
  0
ARC
  5
318
100
AcDbEntity
  8
1
  6
CONTINUOUS
 62
           3
100
AcDbCircle
 10
-4620.67711993167
 20
-1381.7973670264
 40
2.0
100
AcDbArc
 50
90.0
 51
180.0
  0
ARC
  5
317
100
AcDbEntity
  8
1
  6
CONTINUOUS
 62
           3
100
AcDbCircle
 10
-4787.429822510059
 20
-2882.515027490301
 40
5.0
100
AcDbArc
 50
0.0
 51
90.0
  0
ARC
  5
316
100
AcDbEntity
  8
1
  6
CONTINUOUS
 62
           3
100
AcDbCircle
 10
-4787.429822510059
 20
-2892.515027490301
 40
5.0
100
AcDbArc
 50
-90.0
 51
0.0
  0
LWPOLYLINE
  5
315
100
AcDbEntity
  8
1
  6
CONTINUOUS
 62
           2
 60
           1
100
AcDbPolyline
 90
        2
 70
           0
 10
-1681.802054775793
 20
-2029.797367026389
 10
-1681.802054775793
 20
-1969.980565521601
  0
LWPOLYLINE
  5
314
100
AcDbEntity
  8
1
  6
CONTINUOUS
 62
           2
 60
           1
100
AcDbPolyline
 90
        4
 70
           0
 10
-1681.802054775793
 20
-1969.980565521601
 10
-1491.802054775793
 20
-1911.556811234388
 10
-1491.802054775793
 20
-1739.797367026389
 10
-1761.802054775793
 20
-1739.797367026389
  0
CIRCLE
  5
313
100
AcDbEntity
  8
1
  6
PHANTOM
 62
           3
100
AcDbCircle
 10
-1061.802054775793
 20
-1894.7973670264
 40
50.0
  0
CIRCLE
  5
312
100
AcDbEntity
  8
1
  6
PHANTOM
 62
           3
100
AcDbCircle
 10
-1551.802054775793
 20
-2069.7973670264
 40
82.0
  0
CIRCLE
  5
311
100
AcDbEntity
  8
1
  6
CONTINUOUS
 62
           3
100
AcDbCircle
 10
-4492.67711993167
 20
-1507.7973670264
 40
5.0
  0
CIRCLE
  5
310
100
AcDbEntity
  8
1
  6
CONTINUOUS
 62
           3
100
AcDbCircle
 10
-4367.67711993167
 20
-1582.7973670264
 40
25.0
  0
CIRCLE
  5
30F
100
AcDbEntity
  8
1
  6
CONTINUOUS
 62
           3
100
AcDbCircle
 10
-5046.677119931666
 20
-2887.515027490301
 40
4.464352242057
  0
CIRCLE
  5
30E
100
AcDbEntity
  8
1
  6
CONTINUOUS
 62
           2
100
AcDbCircle
 10
-1970.802054775794
 20
-1507.7973670264
 40
10.317611070939
  0
CIRCLE
  5
30D
100
AcDbEntity
  8
1
  6
CONTINUOUS
 62
           3
100
AcDbCircle
 10
-3798.67711993167
 20
-2876.610929337718
 40
9.315647355263
  0
CIRCLE
  5
30C
100
AcDbEntity
  8
1
  6
CONTINUOUS
 62
           3
100
AcDbCircle
 10
-3798.67711993167
 20
-2876.610929337718
 40
14.143399212039
  0
CIRCLE
  5
30B
100
AcDbEntity
  8
1
  6
CONTINUOUS
 62
           3
100
AcDbCircle
 10
-3675.677119931664
 20
-2430.797367026391
 40
13.0
  0
CIRCLE
  5
30A
100
AcDbEntity
  8
1
  6
CONTINUOUS
 62
           3
100
AcDbCircle
 10
-3675.677119931664
 20
-2430.797367026391
 40
15.0
  0
ARC
  5
309
100
AcDbEntity
  8
1
  6
PHANTOM
 62
           3
100
AcDbCircle
 10
-4148.677119931668
 20
158.163219221339
 40
1027.000000000001
100
AcDbArc
 50
-90.0
 51
-42.261429665529
  0
ARC
  5
308
100
AcDbEntity
  8
1
  6
PHANTOM
 62
           3
100
AcDbCircle
 10
-4142.177119931668
 20
164.663219221339
 40
1033.520440049446
100
AcDbArc
 50
179.639653936612
 51
-90.360346063387
  0
ARC
  5
307
100
AcDbEntity
  8
1
  6
PHANTOM
 62
           3
100
AcDbCircle
 10
-6209.177119931671
 20
164.66321922134
 40
1033.520440049447
100
AcDbArc
 50
-89.639653936612
 51
0.360346063387
  0
ARC
  5
306
100
AcDbEntity
  8
1
  6
PHANTOM
 62
           3
100
AcDbCircle
 10
-6202.677119931668
 20
158.163219221339
 40
1027.000000000001
100
AcDbArc
 50
-137.738570334471
 51
-90.0
  0
ARC
  5
305
100
AcDbEntity
  8
1
  6
CONTINUOUS
 62
           3
100
AcDbCircle
 10
-6202.677119931668
 20
171.163219221339
 40
5.500000000002
100
AcDbArc
 50
-40.165348630503
 51
-90.0
  0
ARC
  5
304
100
AcDbEntity
  8
1
  6
CONTINUOUS
 62
           3
100
AcDbCircle
 10
-6202.677119931668
 20
171.163219221339
 40
9.999999999997
100
AcDbArc
 50
-33.367012969242
 51
-90.0
  0
ARC
  5
303
100
AcDbEntity
  8
1
  6
CONTINUOUS
 62
           3
100
AcDbCircle
 10
-4148.677119931668
 20
171.163219221339
 40
5.5
100
AcDbArc
 50
-90.0
 51
-139.834651369497
  0
ARC
  5
302
100
AcDbEntity
  8
1
  6
CONTINUOUS
 62
           3
100
AcDbCircle
 10
-4148.677119931668
 20
171.163219221339
 40
10.0
100
AcDbArc
 50
-90.0
 51
-146.632987030755
  0
ARC
  5
301
100
AcDbEntity
  8
1
  6
PHANTOM
 62
           3
100
AcDbCircle
 10
-3529.489685111974
 20
273.16322560792
 40
441.18856812341
100
AcDbArc
 50
179.870133016328
 51
-99.924952775807
  0
ARC
  5
300
100
AcDbEntity
  8
1
  6
PHANTOM
 62
           3
100
AcDbCircle
 10
-1551.802054775793
 20
-2069.197367026398
 40
84.799999999998
100
AcDbArc
 50
90.0
 51
96.40712423416
  0
ARC
  5
2FF
100
AcDbEntity
  8
1
  6
PHANTOM
 62
           3
100
AcDbCircle
 10
-1551.802054775793
 20
-2069.197367026398
 40
84.799999999993
100
AcDbArc
 50
83.883447893509
 51
90.0
  0
LINE
  5
2FE
100
AcDbEntity
  8
1
  6
CONTINUOUS
 62
           2
100
AcDbLine
 10
-780.802054775793
 20
-3106.797367026402
 11
-280.802054775793
 21
-3106.797367026402
  0
LINE
  5
2FD
100
AcDbEntity
  8
1
  6
CONTINUOUS
 62
           2
100
AcDbLine
 10
-1280.802054775793
 20
-2259.7973670264
 11
-1280.802054775793
 21
-3712.797367026402
  0
LINE
  5
2FC
100
AcDbEntity
  8
1
  6
CONTINUOUS
 62
           2
100
AcDbLine
 10
-2393.802054775794
 20
-3625.797367026402
 11
-2357.802054775794
 21
-3625.797367026402
  0
LINE
  5
2FB
100
AcDbEntity
  8
1
  6
CONTINUOUS
 62
           2
100
AcDbLine
 10
-2393.802054775793
 20
-1768.484402235752
 11
-2393.802054775794
 21
-3625.797367026402
  0
LINE
  5
2FA
100
AcDbEntity
  8
1
  6
CONTINUOUS
 62
           2
100
AcDbLine
 10
-2357.802054775793
 20
-1768.484402235752
 11
-2393.802054775793
 21
-1768.484402235752
  0
LINE
  5
2F9
100
AcDbEntity
  8
1
  6
CONTINUOUS
 62
           2
100
AcDbLine
 10
-3510.677119931666
 20
-2132.7973670264
 11
-3510.677119931666
 21
-2079.2973670264
  0
LINE
  5
2F8
100
AcDbEntity
  8
1
  6
CONTINUOUS
 62
           2
100
AcDbLine
 10
-3676.677119931666
 20
-2132.7973670264
 11
-3676.677119931666
 21
-1984.39736702641
  0
LINE
  5
2F7
100
AcDbEntity
  8
1
  6
CONTINUOUS
 62
           2
100
AcDbLine
 10
-4100.677119931666
 20
-1632.7973670264
 11
-4100.677119931666
 21
-1562.7973670264
  0
LINE
  5
2F6
100
AcDbEntity
  8
1
  6
CONTINUOUS
 62
           2
100
AcDbLine
 10
-4100.677119931666
 20
-1562.7973670264
 11
-3740.677119931666
 21
-1562.7973670264
  0
LINE
  5
2F5
100
AcDbEntity
  8
1
  6
CONTINUOUS
 62
           2
100
AcDbLine
 10
-3740.677119931666
 20
-1562.7973670264
 11
-3740.677119931666
 21
-2132.7973670264
  0
LINE
  5
2F4
100
AcDbEntity
  8
1
  6
CONTINUOUS
 62
           2
100
AcDbLine
 10
-3740.677119931666
 20
-1879.7973670264
 11
-3717.708369931666
 21
-1879.7973670264
  0
LINE
  5
2F3
100
AcDbEntity
  8
1
  6
PHANTOM
 62
           3
100
AcDbLine
 10
-3510.677119931666
 20
-1937.7973670264
 11
-3510.677119931666
 21
-1794.7973670264
  0
LINE
  5
2F2
100
AcDbEntity
  8
1
  6
PHANTOM
 62
           3
100
AcDbLine
 10
-3510.677119931666
 20
-1794.7973670264
 11
-3430.677119931666
 21
-1794.7973670264
  0
LINE
  5
2F1
100
AcDbEntity
  8
1
  6
PHANTOM
 62
           3
100
AcDbLine
 10
-3430.677119931666
 20
-1794.7973670264
 11
-3430.677119931666
 21
-2184.7973670264
  0
LINE
  5
2F0
100
AcDbEntity
  8
1
  6
PHANTOM
 62
           3
100
AcDbLine
 10
-3430.677119931666
 20
-2184.7973670264
 11
-3500.677119931666
 21
-2184.7973670264
  0
LINE
  5
2EF
100
AcDbEntity
  8
1
  6
CONTINUOUS
 62
           2
100
AcDbLine
 10
-3521.302119931666
 20
-1909.7973670264
 11
-3470.677119931666
 21
-1909.7973670264
  0
LINE
  5
2EE
100
AcDbEntity
  8
1
  6
CONTINUOUS
 62
           2
100
AcDbLine
 10
-3470.677119931666
 20
-1909.7973670264
 11
-3470.677119931666
 21
-1879.7973670264
  0
LINE
  5
2ED
100
AcDbEntity
  8
1
  6
CONTINUOUS
 62
           2
100
AcDbLine
 10
-3470.677119931666
 20
-1879.7973670264
 11
-3523.645869931666
 21
-1879.7973670264
  0
LINE
  5
2EC
100
AcDbEntity
  8
1
  6
DOT_CENTER
 62
           3
100
AcDbLine
 10
-3480.677119931666
 20
-1844.7973670264
 11
-3480.677119931666
 21
-2151.7973670264
  0
LINE
  5
2EB
100
AcDbEntity
  8
1
  6
DOT_CENTER
 62
           3
100
AcDbLine
 10
-3490.677119931666
 20
-2151.7973670264
 11
-3490.677119931666
 21
-1844.7973670264
  0
LINE
  5
2EA
100
AcDbEntity
  8
1
  6
PHANTOM
 62
           3
100
AcDbLine
 10
-3470.677119931666
 20
-1987.7973670264
 11
-3470.677119931666
 21
-2151.7973670264
  0
LINE
  5
2E9
100
AcDbEntity
  8
1
  6
PHANTOM
 62
           3
100
AcDbLine
 10
-3470.677119931666
 20
-2151.7973670264
 11
-3500.677119931666
 21
-2151.7973670264
  0
LINE
  5
2E8
100
AcDbEntity
  8
1
  6
PHANTOM
 62
           3
100
AcDbLine
 10
-3500.677119931666
 20
-2151.7973670264
 11
-3500.677119931666
 21
-1987.7973670264
  0
LINE
  5
2E7
100
AcDbEntity
  8
1
  6
PHANTOM
 62
           3
100
AcDbLine
 10
-3500.677119931666
 20
-1987.7973670264
 11
-3470.677119931666
 21
-1987.7973670264
  0
LINE
  5
2E6
100
AcDbEntity
  8
1
  6
PHANTOM
 62
           3
100
AcDbLine
 10
-3500.677119931666
 20
-1844.7973670264
 11
-3500.677119931666
 21
-1944.7973670264
  0
LINE
  5
2E5
100
AcDbEntity
  8
1
  6
PHANTOM
 62
           3
100
AcDbLine
 10
-3500.677119931666
 20
-1944.7973670264
 11
-3470.677119931666
 21
-1944.7973670264
  0
LINE
  5
2E4
100
AcDbEntity
  8
1
  6
PHANTOM
 62
           3
100
AcDbLine
 10
-3470.677119931666
 20
-1944.7973670264
 11
-3470.677119931666
 21
-1844.7973670264
  0
LINE
  5
2E3
100
AcDbEntity
  8
1
  6
PHANTOM
 62
           3
100
AcDbLine
 10
-3470.677119931666
 20
-1844.7973670264
 11
-3500.677119931666
 21
-1844.7973670264
  0
LINE
  5
2E2
100
AcDbEntity
  8
1
  6
CONTINUOUS
 62
           2
100
AcDbLine
 10
-3730.677119931666
 20
-2008.244735447453
 11
-3730.677119931666
 21
-1937.7973670264
  0
LINE
  5
2E1
100
AcDbEntity
  8
1
  6
CONTINUOUS
 62
           2
100
AcDbLine
 10
-3560.052119931666
 20
-1909.7973670264
 11
-3681.302119931666
 21
-1909.7973670264
  0
LINE
  5
2E0
100
AcDbEntity
  8
1
  6
CONTINUOUS
 62
           2
100
AcDbLine
 10
-3720.677119931666
 20
-1909.7973670264
 11
-3740.677119931666
 21
-1909.7973670264
  0
LINE
  5
2DF
100
AcDbEntity
  8
1
  6
CONTINUOUS
 62
           2
100
AcDbLine
 10
-3683.645869931666
 20
-1879.7973670264
 11
-3557.708369931666
 21
-1879.7973670264
  0
LINE
  5
2DE
100
AcDbEntity
  8
1
  6
CONTINUOUS
 62
           2
100
AcDbLine
 10
-3560.677119931666
 20
-1917.7973670264
 11
-3555.677119931666
 21
-1853.7973670264
  0
LINE
  5
2DD
100
AcDbEntity
  8
1
  6
CONTINUOUS
 62
           2
100
AcDbLine
 10
-3555.677119931666
 20
-1853.7973670264
 11
-3525.677119931666
 21
-1853.7973670264
  0
LINE
  5
2DC
100
AcDbEntity
  8
1
  6
CONTINUOUS
 62
           2
100
AcDbLine
 10
-3525.677119931666
 20
-1853.7973670264
 11
-3520.677119931666
 21
-1917.7973670264
  0
LINE
  5
2DB
100
AcDbEntity
  8
1
  6
CONTINUOUS
 62
           2
100
AcDbLine
 10
-3564.677119931666
 20
-1937.7973670264
 11
-3564.677119931666
 21
-1917.7973670264
  0
LINE
  5
2DA
100
AcDbEntity
  8
1
  6
CONTINUOUS
 62
           2
100
AcDbLine
 10
-3564.677119931666
 20
-1917.7973670264
 11
-3516.677119931666
 21
-1917.7973670264
  0
LINE
  5
2D9
100
AcDbEntity
  8
1
  6
CONTINUOUS
 62
           2
100
AcDbLine
 10
-3516.677119931666
 20
-1917.7973670264
 11
-3516.677119931666
 21
-1937.7973670264
  0
LINE
  5
2D8
100
AcDbEntity
  8
1
  6
CONTINUOUS
 62
           2
100
AcDbLine
 10
-3720.677119931666
 20
-1917.7973670264
 11
-3715.677119931666
 21
-1853.7973670264
  0
LINE
  5
2D7
100
AcDbEntity
  8
1
  6
CONTINUOUS
 62
           2
100
AcDbLine
 10
-3715.677119931666
 20
-1853.7973670264
 11
-3685.677119931666
 21
-1853.7973670264
  0
LINE
  5
2D6
100
AcDbEntity
  8
1
  6
CONTINUOUS
 62
           2
100
AcDbLine
 10
-3685.677119931666
 20
-1853.7973670264
 11
-3680.677119931666
 21
-1917.7973670264
  0
LINE
  5
2D5
100
AcDbEntity
  8
1
  6
CONTINUOUS
 62
           2
100
AcDbLine
 10
-3724.677119931666
 20
-1937.7973670264
 11
-3724.677119931666
 21
-1917.7973670264
  0
LINE
  5
2D4
100
AcDbEntity
  8
1
  6
CONTINUOUS
 62
           2
100
AcDbLine
 10
-3724.677119931666
 20
-1917.7973670264
 11
-3676.677119931666
 21
-1917.7973670264
  0
LINE
  5
2D3
100
AcDbEntity
  8
1
  6
CONTINUOUS
 62
           2
100
AcDbLine
 10
-3676.677119931666
 20
-1917.7973670264
 11
-3676.677119931666
 21
-1937.7973670264
  0
LINE
  5
2D2
100
AcDbEntity
  8
1
  6
CONTINUOUS
 62
           2
100
AcDbLine
 10
-3510.677119931666
 20
-1937.7973670264
 11
-3730.677119931666
 21
-1937.7973670264
  0
LINE
  5
2D1
100
AcDbEntity
  8
1
  6
CONTINUOUS
 62
           3
100
AcDbLine
 10
-3535.248735744555
 20
-2117.51754815488
 11
-3529.777119931667
 21
-2117.51754815488
  0
LINE
  5
2D0
100
AcDbEntity
  8
1
  6
CONTINUOUS
 62
           3
100
AcDbLine
 10
-3535.248735744555
 20
-2093.779080721632
 11
-3535.248735744555
 21
-2117.51754815488
  0
LINE
  5
2CF
100
AcDbEntity
  8
1
  6
CONTINUOUS
 62
           3
100
AcDbLine
 10
-3529.777119931667
 20
-2093.779080721632
 11
-3535.248735744555
 21
-2093.779080721632
  0
LINE
  5
2CE
100
AcDbEntity
  8
1
  6
CONTINUOUS
 62
           3
100
AcDbLine
 10
-3594.555760004907
 20
-2123.097367026399
 11
-3636.810673694208
 21
-2123.097367026399
  0
LINE
  5
2CD
100
AcDbEntity
  8
1
  6
CONTINUOUS
 62
           3
100
AcDbLine
 10
-3589.573769968878
 20
-2127.673367874399
 11
-3589.137684934665
 21
-2132.7973670264
  0
LINE
  5
2CC
100
AcDbEntity
  8
1
  6
CONTINUOUS
 62
           3
100
AcDbLine
 10
-3641.792663730237
 20
-2127.673367874399
 11
-3642.22874876445
 21
-2132.7973670264
  0
LINE
  5
2CB
100
AcDbEntity
  8
1
  6
CONTINUOUS
 62
           3
100
AcDbLine
 10
-3733.077119931666
 20
-2011.2973670264
 11
-3733.077119931666
 21
-2128.2973670264
  0
LINE
  5
2CA
100
AcDbEntity
  8
1
  6
DOT_CENTER
 62
           3
100
AcDbLine
 10
-3466.328835907998
 20
-2069.7973670264
 11
-3748.389664310364
 21
-2069.7973670264
  0
LINE
  5
2C9
100
AcDbEntity
  8
1
  6
DOT_CENTER
 62
           3
100
AcDbLine
 10
-3615.677119931666
 20
-1972.764349274919
 11
-3615.677119931666
 21
-2113.181999037779
  0
LINE
  5
2C8
100
AcDbEntity
  8
1
  6
CONTINUOUS
 62
           3
100
AcDbLine
 10
-3696.677119931666
 20
-2114.2973670264
 11
-3676.677119931666
 21
-2114.2973670264
  0
LINE
  5
2C7
100
AcDbEntity
  8
1
  6
CONTINUOUS
 62
           3
100
AcDbLine
 10
-3696.677119931666
 20
-2100.597367026399
 11
-3696.677119931666
 21
-2114.2973670264
  0
LINE
  5
2C6
100
AcDbEntity
  8
1
  6
CONTINUOUS
 62
           3
100
AcDbLine
 10
-3676.677119931666
 20
-2100.597367026399
 11
-3696.677119931666
 21
-2100.597367026399
  0
LINE
  5
2C5
100
AcDbEntity
  8
1
  6
CONTINUOUS
 62
           2
100
AcDbLine
 10
-3721.677119931666
 20
-1988.997367026403
 11
-3721.677119931666
 21
-2132.7973670264
  0
LINE
  5
2C4
100
AcDbEntity
  8
1
  6
CONTINUOUS
 62
           2
100
AcDbLine
 10
-3721.677119931666
 20
-1988.997367026403
 11
-3676.677119931666
 21
-1988.997367026403
  0
LINE
  5
2C3
100
AcDbEntity
  8
1
  6
CONTINUOUS
 62
           3
100
AcDbLine
 10
-3733.077119931666
 20
-2128.2973670264
 11
-3729.539188897183
 21
-2132.7973670264
  0
LINE
  5
2C2
100
AcDbEntity
  8
1
  6
CONTINUOUS
 62
           2
100
AcDbLine
 10
-3721.677119931666
 20
-1996.7973670264
 11
-3733.077119931666
 21
-2011.2973670264
  0
LINE
  5
2C1
100
AcDbEntity
  8
1
  6
CONTINUOUS
 62
           3
100
AcDbLine
 10
-3541.477119931667
 20
-1996.7973670264
 11
-3541.477119931667
 21
-2132.7973670264
  0
LINE
  5
2C0
100
AcDbEntity
  8
1
  6
CONTINUOUS
 62
           2
100
AcDbLine
 10
-3737.677119931666
 20
-2011.2973670264
 11
-3737.677119931666
 21
-2128.2973670264
  0
LINE
  5
2BF
100
AcDbEntity
  8
1
  6
CONTINUOUS
 62
           2
100
AcDbLine
 10
-3733.077119931666
 20
-2011.2973670264
 11
-3737.677119931666
 21
-2011.2973670264
  0
LINE
  5
2BE
100
AcDbEntity
  8
1
  6
CONTINUOUS
 62
           2
100
AcDbLine
 10
-3529.777119931667
 20
-1996.7973670264
 11
-3541.477119931667
 21
-1996.7973670264
  0
LINE
  5
2BD
100
AcDbEntity
  8
1
  6
CONTINUOUS
 62
           2
100
AcDbLine
 10
-3529.777119931667
 20
-2012.7973670264
 11
-3529.777119931667
 21
-1996.7973670264
  0
LINE
  5
2BC
100
AcDbEntity
  8
1
  6
CONTINUOUS
 62
           2
100
AcDbLine
 10
-3529.777119931667
 20
-2126.7973670264
 11
-3526.377119931667
 21
-2126.7973670264
  0
LINE
  5
2BB
100
AcDbEntity
  8
1
  6
CONTINUOUS
 62
           2
100
AcDbLine
 10
-3529.777119931667
 20
-2012.7973670264
 11
-3529.777119931667
 21
-2132.7973670264
  0
LINE
  5
2BA
100
AcDbEntity
  8
1
  6
CONTINUOUS
 62
           2
100
AcDbLine
 10
-3526.377119931667
 20
-2012.7973670264
 11
-3529.777119931667
 21
-2012.7973670264
  0
LINE
  5
2B9
100
AcDbEntity
  8
1
  6
CONTINUOUS
 62
           2
100
AcDbLine
 10
-3520.677119931666
 20
-2097.7973670264
 11
-3520.677119931666
 21
-2041.7973670264
  0
LINE
  5
2B8
100
AcDbEntity
  8
1
  6
CONTINUOUS
 62
           2
100
AcDbLine
 10
-3525.333096263026
 20
-2097.7973670264
 11
-3520.677119931666
 21
-2097.7973670264
  0
LINE
  5
2B7
100
AcDbEntity
  8
1
  6
CONTINUOUS
 62
           3
100
AcDbLine
 10
-3515.677119931666
 20
-2080.7973670264
 11
-3520.677119931666
 21
-2080.7973670264
  0
LINE
  5
2B6
100
AcDbEntity
  8
1
  6
CONTINUOUS
 62
           3
100
AcDbLine
 10
-3515.677119931666
 20
-2079.2973670264
 11
-3515.677119931666
 21
-2080.7973670264
  0
LINE
  5
2B5
100
AcDbEntity
  8
1
  6
CONTINUOUS
 62
           3
100
AcDbLine
 10
-3515.677119931666
 20
-2058.7973670264
 11
-3515.677119931666
 21
-2060.2973670264
  0
LINE
  5
2B4
100
AcDbEntity
  8
1
  6
CONTINUOUS
 62
           3
100
AcDbLine
 10
-3520.677119931666
 20
-2058.7973670264
 11
-3515.677119931666
 21
-2058.7973670264
  0
LINE
  5
2B3
100
AcDbEntity
  8
1
  6
CONTINUOUS
 62
           3
100
AcDbLine
 10
-3515.677119931666
 20
-2079.2973670264
 11
-3515.677119931666
 21
-2060.2973670264
  0
LINE
  5
2B2
100
AcDbEntity
  8
1
  6
CONTINUOUS
 62
           2
100
AcDbLine
 10
-3475.677119931666
 20
-2079.2973670264
 11
-3515.677119931666
 21
-2079.2973670264
  0
LINE
  5
2B1
100
AcDbEntity
  8
1
  6
CONTINUOUS
 62
           3
100
AcDbLine
 10
-3507.677119931666
 20
-2060.2973670264
 11
-3515.677119931666
 21
-2060.2973670264
  0
LINE
  5
2B0
100
AcDbEntity
  8
1
  6
CONTINUOUS
 62
           3
100
AcDbLine
 10
-3507.677119931666
 20
-2058.283488837742
 11
-3507.677119931666
 21
-2060.783488837742
  0
LINE
  5
2AF
100
AcDbEntity
  8
1
  6
CONTINUOUS
 62
           2
100
AcDbLine
 10
-3475.677119931666
 20
-2058.283488837742
 11
-3507.677119931666
 21
-2058.283488837742
  0
LINE
  5
2AE
100
AcDbEntity
  8
1
  6
CONTINUOUS
 62
           2
100
AcDbLine
 10
-3475.677119931666
 20
-2060.783488837742
 11
-3475.677119931666
 21
-2058.283488837742
  0
LINE
  5
2AD
100
AcDbEntity
  8
1
  6
CONTINUOUS
 62
           2
100
AcDbLine
 10
-3475.677119931666
 20
-2079.2973670264
 11
-3475.677119931666
 21
-2060.783488837742
  0
LINE
  5
2AC
100
AcDbEntity
  8
1
  6
CONTINUOUS
 62
           2
100
AcDbLine
 10
-3696.677119931666
 20
-1988.997367026403
 11
-3696.677119931666
 21
-1984.39736702641
  0
LINE
  5
2AB
100
AcDbEntity
  8
1
  6
CONTINUOUS
 62
           2
100
AcDbLine
 10
-3696.677119931666
 20
-1984.39736702641
 11
-3676.677119931666
 21
-1984.39736702641
  0
LINE
  5
2AA
100
AcDbEntity
  8
1
  6
CONTINUOUS
 62
           2
100
AcDbLine
 10
-3541.477119931667
 20
-1996.7973670264
 11
-3676.677119931666
 21
-1996.7973670264
  0
LINE
  5
2A9
100
AcDbEntity
  8
1
  6
DOT_CENTER
 62
           3
100
AcDbLine
 10
-4119.25292981043
 20
-1894.7973670264
 11
-3459.146756939446
 21
-1894.7973670264
  0
LINE
  5
2A8
100
AcDbEntity
  8
1
  6
DOT_CENTER
 62
           3
100
AcDbLine
 10
-3900.677119931668
 20
-1526.16015676273
 11
-3900.677119931668
 21
-2117.904151523143
  0
LINE
  5
2A7
100
AcDbEntity
  8
1
  6
CONTINUOUS
 62
           2
100
AcDbLine
 10
-3526.377119931667
 20
-2126.7973670264
 11
-3526.377119931667
 21
-2012.7973670264
  0
LINE
  5
2A6
100
AcDbEntity
  8
1
  6
CONTINUOUS
 62
           2
100
AcDbLine
 10
-3510.677119931666
 20
-2058.283488837742
 11
-3510.677119931666
 21
-1937.7973670264
  0
LINE
  5
2A5
100
AcDbEntity
  8
1
  6
CONTINUOUS
 62
           2
100
AcDbLine
 10
-3507.677119931666
 20
-2060.783488837742
 11
-3475.677119931666
 21
-2060.783488837742
  0
LINE
  5
2A4
100
AcDbEntity
  8
1
  6
DOT_CENTER
 62
           3
100
AcDbLine
 10
-1454.61759371453
 20
-1894.797367026389
 11
-1798.33577539047
 21
-1894.797367026389
  0
LINE
  5
2A3
100
AcDbEntity
  8
1
  6
CONTINUOUS
 62
           2
100
AcDbLine
 10
-3925.677119931666
 20
617.323316454999
 11
-3925.677119931666
 21
774.163222410824
  0
LINE
  5
2A2
100
AcDbEntity
  8
1
  6
CONTINUOUS
 62
           2
100
AcDbLine
 10
-3500.677119931666
 20
774.163222410824
 11
-3500.677119931666
 21
574.163225607921
  0
LINE
  5
2A1
100
AcDbEntity
  8
1
  6
CONTINUOUS
 62
           2
100
AcDbLine
 10
-3500.677119931666
 20
1774.163222410826
 11
-3740.67711993167
 21
1774.163222410826
  0
LINE
  5
2A0
100
AcDbEntity
  8
1
  6
PHANTOM
 62
           3
100
AcDbLine
 10
-4143.677119931668
 20
162.502965183494
 11
-3635.177119931668
 21
-731.244870465281
  0
LINE
  5
29F
100
AcDbEntity
  8
1
  6
PHANTOM
 62
           3
100
AcDbLine
 10
-6716.177119931668
 20
-731.244870465281
 11
-6207.677119931668
 21
162.502965183494
  0
LINE
  5
29E
100
AcDbEntity
  8
1
  6
CONTINUOUS
 62
           3
100
AcDbLine
 10
-6174.88097778872
 20
773.163219220813
 11
-4674.88097778872
 21
773.163219220813
  0
LINE
  5
29D
100
AcDbEntity
  8
1
  6
CONTINUOUS
 62
           3
100
AcDbLine
 10
-6175.677119931668
 20
1272.163224009373
 11
-4674.88097778872
 21
1272.163224009373
  0
LINE
  5
29C
100
AcDbEntity
  8
1
  6
CONTINUOUS
 62
           3
100
AcDbLine
 10
-6174.88097778872
 20
1773.163219221164
 11
-4674.88097778872
 21
1773.163219221164
  0
LINE
  5
29B
100
AcDbEntity
  8
1
  6
CONTINUOUS
 62
           2
100
AcDbLine
 10
-4075.677119931668
 20
197.163219221339
 11
-4075.677119931668
 21
274.163219163734
  0
LINE
  5
29A
100
AcDbEntity
  8
1
  6
CONTINUOUS
 62
           2
100
AcDbLine
 10
-4075.677119931668
 20
274.163219163734
 11
-4100.677119931668
 21
274.163219163734
  0
LINE
  5
299
100
AcDbEntity
  8
1
  6
CONTINUOUS
 62
           2
100
AcDbLine
 10
-4100.677119931668
 20
274.163219163734
 11
-4100.677119931668
 21
2349.16321922134
  0
LINE
  5
298
100
AcDbEntity
  8
1
  6
CONTINUOUS
 62
           3
100
AcDbLine
 10
-4175.677119931668
 20
275.163219221339
 11
-4175.677119931668
 21
2273.16321922134
  0
LINE
  5
297
100
AcDbEntity
  8
1
  6
CONTINUOUS
 62
           2
100
AcDbLine
 10
-6275.677119931668
 20
197.163219221339
 11
-4075.677119931668
 21
197.163219221339
  0
LINE
  5
296
100
AcDbEntity
  8
1
  6
CONTINUOUS
 62
           3
100
AcDbLine
 10
-6175.677119931668
 20
275.163219221339
 11
-6175.677119931668
 21
2273.164893807969
  0
LINE
  5
295
100
AcDbEntity
  8
1
  6
CONTINUOUS
 62
           2
100
AcDbLine
 10
-6275.677119931668
 20
197.163219221339
 11
-6275.677119931668
 21
274.163225607923
  0
LINE
  5
294
100
AcDbEntity
  8
1
  6
CONTINUOUS
 62
           2
100
AcDbLine
 10
-6250.677119931668
 20
274.16322560792
 11
-6250.677119931668
 21
2349.163224175429
  0
LINE
  5
293
100
AcDbEntity
  8
1
  6
CONTINUOUS
 62
           2
100
AcDbLine
 10
-6250.677119931668
 20
274.16322560792
 11
-6275.677119931668
 21
274.163225607923
  0
LINE
  5
292
100
AcDbEntity
  8
1
  6
CONTINUOUS
 62
           2
100
AcDbLine
 10
-6250.677119931668
 20
2349.163224175429
 11
-4100.677119931668
 21
2349.16321922134
  0
LINE
  5
291
100
AcDbEntity
  8
1
  6
CONTINUOUS
 62
           3
100
AcDbLine
 10
-6175.677119931668
 20
2273.164893807969
 11
-4175.677119931668
 21
2273.16321922134
  0
LINE
  5
290
100
AcDbEntity
  8
1
  6
CONTINUOUS
 62
           2
100
AcDbLine
 10
-4525.67711993167
 20
622.163219221339
 11
-4325.67711993167
 21
622.163219221339
  0
LINE
  5
28F
100
AcDbEntity
  8
1
  6
CONTINUOUS
 62
           2
100
AcDbLine
 10
-4325.67711993167
 20
622.163219221339
 11
-4325.67711993167
 21
422.163219221339
  0
LINE
  5
28E
100
AcDbEntity
  8
1
  6
CONTINUOUS
 62
           2
100
AcDbLine
 10
-4325.67711993167
 20
422.163219221339
 11
-4525.67711993167
 21
422.163219221339
  0
LINE
  5
28D
100
AcDbEntity
  8
1
  6
CONTINUOUS
 62
           2
100
AcDbLine
 10
-4525.67711993167
 20
422.163219221339
 11
-4525.67711993167
 21
622.163219221339
  0
LINE
  5
28C
100
AcDbEntity
  8
1
  6
CONTINUOUS
 62
           2
100
AcDbLine
 10
-4555.67711993167
 20
652.163219221339
 11
-4295.67711993167
 21
652.163219221339
  0
LINE
  5
28B
100
AcDbEntity
  8
1
  6
CONTINUOUS
 62
           2
100
AcDbLine
 10
-4295.67711993167
 20
652.163219221339
 11
-4295.67711993167
 21
392.163219221339
  0
LINE
  5
28A
100
AcDbEntity
  8
1
  6
CONTINUOUS
 62
           2
100
AcDbLine
 10
-4295.67711993167
 20
392.163219221339
 11
-4555.67711993167
 21
392.163219221339
  0
LINE
  5
289
100
AcDbEntity
  8
1
  6
CONTINUOUS
 62
           2
100
AcDbLine
 10
-4555.67711993167
 20
392.163219221339
 11
-4555.67711993167
 21
652.163219221339
  0
LINE
  5
288
100
AcDbEntity
  8
1
  6
DOT_CENTER
 62
           3
100
AcDbLine
 10
-4584.663532438724
 20
522.163219221339
 11
-4262.535560966941
 21
522.163219221339
  0
LINE
  5
287
100
AcDbEntity
  8
1
  6
DOT_CENTER
 62
           3
100
AcDbLine
 10
-4425.67711993167
 20
683.182172189853
 11
-4425.67711993167
 21
343.480058210559
  0
LINE
  5
286
100
AcDbEntity
  8
1
  6
CONTINUOUS
 62
           3
100
AcDbLine
 10
-4525.67711993167
 20
622.163219221339
 11
-4325.67711993167
 21
422.163219221339
  0
LINE
  5
285
100
AcDbEntity
  8
1
  6
CONTINUOUS
 62
           3
100
AcDbLine
 10
-4325.67711993167
 20
622.163219221339
 11
-4525.67711993167
 21
422.163219221339
  0
LINE
  5
284
100
AcDbEntity
  8
1
  6
CONTINUOUS
 62
           3
100
AcDbLine
 10
-6175.677119931668
 20
275.163219221339
 11
-4175.677119931668
 21
275.163219221339
  0
LINE
  5
283
100
AcDbEntity
  8
1
  6
CONTINUOUS
 62
           3
100
AcDbLine
 10
-6262.677119931668
 20
176.663219221339
 11
-6212.687469352324
 21
176.663219221339
  0
LINE
  5
282
100
AcDbEntity
  8
1
  6
CONTINUOUS
 62
           3
100
AcDbLine
 10
-6190.677119931668
 20
190.663219221339
 11
-6190.677119931668
 21
165.663219221339
  0
LINE
  5
281
100
AcDbEntity
  8
1
  6
CONTINUOUS
 62
           3
100
AcDbLine
 10
-6198.474095561378
 20
167.61574319707
 11
-6194.325473387426
 21
165.663219221339
  0
LINE
  5
280
100
AcDbEntity
  8
1
  6
DOT_CENTER
 62
           3
100
AcDbLine
 10
-6215.575285683513
 20
171.163219221339
 11
-6191.496267585088
 21
171.163219221339
  0
LINE
  5
27F
100
AcDbEntity
  8
1
  6
DOT_CENTER
 62
           3
100
AcDbLine
 10
-6202.677119931668
 20
184.058154525518
 11
-6202.677119931668
 21
157.796975411917
  0
LINE
  5
27E
100
AcDbEntity
  8
1
  6
CONTINUOUS
 62
           1
100
AcDbLine
 10
-6212.677119931668
 20
181.163219221339
 11
-6212.677119931668
 21
197.163219221339
  0
LINE
  5
27D
100
AcDbEntity
  8
1
  6
CONTINUOUS
 62
           3
100
AcDbLine
 10
-6262.677119931668
 20
181.163219221339
 11
-6208.572698724263
 21
181.163219221339
  0
LINE
  5
27C
100
AcDbEntity
  8
1
  6
DOT_CENTER
 62
           3
100
AcDbLine
 10
-6237.677119931668
 20
198.784065672491
 11
-6237.677119931668
 21
171.040832404257
  0
LINE
  5
27B
100
AcDbEntity
  8
1
  6
CONTINUOUS
 62
           3
100
AcDbLine
 10
-6262.677119931668
 20
181.163219221339
 11
-6262.677119931668
 21
176.663219221339
  0
LINE
  5
27A
100
AcDbEntity
  8
1
  6
CONTINUOUS
 62
           1
100
AcDbLine
 10
-6262.677119931668
 20
180.844370097528
 11
-6262.677119931668
 21
197.163219221339
  0
LINE
  5
279
100
AcDbEntity
  8
1
  6
DOT_CENTER
 62
           3
100
AcDbLine
 10
-6113.677119931668
 20
174.663219221339
 11
-6113.677119931668
 21
149.315073516739
  0
LINE
  5
278
100
AcDbEntity
  8
1
  6
DOT_CENTER
 62
           3
100
AcDbLine
 10
-6068.677119931668
 20
174.663219221339
 11
-6068.677119931668
 21
150.881564909049
  0
LINE
  5
277
100
AcDbEntity
  8
1
  6
CONTINUOUS
 62
           3
100
AcDbLine
 10
-6055.677119931668
 20
165.663219221339
 11
-6055.677119931668
 21
161.163219221339
  0
LINE
  5
276
100
AcDbEntity
  8
1
  6
CONTINUOUS
 62
           3
100
AcDbLine
 10
-6202.677119931668
 20
161.163219221339
 11
-6055.677119931668
 21
161.163219221339
  0
LINE
  5
275
100
AcDbEntity
  8
1
  6
CONTINUOUS
 62
           3
100
AcDbLine
 10
-6055.677119931668
 20
165.663219221339
 11
-6202.677119931668
 21
165.663219221339
  0
LINE
  5
274
100
AcDbEntity
  8
1
  6
CONTINUOUS
 62
           1
100
AcDbLine
 10
-6174.677119931668
 20
166.663219221339
 11
-6174.677119931668
 21
167.663219221339
  0
LINE
  5
273
100
AcDbEntity
  8
1
  6
DOT_CENTER
 62
           3
100
AcDbLine
 10
-6158.677119931668
 20
174.663219221339
 11
-6158.677119931668
 21
147.972366609049
  0
LINE
  5
272
100
AcDbEntity
  8
1
  6
CONTINUOUS
 62
           3
100
AcDbLine
 10
-6190.677119931668
 20
190.663219221339
 11
-5182.677119931668
 21
190.663219221339
  0
LINE
  5
271
100
AcDbEntity
  8
1
  6
CONTINUOUS
 62
           3
100
AcDbLine
 10
-6190.677119931668
 20
190.663219221339
 11
-6175.677119931668
 21
190.663219221339
  0
LINE
  5
270
100
AcDbEntity
  8
1
  6
CONTINUOUS
 62
           3
100
AcDbLine
 10
-4088.677119931668
 20
176.663219221339
 11
-4088.677119931668
 21
181.163219221339
  0
LINE
  5
26F
100
AcDbEntity
  8
1
  6
CONTINUOUS
 62
           3
100
AcDbLine
 10
-4142.781541139068
 20
181.163219221339
 11
-4088.677119931668
 21
181.163219221339
  0
LINE
  5
26E
100
AcDbEntity
  8
1
  6
CONTINUOUS
 62
           3
100
AcDbLine
 10
-4138.666770511009
 20
176.663219221339
 11
-4088.677119931668
 21
176.663219221339
  0
LINE
  5
26D
100
AcDbEntity
  8
1
  6
CONTINUOUS
 62
           3
100
AcDbLine
 10
-4157.028766475909
 20
165.663219221339
 11
-4152.880144301958
 21
167.61574319707
  0
LINE
  5
26C
100
AcDbEntity
  8
1
  6
DOT_CENTER
 62
           3
100
AcDbLine
 10
-4159.857972278238
 20
171.163219221339
 11
-4135.778954179819
 21
171.163219221339
  0
LINE
  5
26B
100
AcDbEntity
  8
1
  6
DOT_CENTER
 62
           3
100
AcDbLine
 10
-4148.677119931668
 20
157.796975411917
 11
-4148.677119931668
 21
184.058154525518
  0
LINE
  5
26A
100
AcDbEntity
  8
1
  6
CONTINUOUS
 62
           3
100
AcDbLine
 10
-4148.677119931668
 20
165.663219221339
 11
-4295.677119931666
 21
165.663219221339
  0
LINE
  5
269
100
AcDbEntity
  8
1
  6
CONTINUOUS
 62
           3
100
AcDbLine
 10
-4295.677119931666
 20
161.163219221339
 11
-4148.677119931668
 21
161.163219221339
  0
LINE
  5
268
100
AcDbEntity
  8
1
  6
CONTINUOUS
 62
           3
100
AcDbLine
 10
-4295.677119931666
 20
161.163219221339
 11
-4295.677119931666
 21
165.663219221339
  0
LINE
  5
267
100
AcDbEntity
  8
1
  6
DOT_CENTER
 62
           3
100
AcDbLine
 10
-4237.677119931668
 20
149.315073516739
 11
-4237.677119931668
 21
174.663219221339
  0
LINE
  5
266
100
AcDbEntity
  8
1
  6
DOT_CENTER
 62
           3
100
AcDbLine
 10
-4282.677119931666
 20
150.881564909049
 11
-4282.677119931666
 21
174.663219221339
  0
LINE
  5
265
100
AcDbEntity
  8
1
  6
DOT_CENTER
 62
           3
100
AcDbLine
 10
-4192.677119931668
 20
147.972366609049
 11
-4192.677119931668
 21
174.663219221339
  0
LINE
  5
264
100
AcDbEntity
  8
1
  6
CONTINUOUS
 62
           3
100
AcDbLine
 10
-4160.677119931668
 20
165.663219221339
 11
-4160.677119931668
 21
190.663219221339
  0
LINE
  5
263
100
AcDbEntity
  8
1
  6
CONTINUOUS
 62
           3
100
AcDbLine
 10
-5172.677119931668
 20
190.663219221339
 11
-4160.677119931668
 21
190.663219221339
  0
LINE
  5
262
100
AcDbEntity
  8
1
  6
CONTINUOUS
 62
           3
100
AcDbLine
 10
-5182.677119931668
 20
165.663219221339
 11
-5182.677119931668
 21
190.663219221339
  0
LINE
  5
261
100
AcDbEntity
  8
1
  6
CONTINUOUS
 62
           3
100
AcDbLine
 10
-5172.677119931668
 20
190.663219221339
 11
-5172.67711993167
 21
165.663219221339
  0
LINE
  5
260
100
AcDbEntity
  8
1
  6
DOT_CENTER
 62
           3
100
AcDbLine
 10
-4113.677119931668
 20
171.042249240027
 11
-4113.677119931668
 21
198.785482508249
  0
LINE
  5
25F
100
AcDbEntity
  8
1
  6
CONTINUOUS
 62
           3
100
AcDbLine
 10
-4295.677119931666
 20
165.664636057098
 11
-5172.677119931668
 21
165.664636057098
  0
LINE
  5
25E
100
AcDbEntity
  8
1
  6
CONTINUOUS
 62
           1
100
AcDbLine
 10
-4138.677119931668
 20
181.164636057098
 11
-4138.677119931668
 21
197.164636057098
  0
LINE
  5
25D
100
AcDbEntity
  8
1
  6
CONTINUOUS
 62
           1
100
AcDbLine
 10
-4088.677119931668
 20
181.164636057098
 11
-4088.677119931668
 21
197.164636057098
  0
LINE
  5
25C
100
AcDbEntity
  8
1
  6
DOT_CENTER
 62
           3
100
AcDbLine
 10
-5175.677119931668
 20
35.234306998368
 11
-5175.677119931668
 21
2473.520457094648
  0
LINE
  5
25B
100
AcDbEntity
  8
1
  6
CONTINUOUS
 62
           3
100
AcDbLine
 10
-4674.88097778872
 20
2273.163637201392
 11
-4674.88097778872
 21
275.163219221339
  0
LINE
  5
25A
100
AcDbEntity
  8
1
  6
PHANTOM
 62
           3
100
AcDbLine
 10
-3530.677119931671
 20
274.16322560792
 11
-3605.532111564736
 21
-161.422671565431
  0
LINE
  5
259
100
AcDbEntity
  8
1
  6
CONTINUOUS
 62
           3
100
AcDbLine
 10
-4000.677119931668
 20
304.16322560792
 11
-3500.677119931666
 21
304.16322560792
  0
LINE
  5
258
100
AcDbEntity
  8
1
  6
CONTINUOUS
 62
           2
100
AcDbLine
 10
-3675.677119931666
 20
617.323316454999
 11
-3925.677119931666
 21
617.323316454999
  0
LINE
  5
257
100
AcDbEntity
  8
1
  6
CONTINUOUS
 62
           2
100
AcDbLine
 10
-4000.677119931668
 20
574.16322560792
 11
-3500.677119931666
 21
574.163225607921
  0
LINE
  5
256
100
AcDbEntity
  8
1
  6
CONTINUOUS
 62
           2
100
AcDbLine
 10
-3500.677119931666
 20
574.163225607921
 11
-3500.677119931666
 21
274.16322560792
  0
LINE
  5
255
100
AcDbEntity
  8
1
  6
CONTINUOUS
 62
           2
100
AcDbLine
 10
-4000.677119931668
 20
274.16322560792
 11
-4000.677119931668
 21
574.16322560792
  0
LINE
  5
254
100
AcDbEntity
  8
1
  6
CONTINUOUS
 62
           2
100
AcDbLine
 10
-4000.677119931668
 20
274.16322560792
 11
-3500.677119931666
 21
274.16322560792
  0
LINE
  5
253
100
AcDbEntity
  8
1
  6
CONTINUOUS
 62
           2
100
AcDbLine
 10
-3500.677119931666
 20
1774.163222410826
 11
-3500.677119931668
 21
2274.163225607921
  0
LINE
  5
252
100
AcDbEntity
  8
1
  6
CONTINUOUS
 62
           2
100
AcDbLine
 10
-3500.677119931666
 20
1776.163222410826
 11
-3500.677119931666
 21
774.163222410824
  0
LINE
  5
251
100
AcDbEntity
  8
1
  6
DOT_CENTER
 62
           3
100
AcDbLine
 10
-4052.19862025115
 20
928.163219213727
 11
-4120.179584822949
 21
928.163219213727
  0
LINE
  5
250
100
AcDbEntity
  8
1
  6
CONTINUOUS
 62
           2
100
AcDbLine
 10
-4065.677119931668
 20
773.163142343579
 11
-4100.677119931668
 21
773.163142343579
  0
LINE
  5
24F
100
AcDbEntity
  8
1
  6
CONTINUOUS
 62
           2
100
AcDbLine
 10
-4065.677119931668
 20
1083.163219213729
 11
-4100.677119931668
 21
1083.163219213729
  0
LINE
  5
24E
100
AcDbEntity
  8
1
  6
CONTINUOUS
 62
           2
100
AcDbLine
 10
-4065.677119931668
 20
1083.209388944816
 11
-4065.677119931668
 21
773.163142343579
  0
LINE
  5
24D
100
AcDbEntity
  8
1
  6
CONTINUOUS
 62
           3
100
AcDbLine
 10
-4065.677119931668
 20
1083.209388944816
 11
-4100.677119931668
 21
773.163142343579
  0
LINE
  5
24C
100
AcDbEntity
  8
1
  6
CONTINUOUS
 62
           3
100
AcDbLine
 10
-4100.677119931668
 20
1083.163219213729
 11
-4065.677119931668
 21
773.163142343579
  0
LINE
  5
24B
100
AcDbEntity
  8
1
  6
DOT_CENTER
 62
           3
100
AcDbLine
 10
-3800.677119931668
 20
785.625722598607
 11
-3800.677119931668
 21
601.827531657397
  0
LINE
  5
24A
100
AcDbEntity
  8
1
  6
CONTINUOUS
 62
           2
100
AcDbLine
 10
-3675.677119931666
 20
1781.00312836665
 11
-3675.677119931666
 21
1774.163219213729
  0
LINE
  5
249
100
AcDbEntity
  8
1
  6
CONTINUOUS
 62
           2
100
AcDbLine
 10
-3675.677119931666
 20
774.163222410824
 11
-3675.677119931666
 21
617.323316454999
  0
LINE
  5
248
100
AcDbEntity
  8
1
  6
CONTINUOUS
 62
           2
100
AcDbLine
 10
-3675.677119931666
 20
1781.00312836665
 11
-3740.67711993167
 21
1781.00312836665
  0
LINE
  5
247
100
AcDbEntity
  8
1
  6
CONTINUOUS
 62
           2
100
AcDbLine
 10
-3500.677119931666
 20
774.163222410824
 11
-4100.677119931668
 21
774.163222410824
  0
LINE
  5
246
100
AcDbEntity
  8
1
  6
CONTINUOUS
 62
           2
100
AcDbLine
 10
-3500.677119931668
 20
2274.163225607921
 11
-4100.67711993167
 21
2274.163225607921
  0
LINE
  5
245
100
AcDbEntity
  8
1
  6
CONTINUOUS
 62
           2
100
AcDbLine
 10
-4070.712439937155
 20
274.16322560792
 11
-4000.677119931668
 21
274.16322560792
  0
LINE
  5
244
100
AcDbEntity
  8
1
  6
CONTINUOUS
 62
           3
100
AcDbLine
 10
-5182.677119931668
 20
165.664636057098
 11
-6055.677119931668
 21
165.664636057098
  0
LINE
  5
243
100
AcDbEntity
  8
1
  6
DOT_CENTER
 62
           3
100
AcDbLine
 10
-3900.67711993167
 20
1153.625769167644
 11
-3900.677119931668
 21
1763.250666216062
  0
LINE
  5
242
100
AcDbEntity
  8
1
  6
DOT_CENTER
 62
           3
100
AcDbLine
 10
-4150.646676785154
 20
1494.163222410827
 11
-3462.036641896162
 21
1494.163222410827
  0
LINE
  5
241
100
AcDbEntity
  8
1
  6
CONTINUOUS
 62
           2
100
AcDbLine
 10
-3740.67711993167
 20
1784.163222410826
 11
-3740.67711993167
 21
1119.163222410826
  0
LINE
  5
240
100
AcDbEntity
  8
1
  6
CONTINUOUS
 62
           2
100
AcDbLine
 10
-3740.67711993167
 20
1119.163222410826
 11
-4100.67711993167
 21
1119.163222410826
  0
LINE
  5
23F
100
AcDbEntity
  8
1
  6
CONTINUOUS
 62
           2
100
AcDbLine
 10
-4100.67711993167
 20
1784.163222410826
 11
-3740.67711993167
 21
1784.163222410826
  0
LINE
  5
23E
100
AcDbEntity
  8
1
  6
DOT_CENTER
 62
           3
100
AcDbLine
 10
-3466.328835908002
 20
1004.163222410834
 11
-3748.389664310369
 21
1004.163222410834
  0
LINE
  5
23D
100
AcDbEntity
  8
1
  6
CONTINUOUS
 62
           2
100
AcDbLine
 10
-3510.67711993167
 20
1284.163222410827
 11
-3510.67711993167
 21
1479.163222410827
  0
LINE
  5
23C
100
AcDbEntity
  8
1
  6
DOT_CENTER
 62
           3
100
AcDbLine
 10
-3480.67711993167
 20
1544.163222410827
 11
-3480.67711993167
 21
922.163222410825
  0
LINE
  5
23B
100
AcDbEntity
  8
1
  6
DOT_CENTER
 62
           3
100
AcDbLine
 10
-3490.67711993167
 20
922.163222410825
 11
-3490.67711993167
 21
1544.163222410827
  0
LINE
  5
23A
100
AcDbEntity
  8
1
  6
PHANTOM
 62
           3
100
AcDbLine
 10
-3470.67711993167
 20
1086.163222410826
 11
-3470.67711993167
 21
922.163222410825
  0
LINE
  5
239
100
AcDbEntity
  8
1
  6
PHANTOM
 62
           3
100
AcDbLine
 10
-3470.67711993167
 20
922.163222410825
 11
-3500.67711993167
 21
922.163222410825
  0
LINE
  5
238
100
AcDbEntity
  8
1
  6
PHANTOM
 62
           3
100
AcDbLine
 10
-3500.67711993167
 20
1086.163222410826
 11
-3470.67711993167
 21
1086.163222410826
  0
LINE
  5
237
100
AcDbEntity
  8
1
  6
PHANTOM
 62
           3
100
AcDbLine
 10
-3510.67711993167
 20
1604.163222410827
 11
-3510.67711993167
 21
874.163222410825
  0
LINE
  5
236
100
AcDbEntity
  8
1
  6
PHANTOM
 62
           3
100
AcDbLine
 10
-3510.67711993167
 20
874.163222410825
 11
-3430.67711993167
 21
874.163222410825
  0
LINE
  5
235
100
AcDbEntity
  8
1
  6
PHANTOM
 62
           3
100
AcDbLine
 10
-3430.67711993167
 20
874.163222410825
 11
-3430.67711993167
 21
1604.163222410827
  0
LINE
  5
234
100
AcDbEntity
  8
1
  6
CONTINUOUS
 62
           2
100
AcDbLine
 10
-3475.67711993167
 20
994.663222410834
 11
-3515.67711993167
 21
994.663222410834
  0
LINE
  5
233
100
AcDbEntity
  8
1
  6
CONTINUOUS
 62
           2
100
AcDbLine
 10
-3515.67711993167
 20
1013.663222410834
 11
-3475.67711993167
 21
1013.663222410834
  0
LINE
  5
232
100
AcDbEntity
  8
1
  6
CONTINUOUS
 62
           2
100
AcDbLine
 10
-3540.67711993167
 20
879.163222410825
 11
-3540.67711993167
 21
844.163222410825
  0
LINE
  5
231
100
AcDbEntity
  8
1
  6
CONTINUOUS
 62
           2
100
AcDbLine
 10
-3730.67711993167
 20
1479.163222410827
 11
-3730.67711993167
 21
1284.163222410827
  0
LINE
  5
230
100
AcDbEntity
  8
1
  6
CONTINUOUS
 62
           2
100
AcDbLine
 10
-3540.67711993167
 20
1744.163222410826
 11
-3740.67711993167
 21
1744.163222410826
  0
LINE
  5
22F
100
AcDbEntity
  8
1
  6
CONTINUOUS
 62
           2
100
AcDbLine
 10
-3500.67711993167
 20
1744.163222410826
 11
-3540.67711993167
 21
1744.163222410826
  0
LINE
  5
22E
100
AcDbEntity
  8
1
  6
CONTINUOUS
 62
           2
100
AcDbLine
 10
-3540.67711993167
 20
1704.163222410827
 11
-3540.67711993167
 21
1744.163222410826
  0
LINE
  5
22D
100
AcDbEntity
  8
1
  6
CONTINUOUS
 62
           2
100
AcDbLine
 10
-3510.67711993167
 20
1509.163222410827
 11
-3510.67711993167
 21
1704.163222410827
  0
LINE
  5
22C
100
AcDbEntity
  8
1
  6
CONTINUOUS
 62
           2
100
AcDbLine
 10
-3730.67711993167
 20
1704.163222410827
 11
-3730.67711993167
 21
1509.163222410827
  0
LINE
  5
22B
100
AcDbEntity
  8
1
  6
CONTINUOUS
 62
           2
100
AcDbLine
 10
-3510.67711993167
 20
1704.163222410827
 11
-3730.67711993167
 21
1704.163222410827
  0
LINE
  5
22A
100
AcDbEntity
  8
1
  6
CONTINUOUS
 62
           2
100
AcDbLine
 10
-3680.67711993167
 20
1509.163222410827
 11
-3560.67711993167
 21
1509.163222410827
  0
LINE
  5
229
100
AcDbEntity
  8
1
  6
CONTINUOUS
 62
           2
100
AcDbLine
 10
-3520.67711993167
 20
1509.163222410827
 11
-3510.67711993167
 21
1509.163222410827
  0
LINE
  5
228
100
AcDbEntity
  8
1
  6
CONTINUOUS
 62
           2
100
AcDbLine
 10
-3510.67711993167
 20
1509.163222410827
 11
-3470.67711993167
 21
1509.163222410827
  0
LINE
  5
227
100
AcDbEntity
  8
1
  6
CONTINUOUS
 62
           2
100
AcDbLine
 10
-3470.67711993167
 20
1479.163222410827
 11
-3520.67711993167
 21
1479.163222410827
  0
LINE
  5
226
100
AcDbEntity
  8
1
  6
CONTINUOUS
 62
           2
100
AcDbLine
 10
-3560.67711993167
 20
1479.163222410827
 11
-3680.67711993167
 21
1479.163222410827
  0
LINE
  5
225
100
AcDbEntity
  8
1
  6
CONTINUOUS
 62
           2
100
AcDbLine
 10
-3720.67711993167
 20
1479.163222410827
 11
-3740.67711993167
 21
1479.163222410827
  0
LINE
  5
224
100
AcDbEntity
  8
1
  6
CONTINUOUS
 62
           2
100
AcDbLine
 10
-3470.67711993167
 20
1479.163222410827
 11
-3470.67711993167
 21
1509.163222410827
  0
LINE
  5
223
100
AcDbEntity
  8
1
  6
PHANTOM
 62
           3
100
AcDbLine
 10
-3500.67711993167
 20
1544.163222410827
 11
-3500.67711993167
 21
1444.163222410827
  0
LINE
  5
222
100
AcDbEntity
  8
1
  6
PHANTOM
 62
           3
100
AcDbLine
 10
-3500.67711993167
 20
1444.163222410827
 11
-3470.67711993167
 21
1444.163222410827
  0
LINE
  5
221
100
AcDbEntity
  8
1
  6
PHANTOM
 62
           3
100
AcDbLine
 10
-3470.67711993167
 20
1444.163222410827
 11
-3470.67711993167
 21
1544.163222410827
  0
LINE
  5
220
100
AcDbEntity
  8
1
  6
PHANTOM
 62
           3
100
AcDbLine
 10
-3470.67711993167
 20
1544.163222410827
 11
-3500.67711993167
 21
1544.163222410827
  0
LINE
  5
21F
100
AcDbEntity
  8
1
  6
PHANTOM
 62
           3
100
AcDbLine
 10
-3430.67711993167
 20
1604.163222410827
 11
-3510.67711993167
 21
1604.163222410827
  0
LINE
  5
21E
100
AcDbEntity
  8
1
  6
CONTINUOUS
 62
           2
100
AcDbLine
 10
-3520.67711993167
 20
1524.163222410827
 11
-3516.67711993167
 21
1524.163222410827
  0
LINE
  5
21D
100
AcDbEntity
  8
1
  6
CONTINUOUS
 62
           2
100
AcDbLine
 10
-3516.67711993167
 20
1524.163222410827
 11
-3516.67711993167
 21
1576.663222410827
  0
LINE
  5
21C
100
AcDbEntity
  8
1
  6
CONTINUOUS
 62
           2
100
AcDbLine
 10
-3516.67711993167
 20
1576.663222410827
 11
-3564.67711993167
 21
1576.663222410827
  0
LINE
  5
21B
100
AcDbEntity
  8
1
  6
CONTINUOUS
 62
           2
100
AcDbLine
 10
-3564.67711993167
 20
1576.663222410827
 11
-3564.67711993167
 21
1524.163222410827
  0
LINE
  5
21A
100
AcDbEntity
  8
1
  6
CONTINUOUS
 62
           2
100
AcDbLine
 10
-3564.67711993167
 20
1524.163222410827
 11
-3560.67711993167
 21
1524.163222410827
  0
LINE
  5
219
100
AcDbEntity
  8
1
  6
CONTINUOUS
 62
           2
100
AcDbLine
 10
-3560.67711993167
 20
1464.163222410827
 11
-3564.67711993167
 21
1464.163222410827
  0
LINE
  5
218
100
AcDbEntity
  8
1
  6
CONTINUOUS
 62
           2
100
AcDbLine
 10
-3564.67711993167
 20
1464.163222410827
 11
-3564.67711993167
 21
1411.663222410827
  0
LINE
  5
217
100
AcDbEntity
  8
1
  6
CONTINUOUS
 62
           2
100
AcDbLine
 10
-3564.67711993167
 20
1411.663222410827
 11
-3516.67711993167
 21
1411.663222410827
  0
LINE
  5
216
100
AcDbEntity
  8
1
  6
CONTINUOUS
 62
           2
100
AcDbLine
 10
-3516.67711993167
 20
1411.663222410827
 11
-3516.67711993167
 21
1464.163222410827
  0
LINE
  5
215
100
AcDbEntity
  8
1
  6
CONTINUOUS
 62
           2
100
AcDbLine
 10
-3516.67711993167
 20
1464.163222410827
 11
-3520.67711993167
 21
1464.163222410827
  0
LINE
  5
214
100
AcDbEntity
  8
1
  6
CONTINUOUS
 62
           2
100
AcDbLine
 10
-3520.67711993167
 20
1544.163222410827
 11
-3560.67711993167
 21
1544.163222410827
  0
LINE
  5
213
100
AcDbEntity
  8
1
  6
CONTINUOUS
 62
           2
100
AcDbLine
 10
-3560.67711993167
 20
1544.163222410827
 11
-3560.67711993167
 21
1444.163222410827
  0
LINE
  5
212
100
AcDbEntity
  8
1
  6
CONTINUOUS
 62
           2
100
AcDbLine
 10
-3560.67711993167
 20
1444.163222410827
 11
-3520.67711993167
 21
1444.163222410827
  0
LINE
  5
211
100
AcDbEntity
  8
1
  6
CONTINUOUS
 62
           2
100
AcDbLine
 10
-3520.67711993167
 20
1444.163222410827
 11
-3520.67711993167
 21
1544.163222410827
  0
LINE
  5
210
100
AcDbEntity
  8
1
  6
CONTINUOUS
 62
           2
100
AcDbLine
 10
-3680.67711993167
 20
1524.163222410827
 11
-3676.67711993167
 21
1524.163222410827
  0
LINE
  5
20F
100
AcDbEntity
  8
1
  6
CONTINUOUS
 62
           2
100
AcDbLine
 10
-3676.67711993167
 20
1524.163222410827
 11
-3676.67711993167
 21
1576.663222410827
  0
LINE
  5
20E
100
AcDbEntity
  8
1
  6
CONTINUOUS
 62
           2
100
AcDbLine
 10
-3676.67711993167
 20
1576.663222410827
 11
-3724.67711993167
 21
1576.663222410827
  0
LINE
  5
20D
100
AcDbEntity
  8
1
  6
CONTINUOUS
 62
           2
100
AcDbLine
 10
-3724.67711993167
 20
1576.663222410827
 11
-3724.67711993167
 21
1524.163222410827
  0
LINE
  5
20C
100
AcDbEntity
  8
1
  6
CONTINUOUS
 62
           2
100
AcDbLine
 10
-3724.67711993167
 20
1524.163222410827
 11
-3720.67711993167
 21
1524.163222410827
  0
LINE
  5
20B
100
AcDbEntity
  8
1
  6
CONTINUOUS
 62
           2
100
AcDbLine
 10
-3720.67711993167
 20
1464.163222410827
 11
-3724.67711993167
 21
1464.163222410827
  0
LINE
  5
20A
100
AcDbEntity
  8
1
  6
CONTINUOUS
 62
           2
100
AcDbLine
 10
-3724.67711993167
 20
1464.163222410827
 11
-3724.67711993167
 21
1411.663222410827
  0
LINE
  5
209
100
AcDbEntity
  8
1
  6
CONTINUOUS
 62
           2
100
AcDbLine
 10
-3724.67711993167
 20
1411.663222410827
 11
-3676.67711993167
 21
1411.663222410827
  0
LINE
  5
208
100
AcDbEntity
  8
1
  6
CONTINUOUS
 62
           2
100
AcDbLine
 10
-3676.67711993167
 20
1411.663222410827
 11
-3676.67711993167
 21
1464.163222410827
  0
LINE
  5
207
100
AcDbEntity
  8
1
  6
CONTINUOUS
 62
           2
100
AcDbLine
 10
-3676.67711993167
 20
1464.163222410827
 11
-3680.67711993167
 21
1464.163222410827
  0
LINE
  5
206
100
AcDbEntity
  8
1
  6
CONTINUOUS
 62
           2
100
AcDbLine
 10
-3680.67711993167
 20
1544.163222410827
 11
-3720.67711993167
 21
1544.163222410827
  0
LINE
  5
205
100
AcDbEntity
  8
1
  6
CONTINUOUS
 62
           2
100
AcDbLine
 10
-3720.67711993167
 20
1544.163222410827
 11
-3720.67711993167
 21
1444.163222410827
  0
LINE
  5
204
100
AcDbEntity
  8
1
  6
CONTINUOUS
 62
           2
100
AcDbLine
 10
-3720.67711993167
 20
1444.163222410827
 11
-3680.67711993167
 21
1444.163222410827
  0
LINE
  5
203
100
AcDbEntity
  8
1
  6
CONTINUOUS
 62
           2
100
AcDbLine
 10
-3680.67711993167
 20
1444.163222410827
 11
-3680.67711993167
 21
1544.163222410827
  0
LINE
  5
202
100
AcDbEntity
  8
1
  6
CONTINUOUS
 62
           2
100
AcDbLine
 10
-3510.67711993167
 20
1604.163222410827
 11
-3730.67711993167
 21
1604.163222410827
  0
LINE
  5
201
100
AcDbEntity
  8
1
  6
CONTINUOUS
 62
           2
100
AcDbLine
 10
-3740.67711993167
 20
1509.163222410827
 11
-3720.67711993167
 21
1509.163222410827
  0
LINE
  5
200
100
AcDbEntity
  8
1
  6
CONTINUOUS
 62
           2
100
AcDbLine
 10
-3510.67711993167
 20
1384.163222410827
 11
-3730.67711993167
 21
1384.163222410827
  0
LINE
  5
1FF
100
AcDbEntity
  8
1
  6
CONTINUOUS
 62
           2
100
AcDbLine
 10
-3740.67711993167
 20
1244.163222410827
 11
-3540.67711993167
 21
1244.163222410827
  0
LINE
  5
1FE
100
AcDbEntity
  8
1
  6
CONTINUOUS
 62
           2
100
AcDbLine
 10
-3540.67711993167
 20
1284.163222410827
 11
-3540.67711993167
 21
1129.163222410826
  0
LINE
  5
1FD
100
AcDbEntity
  8
1
  6
CONTINUOUS
 62
           2
100
AcDbLine
 10
-3540.67711993167
 20
844.163222410825
 11
-3500.67711993167
 21
844.163222410825
  0
LINE
  5
1FC
100
AcDbEntity
  8
1
  6
CONTINUOUS
 62
           2
100
AcDbLine
 10
-3602.67711993167
 20
879.163222410825
 11
-3515.67711993167
 21
879.163222410825
  0
LINE
  5
1FB
100
AcDbEntity
  8
1
  6
CONTINUOUS
 62
           2
100
AcDbLine
 10
-3515.67711993167
 20
1129.163222410826
 11
-3715.67711993167
 21
1129.163222410826
  0
LINE
  5
1FA
100
AcDbEntity
  8
1
  6
CONTINUOUS
 62
           2
100
AcDbLine
 10
-3715.67711993167
 20
1129.163222410826
 11
-3715.67711993167
 21
1084.963222410826
  0
LINE
  5
1F9
100
AcDbEntity
  8
1
  6
CONTINUOUS
 62
           2
100
AcDbLine
 10
-3760.67711993167
 20
1094.163222410826
 11
-3715.67711993167
 21
1094.163222410826
  0
LINE
  5
1F8
100
AcDbEntity
  8
1
  6
CONTINUOUS
 62
           2
100
AcDbLine
 10
-3715.67711993167
 20
923.363222410824
 11
-3715.67711993167
 21
879.163222410825
  0
LINE
  5
1F7
100
AcDbEntity
  8
1
  6
CONTINUOUS
 62
           2
100
AcDbLine
 10
-3715.67711993167
 20
879.163222410825
 11
-3701.67711993167
 21
879.163222410825
  0
LINE
  5
1F6
100
AcDbEntity
  8
1
  6
CONTINUOUS
 62
           2
100
AcDbLine
 10
-3515.67711993167
 20
879.163222410825
 11
-3515.67711993167
 21
989.591493384121
  0
LINE
  5
1F5
100
AcDbEntity
  8
1
  6
PHANTOM
 62
           3
100
AcDbLine
 10
-3500.67711993167
 20
922.163222410825
 11
-3500.67711993167
 21
1086.163222410826
  0
LINE
  5
1F4
100
AcDbEntity
  8
1
  6
CONTINUOUS
 62
           2
100
AcDbLine
 10
-3737.67711993167
 20
1054.163222410826
 11
-3760.67711993167
 21
1054.163222410826
  0
LINE
  5
1F3
100
AcDbEntity
  8
1
  6
CONTINUOUS
 62
           2
100
AcDbLine
 10
-3701.67711993167
 20
923.363222410833
 11
-3721.67711993167
 21
923.363222410833
  0
LINE
  5
1F2
100
AcDbEntity
  8
1
  6
CONTINUOUS
 62
           2
100
AcDbLine
 10
-3676.67711993167
 20
940.046509467056
 11
-3676.67711993167
 21
1084.963222410838
  0
LINE
  5
1F1
100
AcDbEntity
  8
1
  6
CONTINUOUS
 62
           2
100
AcDbLine
 10
-3721.67711993167
 20
931.163222410834
 11
-3721.67711993167
 21
923.363222410833
  0
LINE
  5
1F0
100
AcDbEntity
  8
1
  6
CONTINUOUS
 62
           3
100
AcDbLine
 10
-3613.377119931669
 20
933.967766203606
 11
-3690.977119931669
 21
933.967766203606
  0
LINE
  5
1EF
100
AcDbEntity
  8
1
  6
CONTINUOUS
 62
           3
100
AcDbLine
 10
-3608.377119931669
 20
867.142359293465
 11
-3608.377119931669
 21
928.967766203606
  0
LINE
  5
1EE
100
AcDbEntity
  8
1
  6
CONTINUOUS
 62
           3
100
AcDbLine
 10
-3690.977119931669
 20
862.142359293465
 11
-3613.377119931669
 21
862.142359293465
  0
LINE
  5
1ED
100
AcDbEntity
  8
1
  6
CONTINUOUS
 62
           3
100
AcDbLine
 10
-3695.977119931669
 20
928.967766203606
 11
-3695.977119931669
 21
867.142359293465
  0
LINE
  5
1EC
100
AcDbEntity
  8
1
  6
CONTINUOUS
 62
           2
100
AcDbLine
 10
-3696.67711993167
 20
859.163197506525
 11
-3607.67711993167
 21
859.163197506525
  0
LINE
  5
1EB
100
AcDbEntity
  8
1
  6
CONTINUOUS
 62
           2
100
AcDbLine
 10
-3701.67711993167
 20
935.046509467056
 11
-3701.67711993167
 21
864.163197506525
  0
LINE
  5
1EA
100
AcDbEntity
  8
1
  6
CONTINUOUS
 62
           2
100
AcDbLine
 10
-3607.67711993167
 20
940.046509467056
 11
-3696.67711993167
 21
940.046509467056
  0
LINE
  5
1E9
100
AcDbEntity
  8
1
  6
CONTINUOUS
 62
           2
100
AcDbLine
 10
-3602.67711993167
 20
864.163197506525
 11
-3602.67711993167
 21
935.046509467056
  0
LINE
  5
1E8
100
AcDbEntity
  8
1
  6
CONTINUOUS
 62
           2
100
AcDbLine
 10
-3541.477119931669
 20
931.163222410834
 11
-3602.67711993167
 21
931.163222410834
  0
LINE
  5
1E7
100
AcDbEntity
  8
1
  6
CONTINUOUS
 62
           3
100
AcDbLine
 10
-3733.07711993167
 20
1062.663222410834
 11
-3733.07711993167
 21
945.663222410834
  0
LINE
  5
1E6
100
AcDbEntity
  8
1
  6
DOT_CENTER
 62
           3
100
AcDbLine
 10
-3615.67711993167
 20
1101.196240162313
 11
-3615.67711993167
 21
905.424879215563
  0
LINE
  5
1E5
100
AcDbEntity
  8
1
  6
CONTINUOUS
 62
           3
100
AcDbLine
 10
-3696.67711993167
 20
997.313222410833
 11
-3676.67711993167
 21
997.313222410833
  0
LINE
  5
1E4
100
AcDbEntity
  8
1
  6
CONTINUOUS
 62
           3
100
AcDbLine
 10
-3696.67711993167
 20
1011.013222410836
 11
-3696.67711993167
 21
997.313222410833
  0
LINE
  5
1E3
100
AcDbEntity
  8
1
  6
CONTINUOUS
 62
           3
100
AcDbLine
 10
-3676.67711993167
 20
1011.013222410836
 11
-3696.67711993167
 21
1011.013222410836
  0
LINE
  5
1E2
100
AcDbEntity
  8
1
  6
CONTINUOUS
 62
           2
100
AcDbLine
 10
-3721.67711993167
 20
1084.963222410838
 11
-3721.67711993167
 21
931.163222410834
  0
LINE
  5
1E1
100
AcDbEntity
  8
1
  6
CONTINUOUS
 62
           2
100
AcDbLine
 10
-3721.67711993167
 20
1084.963222410838
 11
-3676.67711993167
 21
1084.963222410838
  0
LINE
  5
1E0
100
AcDbEntity
  8
1
  6
CONTINUOUS
 62
           2
100
AcDbLine
 10
-3733.07711993167
 20
945.663222410834
 11
-3721.67711993167
 21
931.163222410834
  0
LINE
  5
1DF
100
AcDbEntity
  8
1
  6
CONTINUOUS
 62
           2
100
AcDbLine
 10
-3721.67711993167
 20
1077.163222410834
 11
-3733.07711993167
 21
1062.663222410834
  0
LINE
  5
1DE
100
AcDbEntity
  8
1
  6
CONTINUOUS
 62
           3
100
AcDbLine
 10
-3541.477119931669
 20
1077.163222410834
 11
-3541.477119931669
 21
931.163222410834
  0
LINE
  5
1DD
100
AcDbEntity
  8
1
  6
CONTINUOUS
 62
           2
100
AcDbLine
 10
-3737.67711993167
 20
945.663222410834
 11
-3733.07711993167
 21
945.663222410834
  0
LINE
  5
1DC
100
AcDbEntity
  8
1
  6
CONTINUOUS
 62
           2
100
AcDbLine
 10
-3737.67711993167
 20
1062.663222410834
 11
-3737.67711993167
 21
945.663222410834
  0
LINE
  5
1DB
100
AcDbEntity
  8
1
  6
CONTINUOUS
 62
           2
100
AcDbLine
 10
-3733.07711993167
 20
1062.663222410834
 11
-3737.67711993167
 21
1062.663222410834
  0
LINE
  5
1DA
100
AcDbEntity
  8
1
  6
CONTINUOUS
 62
           2
100
AcDbLine
 10
-3541.477119931669
 20
931.163222410834
 11
-3529.77711993167
 21
931.163222410834
  0
LINE
  5
1D9
100
AcDbEntity
  8
1
  6
CONTINUOUS
 62
           2
100
AcDbLine
 10
-3529.77711993167
 20
1077.163222410834
 11
-3541.477119931669
 21
1077.163222410834
  0
LINE
  5
1D8
100
AcDbEntity
  8
1
  6
CONTINUOUS
 62
           2
100
AcDbLine
 10
-3529.77711993167
 20
931.163222410834
 11
-3529.77711993167
 21
1077.163222410834
  0
LINE
  5
1D7
100
AcDbEntity
  8
1
  6
CONTINUOUS
 62
           2
100
AcDbLine
 10
-3526.377119931669
 20
947.163222410834
 11
-3526.377119931669
 21
1061.163222410834
  0
LINE
  5
1D6
100
AcDbEntity
  8
1
  6
CONTINUOUS
 62
           2
100
AcDbLine
 10
-3529.77711993167
 20
947.163222410834
 11
-3526.377119931669
 21
947.163222410834
  0
LINE
  5
1D5
100
AcDbEntity
  8
1
  6
CONTINUOUS
 62
           2
100
AcDbLine
 10
-3526.377119931669
 20
1061.163222410834
 11
-3529.77711993167
 21
1061.163222410834
  0
LINE
  5
1D4
100
AcDbEntity
  8
1
  6
CONTINUOUS
 62
           2
100
AcDbLine
 10
-3526.377119931669
 20
976.163222410834
 11
-3520.67711993167
 21
976.163222410834
  0
LINE
  5
1D3
100
AcDbEntity
  8
1
  6
CONTINUOUS
 62
           2
100
AcDbLine
 10
-3520.67711993167
 20
1032.163222410834
 11
-3526.377119931669
 21
1032.163222410834
  0
LINE
  5
1D2
100
AcDbEntity
  8
1
  6
CONTINUOUS
 62
           2
100
AcDbLine
 10
-3520.67711993167
 20
976.163222410834
 11
-3520.67711993167
 21
1032.163222410834
  0
LINE
  5
1D1
100
AcDbEntity
  8
1
  6
CONTINUOUS
 62
           2
100
AcDbLine
 10
-3515.67711993167
 20
993.163222410834
 11
-3520.67711993167
 21
993.163222410834
  0
LINE
  5
1D0
100
AcDbEntity
  8
1
  6
CONTINUOUS
 62
           2
100
AcDbLine
 10
-3520.67711993167
 20
1015.163222410834
 11
-3515.67711993167
 21
1015.163222410834
  0
LINE
  5
1CF
100
AcDbEntity
  8
1
  6
CONTINUOUS
 62
           2
100
AcDbLine
 10
-3515.67711993167
 20
993.163222410834
 11
-3515.67711993167
 21
1015.163222410834
  0
LINE
  5
1CE
100
AcDbEntity
  8
1
  6
CONTINUOUS
 62
           2
100
AcDbLine
 10
-3541.477119931669
 20
1077.163222410834
 11
-3676.67711993167
 21
1077.163222410834
  0
LINE
  5
1CD
100
AcDbEntity
  8
1
  6
CONTINUOUS
 62
           2
100
AcDbLine
 10
-3760.67711993167
 20
954.163222410825
 11
-3760.67711993167
 21
1119.163222410826
  0
LINE
  5
1CC
100
AcDbEntity
  8
1
  6
CONTINUOUS
 62
           2
100
AcDbLine
 10
-3800.67711993167
 20
1119.163222410826
 11
-3800.67711993167
 21
954.163222410825
  0
LINE
  5
1CB
100
AcDbEntity
  8
1
  6
CONTINUOUS
 62
           2
100
AcDbLine
 10
-4000.67711993167
 20
914.163222410825
 11
-3715.67711993167
 21
914.163222410825
  0
LINE
  5
1CA
100
AcDbEntity
  8
1
  6
CONTINUOUS
 62
           2
100
AcDbLine
 10
-3737.67711993167
 20
954.163222410825
 11
-4000.67711993167
 21
954.163222410825
  0
LINE
  5
1C9
100
AcDbEntity
  8
1
  6
CONTINUOUS
 62
           2
100
AcDbLine
 10
-4000.67711993167
 20
844.163222410825
 11
-4000.67711993167
 21
1119.163222410826
  0
LINE
  5
1C8
100
AcDbEntity
  8
1
  6
CONTINUOUS
 62
           2
100
AcDbLine
 10
-4040.67711993167
 20
1119.163222410826
 11
-4040.67711993167
 21
844.163222410825
  0
LINE
  5
1C7
100
AcDbEntity
  8
1
  6
CONTINUOUS
 62
           2
100
AcDbLine
 10
-4040.67711993167
 20
844.163222410825
 11
-4000.67711993167
 21
844.163222410825
  0
LINE
  5
1C6
100
AcDbEntity
  8
1
  6
CONTINUOUS
 62
           3
100
AcDbLine
 10
-3810.677119931668
 20
-2782.797367026402
 11
-3810.677119931668
 21
-2728.797367026402
  0
LINE
  5
1C5
100
AcDbEntity
  8
1
  6
CONTINUOUS
 62
           3
100
AcDbLine
 10
-3690.677119931668
 20
-2782.797367026402
 11
-3810.677119931668
 21
-2782.797367026402
  0
LINE
  5
1C4
100
AcDbEntity
  8
1
  6
CONTINUOUS
 62
           3
100
AcDbLine
 10
-3690.677119931668
 20
-2728.797367026402
 11
-3690.677119931668
 21
-2782.797367026402
  0
LINE
  5
1C3
100
AcDbEntity
  8
1
  6
CONTINUOUS
 62
           3
100
AcDbLine
 10
-3810.677119931668
 20
-2728.797367026402
 11
-3690.677119931668
 21
-2728.797367026402
  0
LINE
  5
1C2
100
AcDbEntity
  8
1
  6
CONTINUOUS
 62
           3
100
AcDbLine
 10
-3610.677119931667
 20
-2782.797367026402
 11
-3610.677119931667
 21
-2732.797367026402
  0
LINE
  5
1C1
100
AcDbEntity
  8
1
  6
CONTINUOUS
 62
           3
100
AcDbLine
 10
-3550.677119931667
 20
-2782.797367026402
 11
-3610.677119931667
 21
-2782.797367026402
  0
LINE
  5
1C0
100
AcDbEntity
  8
1
  6
CONTINUOUS
 62
           3
100
AcDbLine
 10
-3550.677119931667
 20
-2732.797367026402
 11
-3550.677119931667
 21
-2782.797367026402
  0
LINE
  5
1BF
100
AcDbEntity
  8
1
  6
CONTINUOUS
 62
           3
100
AcDbLine
 10
-3610.677119931667
 20
-2732.797367026402
 11
-3550.677119931667
 21
-2732.797367026402
  0
LINE
  5
1BE
100
AcDbEntity
  8
1
  6
CONTINUOUS
 62
           3
100
AcDbLine
 10
-3950.677119931667
 20
-2782.797367026402
 11
-3950.677119931667
 21
-2763.297367026402
  0
LINE
  5
1BD
100
AcDbEntity
  8
1
  6
CONTINUOUS
 62
           3
100
AcDbLine
 10
-3925.677119931667
 20
-2782.797367026402
 11
-3950.677119931667
 21
-2782.797367026402
  0
LINE
  5
1BC
100
AcDbEntity
  8
1
  6
CONTINUOUS
 62
           3
100
AcDbLine
 10
-3925.677119931667
 20
-2763.297367026402
 11
-3925.677119931667
 21
-2782.797367026402
  0
LINE
  5
1BB
100
AcDbEntity
  8
1
  6
CONTINUOUS
 62
           3
100
AcDbLine
 10
-3950.677119931667
 20
-2763.297367026402
 11
-3925.677119931667
 21
-2763.297367026402
  0
LINE
  5
1BA
100
AcDbEntity
  8
1
  6
CONTINUOUS
 62
           2
100
AcDbLine
 10
-1681.802054775793
 20
-2049.797367026389
 11
-1781.802054775793
 21
-2049.797367026389
  0
LINE
  5
1B9
100
AcDbEntity
  8
1
  6
CONTINUOUS
 62
           2
100
AcDbLine
 10
-1681.802054775793
 20
-2029.797367026389
 11
-1761.802054775793
 21
-2029.797367026389
  0
LINE
  5
1B8
100
AcDbEntity
  8
1
  6
CONTINUOUS
 62
           2
100
AcDbLine
 10
-1436.802054775793
 20
-2149.7973670264
 11
-1436.802054775793
 21
-1562.7973670264
  0
LINE
  5
1B7
100
AcDbEntity
  8
1
  6
DOT_CENTER
 62
           3
100
AcDbLine
 10
-1626.802054775793
 20
-1722.942860233543
 11
-1626.802054775793
 21
-1991.321519425119
  0
LINE
  5
1B6
100
AcDbEntity
  8
1
  6
CONTINUOUS
 62
           2
100
AcDbLine
 10
-1471.802054775785
 20
-1739.797367026389
 11
-1491.802054775793
 21
-1739.797367026389
  0
LINE
  5
1B5
100
AcDbEntity
  8
1
  6
CONTINUOUS
 62
           2
100
AcDbLine
 10
-1491.802054775793
 20
-1739.797367026389
 11
-1761.802054775793
 21
-1739.797367026389
  0
LINE
  5
1B4
100
AcDbEntity
  8
1
  6
CONTINUOUS
 62
           2
100
AcDbLine
 10
-1781.802054775785
 20
-1739.797367026389
 11
-1781.802054775793
 21
-2049.797367026389
  0
LINE
  5
1B3
100
AcDbEntity
  8
1
  6
CONTINUOUS
 62
           2
100
AcDbLine
 10
-1761.802054775793
 20
-1739.797367026389
 11
-1761.802054775793
 21
-2029.797367026389
  0
LINE
  5
1B2
100
AcDbEntity
  8
1
  6
CONTINUOUS
 62
           2
100
AcDbLine
 10
-1761.802054775793
 20
-1739.797367026389
 11
-1781.802054775785
 21
-1739.797367026389
  0
LINE
  5
1B1
100
AcDbEntity
  8
1
  6
CONTINUOUS
 62
           2
100
AcDbLine
 10
-1471.802054775785
 20
-1739.797367026389
 11
-1471.802054775791
 21
-1905.935043243679
  0
LINE
  5
1B0
100
AcDbEntity
  8
1
  6
CONTINUOUS
 62
           2
100
AcDbLine
 10
-1491.802054775793
 20
-1739.797367026389
 11
-1491.802054775793
 21
-1911.556811234388
  0
LINE
  5
1AF
100
AcDbEntity
  8
1
  6
CONTINUOUS
 62
           3
100
AcDbLine
 10
-2280.802054775794
 20
-1708.7973670264
 11
-1436.802054775793
 21
-1708.7973670264
  0
LINE
  5
1AE
100
AcDbEntity
  8
1
  6
CONTINUOUS
 62
           2
100
AcDbLine
 10
-771.802054775794
 20
-2259.7973670264
 11
-778.733288523846
 21
-2259.7973670264
  0
LINE
  5
1AD
100
AcDbEntity
  8
1
  6
CONTINUOUS
 62
           2
100
AcDbLine
 10
-3500.677119931668
 20
-2832.797367026402
 11
-3500.677119931668
 21
-3712.797367026402
  0
LINE
  5
1AC
100
AcDbEntity
  8
1
  6
CONTINUOUS
 62
           3
100
AcDbLine
 10
-2280.802054775794
 20
-1632.7973670264
 11
-2280.802054775793
 21
-2112.7973670264
  0
LINE
  5
1AB
100
AcDbEntity
  8
1
  6
CONTINUOUS
 62
           2
100
AcDbLine
 10
-1075.969904866882
 20
-1794.7973670264
 11
-951.802054775791
 21
-1794.7973670264
  0
LINE
  5
1AA
100
AcDbEntity
  8
1
  6
CONTINUOUS
 62
           2
100
AcDbLine
 10
-1711.802054775793
 20
-2259.7973670264
 11
-811.802054775793
 21
-2259.7973670264
  0
LINE
  5
1A9
100
AcDbEntity
  8
1
  6
CONTINUOUS
 62
           2
100
AcDbLine
 10
-1711.802054775793
 20
-2184.7973670264
 11
-1711.802054775793
 21
-2259.7973670264
  0
LINE
  5
1A8
100
AcDbEntity
  8
1
  6
CONTINUOUS
 62
           2
100
AcDbLine
 10
-811.802054775793
 20
-2184.7973670264
 11
-1711.802054775793
 21
-2184.7973670264
  0
LINE
  5
1A7
100
AcDbEntity
  8
1
  6
CONTINUOUS
 62
           2
100
AcDbLine
 10
-811.802054775793
 20
-2259.7973670264
 11
-811.802054775793
 21
-2184.7973670264
  0
LINE
  5
1A6
100
AcDbEntity
  8
1
  6
DOT_CENTER
 62
           3
100
AcDbLine
 10
-1357.82563059377
 20
-1894.7973670264
 11
-892.748291712166
 21
-1894.7973670264
  0
LINE
  5
1A5
100
AcDbEntity
  8
1
  6
DOT_CENTER
 62
           3
100
AcDbLine
 10
-1061.802054775793
 20
-2129.15655653232
 11
-1061.802054775793
 21
-1676.789715106818
  0
LINE
  5
1A4
100
AcDbEntity
  8
1
  6
CONTINUOUS
 62
           2
100
AcDbLine
 10
-951.802054775793
 20
-1937.7973670264
 11
-851.802054775791
 21
-2184.7973670264
  0
LINE
  5
1A3
100
AcDbEntity
  8
1
  6
DOT_CENTER
 62
           3
100
AcDbLine
 10
-1664.922054775793
 20
-2069.7973670264
 11
-1438.682054775792
 21
-2069.7973670264
  0
LINE
  5
1A2
100
AcDbEntity
  8
1
  6
DOT_CENTER
 62
           3
100
AcDbLine
 10
-1551.802054775793
 20
-1956.47323981702
 11
-1551.802054775793
 21
-2182.71323981702
  0
LINE
  5
1A1
100
AcDbEntity
  8
1
  6
PHANTOM
 62
           3
100
AcDbLine
 10
-1574.580109639696
 20
-1991.02452769318
 11
-1075.691112619638
 21
-1846.765147920778
  0
LINE
  5
1A0
100
AcDbEntity
  8
1
  6
PHANTOM
 62
           3
100
AcDbLine
 10
-1519.525357377951
 20
-2145.177834026068
 11
-1042.121141728329
 21
-1940.761066416439
  0
LINE
  5
19F
100
AcDbEntity
  8
1
  6
CONTINUOUS
 62
           2
100
AcDbLine
 10
-951.802054775793
 20
-2184.7973670264
 11
-951.802054775791
 21
-1794.7973670264
  0
LINE
  5
19E
100
AcDbEntity
  8
1
  6
CONTINUOUS
 62
           2
100
AcDbLine
 10
-1681.802054775793
 20
-2184.7973670264
 11
-1681.802054775793
 21
-1969.980565521601
  0
LINE
  5
19D
100
AcDbEntity
  8
1
  6
CONTINUOUS
 62
           3
100
AcDbLine
 10
-1711.802054775793
 20
-2258.1973670264
 11
-811.802054775793
 21
-2258.1973670264
  0
LINE
  5
19C
100
AcDbEntity
  8
1
  6
CONTINUOUS
 62
           3
100
AcDbLine
 10
-811.802054775793
 20
-2186.3973670264
 11
-1711.802054775793
 21
-2186.3973670264
  0
LINE
  5
19B
100
AcDbEntity
  8
1
  6
CONTINUOUS
 62
           2
100
AcDbLine
 10
-1681.802054775793
 20
-1969.980565521601
 11
-1075.969904866882
 21
-1794.7973670264
  0
LINE
  5
19A
100
AcDbEntity
  8
1
  6
CONTINUOUS
 62
           2
100
AcDbLine
 10
-771.802054775793
 20
-1562.7973670264
 11
-771.802054775794
 21
-2259.7973670264
  0
LINE
  5
199
100
AcDbEntity
  8
1
  6
CONTINUOUS
 62
           2
100
AcDbLine
 10
-1436.802054775793
 20
-1562.7973670264
 11
-771.802054775793
 21
-1562.7973670264
  0
LINE
  5
198
100
AcDbEntity
  8
1
  6
CONTINUOUS
 62
           3
100
AcDbLine
 10
-6206.677119931668
 20
-1827.1714374451
 11
-6048.677119931668
 21
-1827.1714374451
  0
LINE
  5
197
100
AcDbEntity
  8
1
  6
CONTINUOUS
 62
           3
100
AcDbLine
 10
-6206.677119931668
 20
-1977.1714374451
 11
-6206.677119931668
 21
-1827.1714374451
  0
LINE
  5
196
100
AcDbEntity
  8
1
  6
CONTINUOUS
 62
           3
100
AcDbLine
 10
-6048.677119931668
 20
-1902.1714374451
 11
-6048.677119931668
 21
-1827.1714374451
  0
LINE
  5
195
100
AcDbEntity
  8
1
  6
CONTINUOUS
 62
           3
100
AcDbLine
 10
-6262.677119931668
 20
-1977.1714374451
 11
-6190.677119931668
 21
-1977.1714374451
  0
LINE
  5
194
100
AcDbEntity
  8
1
  6
CONTINUOUS
 62
           3
100
AcDbLine
 10
-6262.677119931668
 20
-1902.1714374451
 11
-6048.677119931668
 21
-1902.1714374451
  0
LINE
  5
193
100
AcDbEntity
  8
1
  6
CONTINUOUS
 62
           3
100
AcDbLine
 10
-6262.677119931668
 20
-1977.1714374451
 11
-6262.677119931668
 21
-1902.1714374451
  0
LINE
  5
192
100
AcDbEntity
  8
1
  6
CONTINUOUS
 62
           3
100
AcDbLine
 10
-4302.677119931665
 20
-1827.1714374451
 11
-4144.677119931661
 21
-1827.1714374451
  0
LINE
  5
191
100
AcDbEntity
  8
1
  6
CONTINUOUS
 62
           3
100
AcDbLine
 10
-4144.677119931661
 20
-1827.1714374451
 11
-4144.677119931661
 21
-1977.1714374451
  0
LINE
  5
190
100
AcDbEntity
  8
1
  6
CONTINUOUS
 62
           3
100
AcDbLine
 10
-4302.677119931665
 20
-1827.1714374451
 11
-4302.677119931665
 21
-1902.1714374451
  0
LINE
  5
18F
100
AcDbEntity
  8
1
  6
CONTINUOUS
 62
           3
100
AcDbLine
 10
-4160.677119931661
 20
-1977.1714374451
 11
-4088.677119931661
 21
-1977.1714374451
  0
LINE
  5
18E
100
AcDbEntity
  8
1
  6
CONTINUOUS
 62
           3
100
AcDbLine
 10
-4302.677119931665
 20
-1902.1714374451
 11
-4088.677119931661
 21
-1902.1714374451
  0
LINE
  5
18D
100
AcDbEntity
  8
1
  6
CONTINUOUS
 62
           3
100
AcDbLine
 10
-4088.677119931661
 20
-1902.1714374451
 11
-4088.677119931661
 21
-1977.1714374451
  0
LINE
  5
18C
100
AcDbEntity
  8
1
  6
CONTINUOUS
 62
           3
100
AcDbLine
 10
-4389.677119931666
 20
-1622.7973670264
 11
-4342.67711993167
 21
-1622.7973670264
  0
LINE
  5
18B
100
AcDbEntity
  8
1
  6
CONTINUOUS
 62
           2
100
AcDbLine
 10
-4592.677119931674
 20
-1412.7973670264
 11
-4592.677119931674
 21
-1602.7973670264
  0
LINE
  5
18A
100
AcDbEntity
  8
1
  6
CONTINUOUS
 62
           2
100
AcDbLine
 10
-4392.677119931666
 20
-1602.7973670264
 11
-4392.677119931666
 21
-1412.7973670264
  0
LINE
  5
189
100
AcDbEntity
  8
1
  6
CONTINUOUS
 62
           3
100
AcDbLine
 10
-4592.677119931674
 20
-1602.7973670264
 11
-4392.677119931666
 21
-1602.7973670264
  0
LINE
  5
188
100
AcDbEntity
  8
1
  6
CONTINUOUS
 62
           3
100
AcDbLine
 10
-4362.677119931666
 20
-1632.7973670264
 11
-4362.677119931666
 21
-1631.7973670264
  0
LINE
  5
187
100
AcDbEntity
  8
1
  6
CONTINUOUS
 62
           3
100
AcDbLine
 10
-4364.677119931666
 20
-1629.7973670264
 11
-4385.677119931666
 21
-1629.7973670264
  0
LINE
  5
186
100
AcDbEntity
  8
1
  6
CONTINUOUS
 62
           3
100
AcDbLine
 10
-4389.677119931666
 20
-1625.7973670264
 11
-4389.677119931666
 21
-1604.7973670264
  0
LINE
  5
185
100
AcDbEntity
  8
1
  6
CONTINUOUS
 62
           3
100
AcDbLine
 10
-4391.677119931666
 20
-1602.7973670264
 11
-4392.677119931666
 21
-1602.7973670264
  0
LINE
  5
184
100
AcDbEntity
  8
1
  6
CONTINUOUS
 62
           3
100
AcDbLine
 10
-4622.67711993167
 20
-1631.7973670264
 11
-4622.67711993167
 21
-1632.7973670264
  0
LINE
  5
183
100
AcDbEntity
  8
1
  6
CONTINUOUS
 62
           3
100
AcDbLine
 10
-4599.67711993167
 20
-1629.7973670264
 11
-4620.67711993167
 21
-1629.7973670264
  0
LINE
  5
182
100
AcDbEntity
  8
1
  6
CONTINUOUS
 62
           3
100
AcDbLine
 10
-4595.67711993167
 20
-1604.7973670264
 11
-4595.67711993167
 21
-1625.7973670264
  0
LINE
  5
181
100
AcDbEntity
  8
1
  6
CONTINUOUS
 62
           3
100
AcDbLine
 10
-4592.67711993167
 20
-1602.7973670264
 11
-4593.67711993167
 21
-1602.7973670264
  0
LINE
  5
180
100
AcDbEntity
  8
1
  6
CONTINUOUS
 62
           3
100
AcDbLine
 10
-4362.677119931666
 20
-1383.7973670264
 11
-4362.677119931666
 21
-1382.7973670264
  0
LINE
  5
17F
100
AcDbEntity
  8
1
  6
CONTINUOUS
 62
           3
100
AcDbLine
 10
-4385.677119931666
 20
-1385.7973670264
 11
-4364.677119931666
 21
-1385.7973670264
  0
LINE
  5
17E
100
AcDbEntity
  8
1
  6
CONTINUOUS
 62
           3
100
AcDbLine
 10
-4389.677119931666
 20
-1410.7973670264
 11
-4389.677119931666
 21
-1389.7973670264
  0
LINE
  5
17D
100
AcDbEntity
  8
1
  6
CONTINUOUS
 62
           3
100
AcDbLine
 10
-4392.677119931666
 20
-1412.7973670264
 11
-4391.677119931666
 21
-1412.7973670264
  0
LINE
  5
17C
100
AcDbEntity
  8
1
  6
CONTINUOUS
 62
           3
100
AcDbLine
 10
-4362.677119931666
 20
-1382.7973670264
 11
-4362.677119931666
 21
-1381.7973670264
  0
LINE
  5
17B
100
AcDbEntity
  8
1
  6
CONTINUOUS
 62
           3
100
AcDbLine
 10
-4364.677119931666
 20
-1379.7973670264
 11
-4385.677119931666
 21
-1379.7973670264
  0
LINE
  5
17A
100
AcDbEntity
  8
1
  6
CONTINUOUS
 62
           3
100
AcDbLine
 10
-4389.677119931666
 20
-1375.7973670264
 11
-4389.677119931666
 21
-1354.7973670264
  0
LINE
  5
179
100
AcDbEntity
  8
1
  6
CONTINUOUS
 62
           3
100
AcDbLine
 10
-4391.677119931666
 20
-1352.7973670264
 11
-4392.677119931666
 21
-1352.7973670264
  0
LINE
  5
178
100
AcDbEntity
  8
1
  6
CONTINUOUS
 62
           3
100
AcDbLine
 10
-4391.677119931666
 20
-1412.7973670264
 11
-4592.67711993167
 21
-1412.7973670264
  0
LINE
  5
177
100
AcDbEntity
  8
1
  6
CONTINUOUS
 62
           3
100
AcDbLine
 10
-4622.67711993167
 20
-1382.7973670264
 11
-4622.67711993167
 21
-1383.7973670264
  0
LINE
  5
176
100
AcDbEntity
  8
1
  6
CONTINUOUS
 62
           3
100
AcDbLine
 10
-4620.67711993167
 20
-1385.7973670264
 11
-4599.67711993167
 21
-1385.7973670264
  0
LINE
  5
175
100
AcDbEntity
  8
1
  6
CONTINUOUS
 62
           3
100
AcDbLine
 10
-4595.67711993167
 20
-1389.7973670264
 11
-4595.67711993167
 21
-1410.7973670264
  0
LINE
  5
174
100
AcDbEntity
  8
1
  6
CONTINUOUS
 62
           3
100
AcDbLine
 10
-4593.67711993167
 20
-1412.7973670264
 11
-4592.67711993167
 21
-1412.7973670264
  0
LINE
  5
173
100
AcDbEntity
  8
1
  6
CONTINUOUS
 62
           3
100
AcDbLine
 10
-4592.67711993167
 20
-1352.7973670264
 11
-4391.677119931666
 21
-1352.7973670264
  0
LINE
  5
172
100
AcDbEntity
  8
1
  6
CONTINUOUS
 62
           3
100
AcDbLine
 10
-4622.67711993167
 20
-1381.7973670264
 11
-4622.67711993167
 21
-1382.7973670264
  0
LINE
  5
171
100
AcDbEntity
  8
1
  6
CONTINUOUS
 62
           3
100
AcDbLine
 10
-4599.67711993167
 20
-1379.7973670264
 11
-4620.67711993167
 21
-1379.7973670264
  0
LINE
  5
170
100
AcDbEntity
  8
1
  6
CONTINUOUS
 62
           3
100
AcDbLine
 10
-4595.67711993167
 20
-1354.7973670264
 11
-4595.67711993167
 21
-1375.7973670264
  0
LINE
  5
16F
100
AcDbEntity
  8
1
  6
CONTINUOUS
 62
           3
100
AcDbLine
 10
-4592.67711993167
 20
-1352.7973670264
 11
-4593.67711993167
 21
-1352.7973670264
  0
LINE
  5
16E
100
AcDbEntity
  8
1
  6
CONTINUOUS
 62
           2
100
AcDbLine
 10
-4622.67711993167
 20
-1382.7973670264
 11
-4362.677119931666
 21
-1382.7973670264
  0
LINE
  5
16D
100
AcDbEntity
  8
1
  6
DOT_CENTER
 62
           3
100
AcDbLine
 10
-4492.67711993167
 20
-1343.176228385712
 11
-4492.67711993167
 21
-1644.49225406933
  0
LINE
  5
16C
100
AcDbEntity
  8
1
  6
DOT_CENTER
 62
           3
100
AcDbLine
 10
-4402.67711993167
 20
-1582.7973670264
 11
-4332.67711993167
 21
-1582.7973670264
  0
LINE
  5
16B
100
AcDbEntity
  8
1
  6
DOT_CENTER
 62
           3
100
AcDbLine
 10
-4367.67711993167
 20
-1547.7973670264
 11
-4367.67711993167
 21
-1632.7973670264
  0
LINE
  5
16A
100
AcDbEntity
  8
1
  6
CONTINUOUS
 62
           3
100
AcDbLine
 10
-4342.67711993167
 20
-1622.7973670264
 11
-4342.67711993167
 21
-1632.7973670264
  0
LINE
  5
169
100
AcDbEntity
  8
1
  6
CONTINUOUS
 62
           3
100
AcDbLine
 10
-4377.67711993167
 20
-1622.7973670264
 11
-4377.67711993167
 21
-1612.7973670264
  0
LINE
  5
168
100
AcDbEntity
  8
1
  6
CONTINUOUS
 62
           3
100
AcDbLine
 10
-4377.67711993167
 20
-1612.7973670264
 11
-4357.67711993167
 21
-1612.7973670264
  0
LINE
  5
167
100
AcDbEntity
  8
1
  6
CONTINUOUS
 62
           3
100
AcDbLine
 10
-4357.67711993167
 20
-1612.7973670264
 11
-4357.67711993167
 21
-1622.7973670264
  0
LINE
  5
166
100
AcDbEntity
  8
1
  6
CONTINUOUS
 62
           3
100
AcDbLine
 10
-4365.17711993167
 20
-1607.672052954069
 11
-4365.17711993167
 21
-1612.7973670264
  0
LINE
  5
165
100
AcDbEntity
  8
1
  6
CONTINUOUS
 62
           3
100
AcDbLine
 10
-4370.17711993167
 20
-1607.672052954069
 11
-4370.17711993167
 21
-1612.7973670264
  0
LINE
  5
164
100
AcDbEntity
  8
1
  6
CONTINUOUS
 62
           3
100
AcDbLine
 10
-4175.67711993167
 20
-1769.224202037498
 11
-4175.67711993167
 21
-1632.7973670264
  0
LINE
  5
163
100
AcDbEntity
  8
1
  6
CONTINUOUS
 62
           2
100
AcDbLine
 10
-4075.67711993167
 20
-3712.797367026402
 11
-4075.67711993167
 21
-1632.7973670264
  0
LINE
  5
162
100
AcDbEntity
  8
1
  6
CONTINUOUS
 62
           2
100
AcDbLine
 10
-4160.67711993167
 20
-3712.797367026402
 11
-4160.67711993167
 21
-1768.484402235752
  0
LINE
  5
161
100
AcDbEntity
  8
1
  6
CONTINUOUS
 62
           2
100
AcDbLine
 10
-5098.9331175111
 20
-1768.484402235752
 11
-4160.67711993167
 21
-1768.484402235752
  0
LINE
  5
160
100
AcDbEntity
  8
1
  6
CONTINUOUS
 62
           3
100
AcDbLine
 10
-5100.43143596815
 20
-3625.797367026402
 11
-4160.67711993167
 21
-3625.797367026402
  0
LINE
  5
15F
100
AcDbEntity
  8
1
  6
CONTINUOUS
 62
           2
100
AcDbLine
 10
-6424.143573555346
 20
-3712.797367026402
 11
-3332.160417815352
 21
-3712.797367026402
  0
LINE
  5
15E
100
AcDbEntity
  8
1
  6
CONTINUOUS
 62
           3
100
AcDbLine
 10
-5238.677119931666
 20
-2767.515027490301
 11
-5238.677119931666
 21
-3007.515027490301
  0
LINE
  5
15D
100
AcDbEntity
  8
1
  6
CONTINUOUS
 62
           3
100
AcDbLine
 10
-5254.677119931666
 20
-2767.515027490301
 11
-5254.677119931666
 21
-3007.515027490301
  0
LINE
  5
15C
100
AcDbEntity
  8
1
  6
CONTINUOUS
 62
           3
100
AcDbLine
 10
-5254.677119931666
 20
-2767.515027490301
 11
-5238.677119931666
 21
-2767.515027490301
  0
LINE
  5
15B
100
AcDbEntity
  8
1
  6
CONTINUOUS
 62
           3
100
AcDbLine
 10
-5254.677119931666
 20
-3007.515027490301
 11
-5238.677119931666
 21
-3007.515027490301
  0
LINE
  5
15A
100
AcDbEntity
  8
1
  6
DOT_CENTER
 62
           3
100
AcDbLine
 10
-5272.486407916376
 20
-2887.515027490301
 11
-5222.815845091187
 21
-2887.515027490301
  0
LINE
  5
159
100
AcDbEntity
  8
1
  6
DOT_CENTER
 62
           3
100
AcDbLine
 10
-5112.761460792237
 20
-2887.515027490301
 11
-4779.334503821448
 21
-2887.515027490301
  0
LINE
  5
158
100
AcDbEntity
  8
1
  6
DOT_CENTER
 62
           3
100
AcDbLine
 10
-5246.677119931666
 20
-2751.447893561019
 11
-5246.677119931666
 21
-3026.096888006201
  0
LINE
  5
157
100
AcDbEntity
  8
1
  6
CONTINUOUS
 62
           3
100
AcDbLine
 10
-5261.677119931666
 20
-2757.515027490301
 11
-5231.677119931666
 21
-2757.515027490301
  0
LINE
  5
156
100
AcDbEntity
  8
1
  6
CONTINUOUS
 62
           3
100
AcDbLine
 10
-5231.677119931666
 20
-2757.515027490301
 11
-5231.677119931666
 21
-2777.515027490301
  0
LINE
  5
155
100
AcDbEntity
  8
1
  6
CONTINUOUS
 62
           3
100
AcDbLine
 10
-5261.677119931666
 20
-2757.515027490301
 11
-5261.677119931666
 21
-2777.515027490301
  0
LINE
  5
154
100
AcDbEntity
  8
1
  6
CONTINUOUS
 62
           3
100
AcDbLine
 10
-5231.677119931666
 20
-2777.515027490301
 11
-5238.677119931666
 21
-2787.515027490301
  0
LINE
  5
153
100
AcDbEntity
  8
1
  6
CONTINUOUS
 62
           3
100
AcDbLine
 10
-5261.677119931666
 20
-2777.515027490301
 11
-5254.677119931666
 21
-2787.515027490301
  0
LINE
  5
152
100
AcDbEntity
  8
1
  6
CONTINUOUS
 62
           3
100
AcDbLine
 10
-5238.677119931666
 20
-2987.515027490301
 11
-5231.677119931666
 21
-2997.515027490301
  0
LINE
  5
151
100
AcDbEntity
  8
1
  6
CONTINUOUS
 62
           3
100
AcDbLine
 10
-5254.677119931666
 20
-2987.515027490301
 11
-5261.677119931666
 21
-2997.515027490301
  0
LINE
  5
150
100
AcDbEntity
  8
1
  6
CONTINUOUS
 62
           3
100
AcDbLine
 10
-5261.677119931666
 20
-3017.515027490301
 11
-5231.677119931666
 21
-3017.515027490301
  0
LINE
  5
14F
100
AcDbEntity
  8
1
  6
CONTINUOUS
 62
           3
100
AcDbLine
 10
-5231.677119931666
 20
-2997.515027490301
 11
-5231.677119931666
 21
-3017.515027490301
  0
LINE
  5
14E
100
AcDbEntity
  8
1
  6
CONTINUOUS
 62
           3
100
AcDbLine
 10
-5261.677119931666
 20
-2997.515027490301
 11
-5261.677119931666
 21
-3017.515027490301
  0
LINE
  5
14D
100
AcDbEntity
  8
1
  6
CONTINUOUS
 62
           3
100
AcDbLine
 10
-5046.677119931666
 20
-2878.147020983362
 11
-5046.677119931666
 21
-2897.459207752252
  0
LINE
  5
14C
100
AcDbEntity
  8
1
  6
CONTINUOUS
 62
           3
100
AcDbLine
 10
-5250.922803895184
 20
-3626.826056809472
 11
-5140.922803895184
 21
-3626.826056809472
  0
LINE
  5
14B
100
AcDbEntity
  8
1
  6
CONTINUOUS
 62
           3
100
AcDbLine
 10
-5250.922803895184
 20
-3658.826056809472
 11
-5140.922803895184
 21
-3658.826056809472
  0
LINE
  5
14A
100
AcDbEntity
  8
1
  6
CONTINUOUS
 62
           3
100
AcDbLine
 10
-5140.922803895184
 20
-3626.826056809472
 11
-5140.922803895184
 21
-3658.826056809472
  0
LINE
  5
149
100
AcDbEntity
  8
1
  6
CONTINUOUS
 62
           3
100
AcDbLine
 10
-5250.922803895184
 20
-3626.826056809472
 11
-5250.922803895184
 21
-3658.826056809472
  0
LINE
  5
148
100
AcDbEntity
  8
1
  6
CONTINUOUS
 62
           3
100
AcDbLine
 10
-5173.125987372167
 20
-3626.826056809472
 11
-5173.125987372167
 21
-3658.826056809472
  0
LINE
  5
147
100
AcDbEntity
  8
1
  6
CONTINUOUS
 62
           3
100
AcDbLine
 10
-5156.677119931666
 20
-3553.797367026402
 11
-5076.677119931666
 21
-3553.797367026402
  0
LINE
  5
146
100
AcDbEntity
  8
1
  6
CONTINUOUS
 62
           3
100
AcDbLine
 10
-5156.677119931666
 20
-3593.797367026402
 11
-5076.677119931666
 21
-3593.797367026402
  0
LINE
  5
145
100
AcDbEntity
  8
1
  6
CONTINUOUS
 62
           3
100
AcDbLine
 10
-5076.677119931666
 20
-3553.797367026402
 11
-5076.677119931666
 21
-3593.797367026402
  0
LINE
  5
144
100
AcDbEntity
  8
1
  6
CONTINUOUS
 62
           3
100
AcDbLine
 10
-5156.677119931666
 20
-3553.797367026402
 11
-5156.677119931666
 21
-3593.797367026402
  0
LINE
  5
143
100
AcDbEntity
  8
1
  6
CONTINUOUS
 62
           3
100
AcDbLine
 10
-5156.677119931666
 20
-2967.515027490301
 11
-5076.677119931666
 21
-2967.515027490301
  0
LINE
  5
142
100
AcDbEntity
  8
1
  6
CONTINUOUS
 62
           3
100
AcDbLine
 10
-5156.677119931666
 20
-3007.515027490301
 11
-5076.677119931666
 21
-3007.515027490301
  0
LINE
  5
141
100
AcDbEntity
  8
1
  6
CONTINUOUS
 62
           3
100
AcDbLine
 10
-5076.677119931666
 20
-2967.515027490301
 11
-5076.677119931666
 21
-3007.515027490301
  0
LINE
  5
140
100
AcDbEntity
  8
1
  6
CONTINUOUS
 62
           3
100
AcDbLine
 10
-5156.677119931666
 20
-2967.515027490301
 11
-5156.677119931666
 21
-3007.515027490301
  0
LINE
  5
13F
100
AcDbEntity
  8
1
  6
CONTINUOUS
 62
           3
100
AcDbLine
 10
-5141.677119931666
 20
-3603.797367026402
 11
-5091.677119931666
 21
-3603.797367026402
  0
LINE
  5
13E
100
AcDbEntity
  8
1
  6
CONTINUOUS
 62
           3
100
AcDbLine
 10
-5091.677119931666
 20
-3593.797367026402
 11
-5091.677119931666
 21
-3603.797367026402
  0
LINE
  5
13D
100
AcDbEntity
  8
1
  6
CONTINUOUS
 62
           3
100
AcDbLine
 10
-5141.677119931666
 20
-3593.797367026402
 11
-5141.677119931666
 21
-3603.797367026402
  0
LINE
  5
13C
100
AcDbEntity
  8
1
  6
CONTINUOUS
 62
           3
100
AcDbLine
 10
-5140.922803895184
 20
-3633.297367026402
 11
-5095.589029590499
 21
-3633.297367026402
  0
LINE
  5
13B
100
AcDbEntity
  8
1
  6
CONTINUOUS
 62
           3
100
AcDbLine
 10
-5140.922803895184
 20
-3654.41670941391
 11
-5095.589029590499
 21
-3654.41670941391
  0
LINE
  5
13A
100
AcDbEntity
  8
1
  6
CONTINUOUS
 62
           3
100
AcDbLine
 10
-5095.589029590499
 20
-3633.297367026402
 11
-5095.589029590499
 21
-3654.41670941391
  0
LINE
  5
139
100
AcDbEntity
  8
1
  6
CONTINUOUS
 62
           3
100
AcDbLine
 10
-5101.677119931666
 20
-1825.163066711511
 11
-5101.677119931666
 21
-3552.266539539711
  0
LINE
  5
138
100
AcDbEntity
  8
1
  6
CONTINUOUS
 62
           3
100
AcDbLine
 10
-5101.677119931666
 20
-3603.797367026402
 11
-5101.677119931666
 21
-3633.297367026402
  0
LINE
  5
137
100
AcDbEntity
  8
1
  6
CONTINUOUS
 62
           3
100
AcDbLine
 10
-5131.677119931666
 20
-3603.797367026402
 11
-5131.677119931666
 21
-3633.297367026402
  0
LINE
  5
136
100
AcDbEntity
  8
1
  6
CONTINUOUS
 62
           3
100
AcDbLine
 10
-5131.677119931666
 20
-3553.797367026402
 11
-5131.677119931666
 21
-1825.163066711511
  0
LINE
  5
135
100
AcDbEntity
  8
1
  6
CONTINUOUS
 62
           3
100
AcDbLine
 10
-4976.677119931666
 20
-2847.515027490301
 11
-4956.677119931666
 21
-2847.515027490301
  0
LINE
  5
134
100
AcDbEntity
  8
1
  6
CONTINUOUS
 62
           3
100
AcDbLine
 10
-4956.677119931666
 20
-2847.515027490301
 11
-4956.677119931666
 21
-2907.515027490301
  0
LINE
  5
133
100
AcDbEntity
  8
1
  6
CONTINUOUS
 62
           3
100
AcDbLine
 10
-4956.677119931666
 20
-2907.515027490301
 11
-4976.677119931666
 21
-2907.515027490301
  0
LINE
  5
132
100
AcDbEntity
  8
1
  6
CONTINUOUS
 62
           3
100
AcDbLine
 10
-4976.677119931666
 20
-2907.515027490301
 11
-4976.677119931666
 21
-2847.515027490301
  0
LINE
  5
131
100
AcDbEntity
  8
1
  6
CONTINUOUS
 62
           3
100
AcDbLine
 10
-5101.677119931666
 20
-2872.515027490301
 11
-5036.677119931666
 21
-2872.515027490301
  0
LINE
  5
130
100
AcDbEntity
  8
1
  6
CONTINUOUS
 62
           3
100
AcDbLine
 10
-5101.677119931666
 20
-2902.515027490301
 11
-5036.677119931666
 21
-2902.515027490301
  0
LINE
  5
12F
100
AcDbEntity
  8
1
  6
CONTINUOUS
 62
           3
100
AcDbLine
 10
-5036.677119931666
 20
-2872.515027490301
 11
-5026.677119931666
 21
-2877.515027490301
  0
LINE
  5
12E
100
AcDbEntity
  8
1
  6
CONTINUOUS
 62
           3
100
AcDbLine
 10
-5036.677119931666
 20
-2902.515027490301
 11
-5026.677119931666
 21
-2897.515027490301
  0
LINE
  5
12D
100
AcDbEntity
  8
1
  6
CONTINUOUS
 62
           3
100
AcDbLine
 10
-5026.677119931666
 20
-2877.515027490301
 11
-4980.522761814116
 21
-2877.515027490301
  0
LINE
  5
12C
100
AcDbEntity
  8
1
  6
CONTINUOUS
 62
           3
100
AcDbLine
 10
-5026.677119931666
 20
-2897.515027490301
 11
-4978.903473481938
 21
-2897.515027490301
  0
LINE
  5
12B
100
AcDbEntity
  8
1
  6
CONTINUOUS
 62
           3
100
AcDbLine
 10
-4953.534622944362
 20
-2877.515027490301
 11
-4787.429822510059
 21
-2877.515027490301
  0
LINE
  5
12A
100
AcDbEntity
  8
1
  6
CONTINUOUS
 62
           3
100
AcDbLine
 10
-4953.534622944362
 20
-2897.515027490301
 11
-4787.429822510059
 21
-2897.515027490301
  0
LINE
  5
129
100
AcDbEntity
  8
1
  6
CONTINUOUS
 62
           3
100
AcDbLine
 10
-4782.429822510059
 20
-2882.515027490301
 11
-4782.429822510059
 21
-2892.515027490301
  0
LINE
  5
128
100
AcDbEntity
  8
1
  6
DOT_CENTER
 62
           3
100
AcDbLine
 10
-5116.677119931666
 20
-1667.347648585603
 11
-5116.677119931666
 21
-3682.388595846171
  0
LINE
  5
127
100
AcDbEntity
  8
1
  6
CONTINUOUS
 62
           3
100
AcDbLine
 10
-5251.677119931666
 20
-1728.061542968981
 11
-5141.677119931666
 21
-1728.061542968981
  0
LINE
  5
126
100
AcDbEntity
  8
1
  6
CONTINUOUS
 62
           3
100
AcDbLine
 10
-5251.677119931666
 20
-1760.061542968981
 11
-5141.677119931666
 21
-1760.061542968981
  0
LINE
  5
125
100
AcDbEntity
  8
1
  6
CONTINUOUS
 62
           3
100
AcDbLine
 10
-5141.677119931666
 20
-1728.061542968981
 11
-5141.677119931666
 21
-1760.061542968981
  0
LINE
  5
124
100
AcDbEntity
  8
1
  6
CONTINUOUS
 62
           3
100
AcDbLine
 10
-5251.677119931666
 20
-1728.061542968981
 11
-5251.677119931666
 21
-1760.061542968981
  0
LINE
  5
123
100
AcDbEntity
  8
1
  6
CONTINUOUS
 62
           3
100
AcDbLine
 10
-5173.880303408645
 20
-1728.061542968981
 11
-5173.880303408645
 21
-1760.061542968981
  0
LINE
  5
122
100
AcDbEntity
  8
1
  6
CONTINUOUS
 62
           3
100
AcDbLine
 10
-5156.677119931666
 20
-1785.163066711511
 11
-5076.677119931666
 21
-1785.163066711511
  0
LINE
  5
121
100
AcDbEntity
  8
1
  6
CONTINUOUS
 62
           3
100
AcDbLine
 10
-5156.677119931666
 20
-1825.163066711511
 11
-5076.677119931666
 21
-1825.163066711511
  0
LINE
  5
120
100
AcDbEntity
  8
1
  6
CONTINUOUS
 62
           3
100
AcDbLine
 10
-5076.677119931666
 20
-1785.163066711511
 11
-5076.677119931666
 21
-1825.163066711511
  0
LINE
  5
11F
100
AcDbEntity
  8
1
  6
CONTINUOUS
 62
           3
100
AcDbLine
 10
-5156.677119931666
 20
-1785.163066711511
 11
-5156.677119931666
 21
-1825.163066711511
  0
LINE
  5
11E
100
AcDbEntity
  8
1
  6
CONTINUOUS
 62
           3
100
AcDbLine
 10
-5141.677119931666
 20
-1775.16306671151
 11
-5091.677119931666
 21
-1775.16306671151
  0
LINE
  5
11D
100
AcDbEntity
  8
1
  6
CONTINUOUS
 62
           3
100
AcDbLine
 10
-5091.677119931666
 20
-1775.16306671151
 11
-5091.677119931666
 21
-1785.163066711511
  0
LINE
  5
11C
100
AcDbEntity
  8
1
  6
CONTINUOUS
 62
           3
100
AcDbLine
 10
-5141.677119931666
 20
-1775.16306671151
 11
-5141.677119931666
 21
-1785.163066711511
  0
LINE
  5
11B
100
AcDbEntity
  8
1
  6
CONTINUOUS
 62
           3
100
AcDbLine
 10
-5141.677119931666
 20
-1733.09380801443
 11
-5096.917781179067
 21
-1733.09380801443
  0
LINE
  5
11A
100
AcDbEntity
  8
1
  6
CONTINUOUS
 62
           3
100
AcDbLine
 10
-5141.677119931666
 20
-1755.984402235752
 11
-5096.917781179067
 21
-1755.984402235752
  0
LINE
  5
119
100
AcDbEntity
  8
1
  6
CONTINUOUS
 62
           3
100
AcDbLine
 10
-5096.917781179067
 20
-1733.09380801443
 11
-5096.917781179067
 21
-1755.984402235752
  0
LINE
  5
118
100
AcDbEntity
  8
1
  6
CONTINUOUS
 62
           3
100
AcDbLine
 10
-5101.677119931666
 20
-1755.984402235752
 11
-5101.677119931666
 21
-1775.16306671151
  0
LINE
  5
117
100
AcDbEntity
  8
1
  6
CONTINUOUS
 62
           3
100
AcDbLine
 10
-5131.677119931666
 20
-1775.16306671151
 11
-5131.677119931666
 21
-1755.984402235752
  0
LINE
  5
116
100
AcDbEntity
  8
1
  6
CONTINUOUS
 62
           2
100
AcDbLine
 10
-5175.677119931666
 20
-3625.797367026402
 11
-5175.677119931666
 21
-1768.484402235752
  0
LINE
  5
115
100
AcDbEntity
  8
1
  6
CONTINUOUS
 62
           3
100
AcDbLine
 10
-6206.677119931668
 20
-2368.484402235752
 11
-6048.677119931668
 21
-2368.484402235752
  0
LINE
  5
114
100
AcDbEntity
  8
1
  6
CONTINUOUS
 62
           3
100
AcDbLine
 10
-6206.677119931668
 20
-2518.484402235752
 11
-6206.677119931668
 21
-2368.484402235752
  0
LINE
  5
113
100
AcDbEntity
  8
1
  6
CONTINUOUS
 62
           3
100
AcDbLine
 10
-6048.677119931668
 20
-2443.484402235752
 11
-6048.677119931668
 21
-2368.484402235752
  0
LINE
  5
112
100
AcDbEntity
  8
1
  6
CONTINUOUS
 62
           2
100
AcDbLine
 10
-6275.677119931668
 20
-3712.797367026402
 11
-6275.677119931668
 21
-1632.7973670264
  0
LINE
  5
111
100
AcDbEntity
  8
1
  6
CONTINUOUS
 62
           2
100
AcDbLine
 10
-6275.677119931668
 20
-1632.7973670264
 11
-4075.67711993167
 21
-1632.7973670264
  0
LINE
  5
110
100
AcDbEntity
  8
1
  6
CONTINUOUS
 62
           2
100
AcDbLine
 10
-6190.677119931668
 20
-1768.484402235752
 11
-5134.180351352961
 21
-1768.484402235752
  0
LINE
  5
10F
100
AcDbEntity
  8
1
  6
CONTINUOUS
 62
           3
100
AcDbLine
 10
-6206.677119931668
 20
-3450.797367026402
 11
-6048.677119931668
 21
-3450.797367026402
  0
LINE
  5
10E
100
AcDbEntity
  8
1
  6
CONTINUOUS
 62
           3
100
AcDbLine
 10
-6262.677119931668
 20
-3600.797367026402
 11
-6190.677119931668
 21
-3600.797367026402
  0
LINE
  5
10D
100
AcDbEntity
  8
1
  6
CONTINUOUS
 62
           3
100
AcDbLine
 10
-6262.677119931668
 20
-3525.797367026402
 11
-6048.677119931668
 21
-3525.797367026402
  0
LINE
  5
10C
100
AcDbEntity
  8
1
  6
CONTINUOUS
 62
           3
100
AcDbLine
 10
-6262.677119931668
 20
-3600.797367026402
 11
-6262.677119931668
 21
-3525.797367026402
  0
LINE
  5
10B
100
AcDbEntity
  8
1
  6
CONTINUOUS
 62
           3
100
AcDbLine
 10
-6206.677119931668
 20
-3600.797367026402
 11
-6206.677119931668
 21
-3450.797367026402
  0
LINE
  5
10A
100
AcDbEntity
  8
1
  6
CONTINUOUS
 62
           3
100
AcDbLine
 10
-6048.677119931668
 20
-3525.797367026402
 11
-6048.677119931668
 21
-3450.797367026402
  0
LINE
  5
109
100
AcDbEntity
  8
1
  6
CONTINUOUS
 62
           3
100
AcDbLine
 10
-6206.677119931668
 20
-2909.797367026402
 11
-6048.677119931668
 21
-2909.797367026402
  0
LINE
  5
108
100
AcDbEntity
  8
1
  6
CONTINUOUS
 62
           3
100
AcDbLine
 10
-6262.677119931668
 20
-3059.797367026402
 11
-6190.677119931668
 21
-3059.797367026402
  0
LINE
  5
107
100
AcDbEntity
  8
1
  6
CONTINUOUS
 62
           3
100
AcDbLine
 10
-6262.677119931668
 20
-2984.797367026402
 11
-6048.677119931668
 21
-2984.797367026402
  0
LINE
  5
106
100
AcDbEntity
  8
1
  6
CONTINUOUS
 62
           3
100
AcDbLine
 10
-6262.677119931668
 20
-3059.797367026402
 11
-6262.677119931668
 21
-2984.797367026402
  0
LINE
  5
105
100
AcDbEntity
  8
1
  6
CONTINUOUS
 62
           3
100
AcDbLine
 10
-6206.677119931668
 20
-3059.797367026402
 11
-6206.677119931668
 21
-2909.797367026402
  0
LINE
  5
104
100
AcDbEntity
  8
1
  6
CONTINUOUS
 62
           3
100
AcDbLine
 10
-6048.677119931668
 20
-2984.797367026402
 11
-6048.677119931668
 21
-2909.797367026402
  0
LINE
  5
103
100
AcDbEntity
  8
1
  6
CONTINUOUS
 62
           2
100
AcDbLine
 10
-4099.677119931668
 20
-3106.797367026402
 11
-3500.677119931666
 21
-3106.797367026402
  0
LINE
  5
102
100
AcDbEntity
  8
1
  6
CONTINUOUS
 62
           2
100
AcDbLine
 10
-3960.677119931668
 20
-2873.223827702141
 11
-3960.677119931668
 21
-3106.797367026402
  0
LINE
  5
101
100
AcDbEntity
  8
1
  6
CONTINUOUS
 62
           2
100
AcDbLine
 10
-4000.677119931668
 20
-2832.797367026402
 11
-4000.677119931668
 21
-3106.797367026402
  0
LINE
  5
100
100
AcDbEntity
  8
1
  6
CONTINUOUS
 62
           2
100
AcDbLine
 10
-3540.677119931668
 20
-2873.797367026402
 11
-3540.677119931668
 21
-3106.797367026402
  0
LINE
  5
FF
100
AcDbEntity
  8
1
  6
CONTINUOUS
 62
           2
100
AcDbLine
 10
-3925.677119931668
 20
-2881.797367026402
 11
-3675.677119931668
 21
-2881.797367026402
  0
LINE
  5
FE
100
AcDbEntity
  8
1
  6
CONTINUOUS
 62
           2
100
AcDbLine
 10
-3675.677119931668
 20
-2881.797367026402
 11
-3675.677119931668
 21
-3081.797367026402
  0
LINE
  5
FD
100
AcDbEntity
  8
1
  6
CONTINUOUS
 62
           2
100
AcDbLine
 10
-3675.677119931668
 20
-3081.797367026402
 11
-3925.677119931668
 21
-3081.797367026402
  0
LINE
  5
FC
100
AcDbEntity
  8
1
  6
CONTINUOUS
 62
           2
100
AcDbLine
 10
-3925.677119931668
 20
-3081.797367026402
 11
-3925.677119931668
 21
-2881.797367026402
  0
LINE
  5
FB
100
AcDbEntity
  8
1
  6
DOT_CENTER
 62
           3
100
AcDbLine
 10
-3800.677119931668
 20
-2862.557395431193
 11
-3800.677119931668
 21
-3087.737598459653
  0
LINE
  5
FA
100
AcDbEntity
  8
1
  6
DOT_CENTER
 62
           3
100
AcDbLine
 10
-3941.684829111055
 20
-2981.797367026402
 11
-3649.17537991505
 21
-2981.797367026402
  0
LINE
  5
F9
100
AcDbEntity
  8
1
  6
CONTINUOUS
 62
           3
100
AcDbLine
 10
-6262.677119931668
 20
-2518.484402235752
 11
-6190.677119931668
 21
-2518.484402235752
  0
LINE
  5
F8
100
AcDbEntity
  8
1
  6
CONTINUOUS
 62
           3
100
AcDbLine
 10
-6262.677119931668
 20
-2443.484402235752
 11
-6048.677119931668
 21
-2443.484402235752
  0
LINE
  5
F7
100
AcDbEntity
  8
1
  6
CONTINUOUS
 62
           3
100
AcDbLine
 10
-6262.677119931668
 20
-2518.484402235752
 11
-6262.677119931668
 21
-2443.484402235752
  0
LINE
  5
F6
100
AcDbEntity
  8
1
  6
CONTINUOUS
 62
           3
100
AcDbLine
 10
-5133.28977626823
 20
-3625.797367026402
 11
-6190.677119931668
 21
-3625.797367026402
  0
LINE
  5
F5
100
AcDbEntity
  8
1
  6
CONTINUOUS
 62
           3
100
AcDbLine
 10
-4302.677119931665
 20
-2368.484402235752
 11
-4144.677119931661
 21
-2368.484402235752
  0
LINE
  5
F4
100
AcDbEntity
  8
1
  6
CONTINUOUS
 62
           3
100
AcDbLine
 10
-4144.677119931661
 20
-2368.484402235752
 11
-4144.677119931661
 21
-2518.484402235752
  0
LINE
  5
F3
100
AcDbEntity
  8
1
  6
CONTINUOUS
 62
           3
100
AcDbLine
 10
-4302.677119931665
 20
-2368.484402235752
 11
-4302.677119931665
 21
-2443.484402235752
  0
LINE
  5
F2
100
AcDbEntity
  8
1
  6
CONTINUOUS
 62
           3
100
AcDbLine
 10
-4160.677119931661
 20
-2518.484402235752
 11
-4088.677119931661
 21
-2518.484402235752
  0
LINE
  5
F1
100
AcDbEntity
  8
1
  6
CONTINUOUS
 62
           3
100
AcDbLine
 10
-4302.677119931665
 20
-2443.484402235752
 11
-4088.677119931661
 21
-2443.484402235752
  0
LINE
  5
F0
100
AcDbEntity
  8
1
  6
CONTINUOUS
 62
           3
100
AcDbLine
 10
-4088.677119931661
 20
-2443.484402235752
 11
-4088.677119931661
 21
-2518.484402235752
  0
LINE
  5
EF
100
AcDbEntity
  8
1
  6
CONTINUOUS
 62
           3
100
AcDbLine
 10
-4302.677119931665
 20
-2909.797367026402
 11
-4144.677119931661
 21
-2909.797367026402
  0
LINE
  5
EE
100
AcDbEntity
  8
1
  6
CONTINUOUS
 62
           3
100
AcDbLine
 10
-4160.677119931661
 20
-3059.797367026402
 11
-4088.677119931661
 21
-3059.797367026402
  0
LINE
  5
ED
100
AcDbEntity
  8
1
  6
CONTINUOUS
 62
           3
100
AcDbLine
 10
-4302.677119931665
 20
-2984.797367026402
 11
-4088.677119931661
 21
-2984.797367026402
  0
LINE
  5
EC
100
AcDbEntity
  8
1
  6
CONTINUOUS
 62
           3
100
AcDbLine
 10
-4088.677119931661
 20
-2984.797367026402
 11
-4088.677119931661
 21
-3059.797367026402
  0
LINE
  5
EB
100
AcDbEntity
  8
1
  6
CONTINUOUS
 62
           3
100
AcDbLine
 10
-4144.677119931661
 20
-2909.797367026402
 11
-4144.677119931661
 21
-3059.797367026402
  0
LINE
  5
EA
100
AcDbEntity
  8
1
  6
CONTINUOUS
 62
           3
100
AcDbLine
 10
-4302.677119931665
 20
-2909.797367026402
 11
-4302.677119931665
 21
-2984.797367026402
  0
LINE
  5
E9
100
AcDbEntity
  8
1
  6
CONTINUOUS
 62
           3
100
AcDbLine
 10
-4302.677119931665
 20
-3450.797367026402
 11
-4144.677119931661
 21
-3450.797367026402
  0
LINE
  5
E8
100
AcDbEntity
  8
1
  6
CONTINUOUS
 62
           3
100
AcDbLine
 10
-4160.677119931661
 20
-3600.797367026402
 11
-4088.677119931661
 21
-3600.797367026402
  0
LINE
  5
E7
100
AcDbEntity
  8
1
  6
CONTINUOUS
 62
           3
100
AcDbLine
 10
-4302.677119931665
 20
-3525.797367026402
 11
-4088.677119931661
 21
-3525.797367026402
  0
LINE
  5
E6
100
AcDbEntity
  8
1
  6
CONTINUOUS
 62
           3
100
AcDbLine
 10
-4088.677119931661
 20
-3525.797367026402
 11
-4088.677119931661
 21
-3600.797367026402
  0
LINE
  5
E5
100
AcDbEntity
  8
1
  6
CONTINUOUS
 62
           3
100
AcDbLine
 10
-4144.677119931661
 20
-3450.797367026402
 11
-4144.677119931661
 21
-3600.797367026402
  0
LINE
  5
E4
100
AcDbEntity
  8
1
  6
CONTINUOUS
 62
           3
100
AcDbLine
 10
-4302.677119931665
 20
-3450.797367026402
 11
-4302.677119931665
 21
-3525.797367026402
  0
LINE
  5
E3
100
AcDbEntity
  8
1
  6
CONTINUOUS
 62
           2
100
AcDbLine
 10
-4000.677119931668
 20
-2873.797367026402
 11
-3500.677119931668
 21
-2873.797367026402
  0
LINE
  5
E2
100
AcDbEntity
  8
1
  6
CONTINUOUS
 62
           3
100
AcDbLine
 10
-6175.677119931668
 20
-1632.7973670264
 11
-6175.677119931668
 21
-1768.484402235752
  0
LINE
  5
E1
100
AcDbEntity
  8
1
  6
CONTINUOUS
 62
           2
100
AcDbLine
 10
-2357.802054775793
 20
-1632.7973670264
 11
-2357.802054775794
 21
-3712.797367026402
  0
LINE
  5
E0
100
AcDbEntity
  8
1
  6
CONTINUOUS
 62
           2
100
AcDbLine
 10
-2280.802054775794
 20
-3106.797367026402
 11
-2280.802054775794
 21
-3712.797367026402
  0
LINE
  5
DF
100
AcDbEntity
  8
1
  6
CONTINUOUS
 62
           3
100
AcDbLine
 10
-2250.802054775793
 20
-2112.7973670264
 11
-2250.802054775793
 21
-2832.797367026402
  0
LINE
  5
DE
100
AcDbEntity
  8
1
  6
CONTINUOUS
 62
           2
100
AcDbLine
 10
-1980.802054775793
 20
-2832.797367026402
 11
-1980.802054775793
 21
-2112.7973670264
  0
LINE
  5
DD
100
AcDbEntity
  8
1
  6
CONTINUOUS
 62
           2
100
AcDbLine
 10
-2280.802054775793
 20
-2832.797367026402
 11
-1980.802054775793
 21
-2832.797367026402
  0
LINE
  5
DC
100
AcDbEntity
  8
1
  6
CONTINUOUS
 62
           2
100
AcDbLine
 10
-2280.802054775793
 20
-2112.7973670264
 11
-2280.802054775793
 21
-2832.797367026402
  0
LINE
  5
DB
100
AcDbEntity
  8
1
  6
CONTINUOUS
 62
           2
100
AcDbLine
 10
-1980.802054775793
 20
-2112.7973670264
 11
-2280.802054775793
 21
-2112.7973670264
  0
LINE
  5
DA
100
AcDbEntity
  8
1
  6
DOT_CENTER
 62
           3
100
AcDbLine
 10
-1970.802054775794
 20
-1320.894950145641
 11
-1970.802054775793
 21
-1667.901493444313
  0
LINE
  5
D9
100
AcDbEntity
  8
1
  6
CONTINUOUS
 62
           2
100
AcDbLine
 10
-1942.802054775793
 20
-2881.797367026402
 11
-1942.802054775793
 21
-3081.797367026402
  0
LINE
  5
D8
100
AcDbEntity
  8
1
  6
CONTINUOUS
 62
           2
100
AcDbLine
 10
-2238.802054775794
 20
-3066.797367026402
 11
-2022.802054775785
 21
-3066.797367026402
  0
LINE
  5
D7
100
AcDbEntity
  8
1
  6
CONTINUOUS
 62
           2
100
AcDbLine
 10
-2022.802054775793
 20
-2873.797367026402
 11
-2022.802054775793
 21
-3066.797367026402
  0
LINE
  5
D6
100
AcDbEntity
  8
1
  6
CONTINUOUS
 62
           2
100
AcDbLine
 10
-2070.802054775794
 20
-1352.7973670264
 11
-2070.802054775794
 21
-1632.7973670264
  0
LINE
  5
D5
100
AcDbEntity
  8
1
  6
CONTINUOUS
 62
           2
100
AcDbLine
 10
-1870.802054775794
 20
-1352.7973670264
 11
-1870.802054775794
 21
-1633.09747986615
  0
LINE
  5
D4
100
AcDbEntity
  8
1
  6
CONTINUOUS
 62
           2
100
AcDbLine
 10
-2070.802054775794
 20
-1602.49725418665
 11
-1870.802054775794
 21
-1602.49725418665
  0
LINE
  5
D3
100
AcDbEntity
  8
1
  6
CONTINUOUS
 62
           2
100
AcDbLine
 10
-2070.802054775794
 20
-1412.7973670264
 11
-1870.802054775794
 21
-1412.7973670264
  0
LINE
  5
D2
100
AcDbEntity
  8
1
  6
CONTINUOUS
 62
           2
100
AcDbLine
 10
-2070.802054775794
 20
-1352.7973670264
 11
-1870.802054775794
 21
-1352.7973670264
  0
LINE
  5
D1
100
AcDbEntity
  8
1
  6
CONTINUOUS
 62
           2
100
AcDbLine
 10
-2100.802054775794
 20
-1382.7973670264
 11
-1840.802054775794
 21
-1382.7973670264
  0
LINE
  5
D0
100
AcDbEntity
  8
1
  6
DOT_CENTER
 62
           3
100
AcDbLine
 10
-1743.802054775793
 20
-2981.797367026402
 11
-1691.784731064844
 21
-2981.797367026402
  0
LINE
  5
CF
100
AcDbEntity
  8
1
  6
DOT_CENTER
 62
           3
100
AcDbLine
 10
-1743.802054775793
 20
-2981.797367026402
 11
-1965.795482718185
 21
-2981.797367026402
  0
LINE
  5
CE
100
AcDbEntity
  8
1
  6
CONTINUOUS
 62
           2
100
AcDbLine
 10
-1792.802054775793
 20
-2881.797367026402
 11
-1792.802054775793
 21
-3081.797367026402
  0
LINE
  5
CD
100
AcDbEntity
  8
1
  6
CONTINUOUS
 62
           2
100
AcDbLine
 10
-1942.802054775793
 20
-3081.797367026402
 11
-1780.802054775793
 21
-3081.797367026402
  0
LINE
  5
CC
100
AcDbEntity
  8
1
  6
CONTINUOUS
 62
           2
100
AcDbLine
 10
-1942.802054775793
 20
-2881.797367026402
 11
-1780.802054775793
 21
-2881.797367026402
  0
LINE
  5
CB
100
AcDbEntity
  8
1
  6
CONTINUOUS
 62
           2
100
AcDbLine
 10
-1780.802054775793
 20
-1632.797367026411
 11
-1780.802054775793
 21
-3712.797367026402
  0
LINE
  5
CA
100
AcDbEntity
  8
1
  6
CONTINUOUS
 62
           2
100
AcDbLine
 10
-1781.802054775793
 20
-2259.7973670264
 11
-780.802054775793
 21
-2259.7973670264
  0
LINE
  5
C9
100
AcDbEntity
  8
1
  6
CONTINUOUS
 62
           2
100
AcDbLine
 10
-780.802054775793
 20
-2259.7973670264
 11
-780.802054775793
 21
-3712.797367026402
  0
LINE
  5
C8
100
AcDbEntity
  8
1
  6
CONTINUOUS
 62
           2
100
AcDbLine
 10
-2280.802054775794
 20
-3106.797367026402
 11
-1780.802054775793
 21
-3106.797367026402
  0
LINE
  5
C7
100
AcDbEntity
  8
1
  6
CONTINUOUS
 62
           2
100
AcDbLine
 10
-280.802054775793
 20
-3106.797367026402
 11
-280.802054775793
 21
-3712.797367026402
  0
LINE
  5
C6
100
AcDbEntity
  8
1
  6
CONTINUOUS
 62
           2
100
AcDbLine
 10
-205.802054775793
 20
-1632.7973670264
 11
-205.802054775792
 21
-3712.797367026402
  0
LINE
  5
C5
100
AcDbEntity
  8
1
  6
CONTINUOUS
 62
           2
100
AcDbLine
 10
-1980.802054775793
 20
-2832.797367026402
 11
-1980.802054775793
 21
-3106.797367026402
  0
LINE
  5
C4
100
AcDbEntity
  8
1
  6
CONTINUOUS
 62
           2
100
AcDbLine
 10
-2357.802054775794
 20
-3712.797367026402
 11
-205.802054775792
 21
-3712.797367026402
  0
LINE
  5
C3
100
AcDbEntity
  8
1
  6
CONTINUOUS
 62
           2
100
AcDbLine
 10
-2280.802054775794
 20
-2833.025454862391
 11
-2280.802054775794
 21
-3106.797367026402
  0
LINE
  5
C2
100
AcDbEntity
  8
1
  6
CONTINUOUS
 62
           2
100
AcDbLine
 10
-2238.802054775794
 20
-3066.797367026402
 11
-2238.802054775794
 21
-2873.797367026402
  0
LINE
  5
C1
100
AcDbEntity
  8
1
  6
CONTINUOUS
 62
           2
100
AcDbLine
 10
-2238.802054775794
 20
-2873.797367026402
 11
-2022.802054775793
 21
-2873.797367026402
  0
LINE
  5
C0
100
AcDbEntity
  8
1
  6
CONTINUOUS
 62
           3
100
AcDbLine
 10
-280.802054775793
 20
-3106.797367026402
 11
-280.802054775793
 21
-1632.797367026411
  0
LINE
  5
BF
100
AcDbEntity
  8
1
  6
CONTINUOUS
 62
           2
100
AcDbLine
 10
-205.802054775793
 20
-1632.797367026411
 11
-771.802054775793
 21
-1632.797367026411
  0
LINE
  5
BE
100
AcDbEntity
  8
1
  6
DOT_CENTER
 62
           3
100
AcDbLine
 10
-5175.677119931666
 20
-1560.998610439132
 11
-5175.677119931666
 21
-3734.195557900332
  0
LINE
  5
BD
100
AcDbEntity
  8
1
  6
CONTINUOUS
 62
           3
100
AcDbLine
 10
-3770.039692722412
 20
-2926.235397211478
 11
-3769.654148718886
 21
-2926.235397211478
  0
LINE
  5
BC
100
AcDbEntity
  8
1
  6
CONTINUOUS
 62
           3
100
AcDbLine
 10
-3815.129063940991
 20
-2877.413492386158
 11
-3782.569872838705
 21
-2877.413492386158
  0
LINE
  5
BB
100
AcDbEntity
  8
1
  6
DOT_CENTER
 62
           3
100
AcDbLine
 10
-3798.67711993167
 20
-2854.547581571069
 11
-3798.67711993167
 21
-2942.52128580749
  0
LINE
  5
BA
100
AcDbEntity
  8
1
  6
CONTINUOUS
 62
           3
100
AcDbLine
 10
-3833.67711993167
 20
-2936.862491278907
 11
-3833.67711993167
 21
-2861.862491278907
  0
LINE
  5
B9
100
AcDbEntity
  8
1
  6
CONTINUOUS
 62
           3
100
AcDbLine
 10
-3763.67711993167
 20
-2936.862491278907
 11
-3833.67711993167
 21
-2936.862491278907
  0
LINE
  5
B8
100
AcDbEntity
  8
1
  6
CONTINUOUS
 62
           3
100
AcDbLine
 10
-3763.67711993167
 20
-2861.862491278907
 11
-3763.67711993167
 21
-2936.862491278907
  0
LINE
  5
B7
100
AcDbEntity
  8
1
  6
CONTINUOUS
 62
           3
100
AcDbLine
 10
-3833.67711993167
 20
-2861.862491278907
 11
-3763.67711993167
 21
-2861.862491278907
  0
LINE
  5
B6
100
AcDbEntity
  8
1
  6
DOT_CENTER
 62
           3
100
AcDbLine
 10
-3760.870681275575
 20
-2900.862491278907
 11
-3813.018665764887
 21
-2900.862491278907
  0
LINE
  5
B5
100
AcDbEntity
  8
1
  6
CONTINUOUS
 62
           3
100
AcDbLine
 10
-3771.67711993167
 20
-2923.41400881138
 11
-3771.67711993167
 21
-2931.958022614259
  0
LINE
  5
B4
100
AcDbEntity
  8
1
  6
CONTINUOUS
 62
           3
100
AcDbLine
 10
-3775.378092921192
 20
-2926.862491278907
 11
-3767.685075932728
 21
-2926.862491278907
  0
LINE
  5
B3
100
AcDbEntity
  8
1
  6
CONTINUOUS
 62
           3
100
AcDbLine
 10
-3771.67711993167
 20
-2868.41400881138
 11
-3771.67711993167
 21
-2876.958022614259
  0
LINE
  5
B2
100
AcDbEntity
  8
1
  6
CONTINUOUS
 62
           3
100
AcDbLine
 10
-3775.378092921192
 20
-2871.862491278907
 11
-3767.685075932728
 21
-2871.862491278907
  0
LINE
  5
B1
100
AcDbEntity
  8
1
  6
CONTINUOUS
 62
           3
100
AcDbLine
 10
-3916.677119931664
 20
-2506.7973670264
 11
-3916.677119931664
 21
-2526.7973670264
  0
LINE
  5
B0
100
AcDbEntity
  8
1
  6
CONTINUOUS
 62
           3
100
AcDbLine
 10
-3944.677119931664
 20
-2505.7973670264
 11
-3944.677119931664
 21
-2443.7973670264
  0
LINE
  5
AF
100
AcDbEntity
  8
1
  6
CONTINUOUS
 62
           3
100
AcDbLine
 10
-3916.677119931665
 20
-2505.7973670264
 11
-3944.677119931664
 21
-2505.7973670264
  0
LINE
  5
AE
100
AcDbEntity
  8
1
  6
CONTINUOUS
 62
           3
100
AcDbLine
 10
-3916.677119931664
 20
-2506.7973670264
 11
-3944.677119931664
 21
-2506.7973670264
  0
LINE
  5
AD
100
AcDbEntity
  8
1
  6
CONTINUOUS
 62
           3
100
AcDbLine
 10
-3944.677119931664
 20
-2443.7973670264
 11
-3916.677119931664
 21
-2443.7973670264
  0
LINE
  5
AC
100
AcDbEntity
  8
1
  6
CONTINUOUS
 62
           3
100
AcDbLine
 10
-3916.677119931664
 20
-2443.7973670264
 11
-3916.677119931665
 21
-2505.7973670264
  0
LINE
  5
AB
100
AcDbEntity
  8
1
  6
CONTINUOUS
 62
           3
100
AcDbLine
 10
-3916.677119931664
 20
-2526.7973670264
 11
-3944.677119931664
 21
-2526.7973670264
  0
LINE
  5
AA
100
AcDbEntity
  8
1
  6
CONTINUOUS
 62
           3
100
AcDbLine
 10
-3944.677119931664
 20
-2526.7973670264
 11
-3944.677119931664
 21
-2506.7973670264
  0
LINE
  5
A9
100
AcDbEntity
  8
1
  6
CONTINUOUS
 62
           3
100
AcDbLine
 10
-3643.177119931664
 20
-2405.7973670264
 11
-3643.177119931664
 21
-2415.7973670264
  0
LINE
  5
A8
100
AcDbEntity
  8
1
  6
CONTINUOUS
 62
           3
100
AcDbLine
 10
-3603.177119931664
 20
-2405.7973670264
 11
-3643.177119931664
 21
-2405.7973670264
  0
LINE
  5
A7
100
AcDbEntity
  8
1
  6
CONTINUOUS
 62
           3
100
AcDbLine
 10
-3603.177119931664
 20
-2415.7973670264
 11
-3603.177119931664
 21
-2405.7973670264
  0
LINE
  5
A6
100
AcDbEntity
  8
1
  6
CONTINUOUS
 62
           3
100
AcDbLine
 10
-3643.177119931664
 20
-2415.7973670264
 11
-3603.177119931664
 21
-2415.7973670264
  0
LINE
  5
A5
100
AcDbEntity
  8
1
  6
CONTINUOUS
 62
           3
100
AcDbLine
 10
-3743.177119931664
 20
-2455.797367026391
 11
-3743.177119931664
 21
-2465.797367026391
  0
LINE
  5
A4
100
AcDbEntity
  8
1
  6
CONTINUOUS
 62
           3
100
AcDbLine
 10
-3703.177119931664
 20
-2455.797367026391
 11
-3743.177119931664
 21
-2455.797367026391
  0
LINE
  5
A3
100
AcDbEntity
  8
1
  6
CONTINUOUS
 62
           3
100
AcDbLine
 10
-3703.177119931664
 20
-2465.797367026391
 11
-3703.177119931664
 21
-2455.797367026391
  0
LINE
  5
A2
100
AcDbEntity
  8
1
  6
CONTINUOUS
 62
           3
100
AcDbLine
 10
-3743.177119931664
 20
-2465.797367026391
 11
-3703.177119931664
 21
-2465.797367026391
  0
LINE
  5
A1
100
AcDbEntity
  8
1
  6
CONTINUOUS
 62
           3
100
AcDbLine
 10
-3793.177119931664
 20
-2455.797367026391
 11
-3793.177119931664
 21
-2465.797367026391
  0
LINE
  5
A0
100
AcDbEntity
  8
1
  6
CONTINUOUS
 62
           3
100
AcDbLine
 10
-3753.177119931664
 20
-2455.797367026391
 11
-3793.177119931664
 21
-2455.797367026391
  0
LINE
  5
9F
100
AcDbEntity
  8
1
  6
CONTINUOUS
 62
           3
100
AcDbLine
 10
-3753.177119931664
 20
-2465.797367026391
 11
-3753.177119931664
 21
-2455.797367026391
  0
LINE
  5
9E
100
AcDbEntity
  8
1
  6
CONTINUOUS
 62
           3
100
AcDbLine
 10
-3793.177119931664
 20
-2465.797367026391
 11
-3753.177119931664
 21
-2465.797367026391
  0
LINE
  5
9D
100
AcDbEntity
  8
1
  6
CONTINUOUS
 62
           3
100
AcDbLine
 10
-3843.177119931664
 20
-2455.797367026391
 11
-3843.177119931664
 21
-2465.797367026391
  0
LINE
  5
9C
100
AcDbEntity
  8
1
  6
CONTINUOUS
 62
           3
100
AcDbLine
 10
-3803.177119931664
 20
-2455.797367026391
 11
-3843.177119931664
 21
-2455.797367026391
  0
LINE
  5
9B
100
AcDbEntity
  8
1
  6
CONTINUOUS
 62
           3
100
AcDbLine
 10
-3803.177119931664
 20
-2465.797367026391
 11
-3803.177119931664
 21
-2455.797367026391
  0
LINE
  5
9A
100
AcDbEntity
  8
1
  6
CONTINUOUS
 62
           3
100
AcDbLine
 10
-3843.177119931664
 20
-2465.797367026391
 11
-3803.177119931664
 21
-2465.797367026391
  0
LINE
  5
99
100
AcDbEntity
  8
1
  6
CONTINUOUS
 62
           3
100
AcDbLine
 10
-3685.677119931664
 20
-2470.797367026391
 11
-3685.677119931664
 21
-2490.797367026391
  0
LINE
  5
98
100
AcDbEntity
  8
1
  6
CONTINUOUS
 62
           3
100
AcDbLine
 10
-3660.677119931664
 20
-2470.797367026391
 11
-3685.677119931664
 21
-2470.797367026391
  0
LINE
  5
97
100
AcDbEntity
  8
1
  6
CONTINUOUS
 62
           3
100
AcDbLine
 10
-3660.677119931664
 20
-2490.797367026391
 11
-3660.677119931664
 21
-2470.797367026391
  0
LINE
  5
96
100
AcDbEntity
  8
1
  6
CONTINUOUS
 62
           3
100
AcDbLine
 10
-3685.677119931664
 20
-2490.797367026391
 11
-3660.677119931664
 21
-2490.797367026391
  0
LINE
  5
95
100
AcDbEntity
  8
1
  6
CONTINUOUS
 62
           3
100
AcDbLine
 10
-3635.677119931664
 20
-2470.797367026391
 11
-3635.677119931664
 21
-2490.797367026391
  0
LINE
  5
94
100
AcDbEntity
  8
1
  6
CONTINUOUS
 62
           3
100
AcDbLine
 10
-3610.677119931664
 20
-2470.797367026391
 11
-3635.677119931664
 21
-2470.797367026391
  0
LINE
  5
93
100
AcDbEntity
  8
1
  6
CONTINUOUS
 62
           3
100
AcDbLine
 10
-3610.677119931664
 20
-2490.797367026391
 11
-3610.677119931664
 21
-2470.797367026391
  0
LINE
  5
92
100
AcDbEntity
  8
1
  6
CONTINUOUS
 62
           3
100
AcDbLine
 10
-3635.677119931664
 20
-2490.797367026391
 11
-3610.677119931664
 21
-2490.797367026391
  0
LINE
  5
91
100
AcDbEntity
  8
1
  6
CONTINUOUS
 62
           3
100
AcDbLine
 10
-3635.677119931664
 20
-2420.7973670264
 11
-3635.677119931664
 21
-2440.7973670264
  0
LINE
  5
90
100
AcDbEntity
  8
1
  6
CONTINUOUS
 62
           3
100
AcDbLine
 10
-3610.677119931664
 20
-2420.7973670264
 11
-3635.677119931664
 21
-2420.7973670264
  0
LINE
  5
8F
100
AcDbEntity
  8
1
  6
CONTINUOUS
 62
           3
100
AcDbLine
 10
-3610.677119931664
 20
-2440.797367026391
 11
-3610.677119931664
 21
-2420.7973670264
  0
LINE
  5
8E
100
AcDbEntity
  8
1
  6
CONTINUOUS
 62
           3
100
AcDbLine
 10
-3635.677119931664
 20
-2440.7973670264
 11
-3610.677119931664
 21
-2440.797367026391
  0
LINE
  5
8D
100
AcDbEntity
  8
1
  6
CONTINUOUS
 62
           3
100
AcDbLine
 10
-3735.677119931664
 20
-2470.797367026391
 11
-3735.677119931664
 21
-2490.797367026391
  0
LINE
  5
8C
100
AcDbEntity
  8
1
  6
CONTINUOUS
 62
           3
100
AcDbLine
 10
-3710.677119931664
 20
-2470.797367026391
 11
-3735.677119931664
 21
-2470.797367026391
  0
LINE
  5
8B
100
AcDbEntity
  8
1
  6
CONTINUOUS
 62
           3
100
AcDbLine
 10
-3710.677119931664
 20
-2490.797367026391
 11
-3710.677119931664
 21
-2470.797367026391
  0
LINE
  5
8A
100
AcDbEntity
  8
1
  6
CONTINUOUS
 62
           3
100
AcDbLine
 10
-3735.677119931664
 20
-2490.797367026391
 11
-3710.677119931664
 21
-2490.797367026391
  0
LINE
  5
89
100
AcDbEntity
  8
1
  6
CONTINUOUS
 62
           3
100
AcDbLine
 10
-3785.677119931664
 20
-2470.797367026391
 11
-3785.677119931664
 21
-2490.797367026391
  0
LINE
  5
88
100
AcDbEntity
  8
1
  6
CONTINUOUS
 62
           3
100
AcDbLine
 10
-3760.677119931664
 20
-2470.797367026391
 11
-3785.677119931664
 21
-2470.797367026391
  0
LINE
  5
87
100
AcDbEntity
  8
1
  6
CONTINUOUS
 62
           3
100
AcDbLine
 10
-3760.677119931664
 20
-2490.797367026391
 11
-3760.677119931664
 21
-2470.797367026391
  0
LINE
  5
86
100
AcDbEntity
  8
1
  6
CONTINUOUS
 62
           3
100
AcDbLine
 10
-3785.677119931664
 20
-2490.797367026391
 11
-3760.677119931664
 21
-2490.797367026391
  0
LINE
  5
85
100
AcDbEntity
  8
1
  6
CONTINUOUS
 62
           3
100
AcDbLine
 10
-3835.677119931664
 20
-2470.797367026391
 11
-3835.677119931664
 21
-2490.797367026391
  0
LINE
  5
84
100
AcDbEntity
  8
1
  6
CONTINUOUS
 62
           3
100
AcDbLine
 10
-3810.677119931664
 20
-2470.797367026391
 11
-3835.677119931664
 21
-2470.797367026391
  0
LINE
  5
83
100
AcDbEntity
  8
1
  6
CONTINUOUS
 62
           3
100
AcDbLine
 10
-3810.677119931664
 20
-2490.797367026391
 11
-3810.677119931664
 21
-2470.797367026391
  0
LINE
  5
82
100
AcDbEntity
  8
1
  6
CONTINUOUS
 62
           3
100
AcDbLine
 10
-3835.677119931664
 20
-2490.797367026391
 11
-3810.677119931664
 21
-2490.797367026391
  0
LINE
  5
81
100
AcDbEntity
  8
1
  6
CONTINUOUS
 62
           3
100
AcDbLine
 10
-3885.677119931664
 20
-2470.797367026391
 11
-3885.677119931664
 21
-2490.797367026391
  0
LINE
  5
80
100
AcDbEntity
  8
1
  6
CONTINUOUS
 62
           3
100
AcDbLine
 10
-3860.677119931664
 20
-2470.797367026391
 11
-3885.677119931664
 21
-2470.797367026391
  0
LINE
  5
7F
100
AcDbEntity
  8
1
  6
CONTINUOUS
 62
           3
100
AcDbLine
 10
-3860.677119931664
 20
-2490.797367026391
 11
-3860.677119931664
 21
-2470.797367026391
  0
LINE
  5
7E
100
AcDbEntity
  8
1
  6
CONTINUOUS
 62
           3
100
AcDbLine
 10
-3885.677119931664
 20
-2490.797367026391
 11
-3860.677119931664
 21
-2490.797367026391
  0
LINE
  5
7D
100
AcDbEntity
  8
1
  6
CONTINUOUS
 62
           3
100
AcDbLine
 10
-3735.677119931664
 20
-2420.7973670264
 11
-3735.677119931664
 21
-2440.7973670264
  0
LINE
  5
7C
100
AcDbEntity
  8
1
  6
CONTINUOUS
 62
           3
100
AcDbLine
 10
-3710.677119931664
 20
-2420.7973670264
 11
-3735.677119931664
 21
-2420.7973670264
  0
LINE
  5
7B
100
AcDbEntity
  8
1
  6
CONTINUOUS
 62
           3
100
AcDbLine
 10
-3710.677119931664
 20
-2440.797367026391
 11
-3710.677119931664
 21
-2420.7973670264
  0
LINE
  5
7A
100
AcDbEntity
  8
1
  6
CONTINUOUS
 62
           3
100
AcDbLine
 10
-3735.677119931664
 20
-2440.7973670264
 11
-3710.677119931664
 21
-2440.797367026391
  0
LINE
  5
79
100
AcDbEntity
  8
1
  6
CONTINUOUS
 62
           3
100
AcDbLine
 10
-3785.677119931664
 20
-2420.7973670264
 11
-3785.677119931664
 21
-2440.7973670264
  0
LINE
  5
78
100
AcDbEntity
  8
1
  6
CONTINUOUS
 62
           3
100
AcDbLine
 10
-3760.677119931664
 20
-2420.7973670264
 11
-3785.677119931664
 21
-2420.7973670264
  0
LINE
  5
77
100
AcDbEntity
  8
1
  6
CONTINUOUS
 62
           3
100
AcDbLine
 10
-3760.677119931664
 20
-2440.797367026391
 11
-3760.677119931664
 21
-2420.7973670264
  0
LINE
  5
76
100
AcDbEntity
  8
1
  6
CONTINUOUS
 62
           3
100
AcDbLine
 10
-3785.677119931664
 20
-2440.7973670264
 11
-3760.677119931664
 21
-2440.797367026391
  0
LINE
  5
75
100
AcDbEntity
  8
1
  6
CONTINUOUS
 62
           3
100
AcDbLine
 10
-3835.677119931664
 20
-2420.7973670264
 11
-3835.677119931664
 21
-2440.7973670264
  0
LINE
  5
74
100
AcDbEntity
  8
1
  6
CONTINUOUS
 62
           3
100
AcDbLine
 10
-3810.677119931664
 20
-2420.7973670264
 11
-3835.677119931664
 21
-2420.7973670264
  0
LINE
  5
73
100
AcDbEntity
  8
1
  6
CONTINUOUS
 62
           3
100
AcDbLine
 10
-3810.677119931664
 20
-2440.797367026391
 11
-3810.677119931664
 21
-2420.7973670264
  0
LINE
  5
72
100
AcDbEntity
  8
1
  6
CONTINUOUS
 62
           3
100
AcDbLine
 10
-3835.677119931664
 20
-2440.7973670264
 11
-3810.677119931664
 21
-2440.797367026391
  0
LINE
  5
71
100
AcDbEntity
  8
1
  6
CONTINUOUS
 62
           3
100
AcDbLine
 10
-3885.677119931664
 20
-2420.7973670264
 11
-3885.677119931664
 21
-2440.7973670264
  0
LINE
  5
70
100
AcDbEntity
  8
1
  6
CONTINUOUS
 62
           3
100
AcDbLine
 10
-3860.677119931664
 20
-2420.7973670264
 11
-3885.677119931664
 21
-2420.7973670264
  0
LINE
  5
6F
100
AcDbEntity
  8
1
  6
CONTINUOUS
 62
           3
100
AcDbLine
 10
-3860.677119931664
 20
-2440.797367026391
 11
-3860.677119931664
 21
-2420.7973670264
  0
LINE
  5
6E
100
AcDbEntity
  8
1
  6
CONTINUOUS
 62
           3
100
AcDbLine
 10
-3885.677119931664
 20
-2440.7973670264
 11
-3860.677119931664
 21
-2440.797367026391
  0
LINE
  5
6D
100
AcDbEntity
  8
1
  6
CONTINUOUS
 62
           3
100
AcDbLine
 10
-3735.677119931667
 20
-2222.7973670264
 11
-3735.677119931667
 21
-2237.7973670264
  0
LINE
  5
6C
100
AcDbEntity
  8
1
  6
CONTINUOUS
 62
           3
100
AcDbLine
 10
-3755.677119931667
 20
-2222.7973670264
 11
-3755.677119931667
 21
-2237.7973670264
  0
LINE
  5
6B
100
AcDbEntity
  8
1
  6
CONTINUOUS
 62
           3
100
AcDbLine
 10
-3775.677119931667
 20
-2222.7973670264
 11
-3775.677119931667
 21
-2237.7973670264
  0
LINE
  5
6A
100
AcDbEntity
  8
1
  6
CONTINUOUS
 62
           3
100
AcDbLine
 10
-3715.677119931667
 20
-2222.7973670264
 11
-3775.677119931667
 21
-2222.7973670264
  0
LINE
  5
69
100
AcDbEntity
  8
1
  6
CONTINUOUS
 62
           3
100
AcDbLine
 10
-3715.677119931667
 20
-2237.7973670264
 11
-3715.677119931667
 21
-2222.7973670264
  0
LINE
  5
68
100
AcDbEntity
  8
1
  6
CONTINUOUS
 62
           3
100
AcDbLine
 10
-3775.677119931667
 20
-2237.7973670264
 11
-3715.677119931667
 21
-2237.7973670264
  0
LINE
  5
67
100
AcDbEntity
  8
1
  6
CONTINUOUS
 62
           3
100
AcDbLine
 10
-3840.677119931667
 20
-2280.7973670264
 11
-3840.677119931667
 21
-2290.7973670264
  0
LINE
  5
66
100
AcDbEntity
  8
1
  6
CONTINUOUS
 62
           3
100
AcDbLine
 10
-3802.677119931667
 20
-2280.7973670264
 11
-3840.677119931667
 21
-2280.7973670264
  0
LINE
  5
65
100
AcDbEntity
  8
1
  6
CONTINUOUS
 62
           3
100
AcDbLine
 10
-3802.677119931667
 20
-2290.7973670264
 11
-3802.677119931667
 21
-2280.7973670264
  0
LINE
  5
64
100
AcDbEntity
  8
1
  6
CONTINUOUS
 62
           3
100
AcDbLine
 10
-3840.677119931667
 20
-2290.7973670264
 11
-3802.677119931667
 21
-2290.7973670264
  0
LINE
  5
63
100
AcDbEntity
  8
1
  6
CONTINUOUS
 62
           3
100
AcDbLine
 10
-3851.677119931667
 20
-2300.7973670264
 11
-3851.677119931667
 21
-2360.7973670264
  0
LINE
  5
62
100
AcDbEntity
  8
1
  6
CONTINUOUS
 62
           3
100
AcDbLine
 10
-3791.677119931667
 20
-2300.7973670264
 11
-3851.677119931667
 21
-2300.7973670264
  0
LINE
  5
61
100
AcDbEntity
  8
1
  6
CONTINUOUS
 62
           3
100
AcDbLine
 10
-3791.677119931667
 20
-2360.7973670264
 11
-3791.677119931667
 21
-2300.7973670264
  0
LINE
  5
60
100
AcDbEntity
  8
1
  6
CONTINUOUS
 62
           3
100
AcDbLine
 10
-3851.677119931667
 20
-2360.7973670264
 11
-3791.677119931667
 21
-2360.7973670264
  0
LINE
  5
5F
100
AcDbEntity
  8
1
  6
CONTINUOUS
 62
           3
100
AcDbLine
 10
-3761.677119931667
 20
-2292.7973670264
 11
-3761.677119931667
 21
-2302.7973670264
  0
LINE
  5
5E
100
AcDbEntity
  8
1
  6
CONTINUOUS
 62
           3
100
AcDbLine
 10
-3723.677119931667
 20
-2292.7973670264
 11
-3761.677119931667
 21
-2292.7973670264
  0
LINE
  5
5D
100
AcDbEntity
  8
1
  6
CONTINUOUS
 62
           3
100
AcDbLine
 10
-3723.677119931667
 20
-2302.7973670264
 11
-3723.677119931667
 21
-2292.7973670264
  0
LINE
  5
5C
100
AcDbEntity
  8
1
  6
CONTINUOUS
 62
           3
100
AcDbLine
 10
-3761.677119931667
 20
-2302.7973670264
 11
-3723.677119931667
 21
-2302.7973670264
  0
LINE
  5
5B
100
AcDbEntity
  8
1
  6
CONTINUOUS
 62
           3
100
AcDbLine
 10
-3693.677119931667
 20
-2292.7973670264
 11
-3693.677119931667
 21
-2302.7973670264
  0
LINE
  5
5A
100
AcDbEntity
  8
1
  6
CONTINUOUS
 62
           3
100
AcDbLine
 10
-3655.677119931667
 20
-2292.7973670264
 11
-3693.677119931667
 21
-2292.7973670264
  0
LINE
  5
59
100
AcDbEntity
  8
1
  6
CONTINUOUS
 62
           3
100
AcDbLine
 10
-3655.677119931667
 20
-2302.7973670264
 11
-3655.677119931667
 21
-2292.7973670264
  0
LINE
  5
58
100
AcDbEntity
  8
1
  6
CONTINUOUS
 62
           3
100
AcDbLine
 10
-3693.677119931667
 20
-2302.7973670264
 11
-3655.677119931667
 21
-2302.7973670264
  0
LINE
  5
57
100
AcDbEntity
  8
1
  6
CONTINUOUS
 62
           3
100
AcDbLine
 10
-3766.677119931667
 20
-2312.7973670264
 11
-3766.677119931667
 21
-2360.7973670264
  0
LINE
  5
56
100
AcDbEntity
  8
1
  6
CONTINUOUS
 62
           3
100
AcDbLine
 10
-3718.677119931667
 20
-2312.7973670264
 11
-3766.677119931667
 21
-2312.7973670264
  0
LINE
  5
55
100
AcDbEntity
  8
1
  6
CONTINUOUS
 62
           3
100
AcDbLine
 10
-3718.677119931667
 20
-2360.7973670264
 11
-3718.677119931667
 21
-2312.7973670264
  0
LINE
  5
54
100
AcDbEntity
  8
1
  6
CONTINUOUS
 62
           3
100
AcDbLine
 10
-3766.677119931667
 20
-2360.7973670264
 11
-3718.677119931667
 21
-2360.7973670264
  0
LINE
  5
53
100
AcDbEntity
  8
1
  6
CONTINUOUS
 62
           3
100
AcDbLine
 10
-3698.677119931667
 20
-2312.7973670264
 11
-3698.677119931667
 21
-2360.7973670264
  0
LINE
  5
52
100
AcDbEntity
  8
1
  6
CONTINUOUS
 62
           3
100
AcDbLine
 10
-3650.677119931667
 20
-2312.7973670264
 11
-3698.677119931667
 21
-2312.7973670264
  0
LINE
  5
51
100
AcDbEntity
  8
1
  6
CONTINUOUS
 62
           3
100
AcDbLine
 10
-3650.677119931667
 20
-2360.7973670264
 11
-3650.677119931667
 21
-2312.7973670264
  0
LINE
  5
50
100
AcDbEntity
  8
1
  6
CONTINUOUS
 62
           3
100
AcDbLine
 10
-3698.677119931667
 20
-2360.7973670264
 11
-3650.677119931667
 21
-2360.7973670264
  0
LINE
  5
4F
100
AcDbEntity
  8
1
  6
CONTINUOUS
 62
           3
100
AcDbLine
 10
-3945.677119931664
 20
-2442.7973670264
 11
-3915.677119931664
 21
-2442.7973670264
  0
LINE
  5
4E
100
AcDbEntity
  8
1
  6
CONTINUOUS
 62
           3
100
AcDbLine
 10
-3915.677119931664
 20
-2442.7973670264
 11
-3915.677119931664
 21
-2527.7973670264
  0
LINE
  5
4D
100
AcDbEntity
  8
1
  6
CONTINUOUS
 62
           3
100
AcDbLine
 10
-3915.677119931664
 20
-2527.7973670264
 11
-3945.677119931664
 21
-2527.7973670264
  0
LINE
  5
4C
100
AcDbEntity
  8
1
  6
CONTINUOUS
 62
           3
100
AcDbLine
 10
-3945.677119931664
 20
-2527.7973670264
 11
-3945.677119931664
 21
-2442.7973670264
  0
LINE
  5
4B
100
AcDbEntity
  8
1
  6
CONTINUOUS
 62
           2
100
AcDbLine
 10
-3500.677119931668
 20
-2132.7973670264
 11
-3500.677119931668
 21
-2832.797367026402
  0
LINE
  5
4A
100
AcDbEntity
  8
1
  6
CONTINUOUS
 62
           2
100
AcDbLine
 10
-3500.677119931668
 20
-2132.7973670264
 11
-4000.677119931664
 21
-2132.7973670264
  0
LINE
  5
49
100
AcDbEntity
  8
1
  6
CONTINUOUS
 62
           2
100
AcDbLine
 10
-4000.677119931668
 20
-2832.797367026402
 11
-3500.677119931668
 21
-2832.797367026402
  0
LINE
  5
48
100
AcDbEntity
  8
1
  6
CONTINUOUS
 62
           2
100
AcDbLine
 10
-4000.677119931664
 20
-2132.7973670264
 11
-4000.677119931668
 21
-2832.797367026402
  0
LINE
  5
47
100
AcDbEntity
  8
1
  6
CONTINUOUS
 62
           3
100
AcDbLine
 10
-3520.677119931668
 20
-2812.797367026402
 11
-3980.67711993167
 21
-2812.797367026402
  0
LINE
  5
46
100
AcDbEntity
  8
1
  6
CONTINUOUS
 62
           3
100
AcDbLine
 10
-3520.677119931666
 20
-2152.7973670264
 11
-3520.677119931668
 21
-2812.797367026402
  0
LINE
  5
45
100
AcDbEntity
  8
1
  6
CONTINUOUS
 62
           3
100
AcDbLine
 10
-3980.67711993167
 20
-2812.797367026402
 11
-3980.677119931664
 21
-2152.7973670264
  0
LINE
  5
44
100
AcDbEntity
  8
1
  6
CONTINUOUS
 62
           3
100
AcDbLine
 10
-3980.677119931664
 20
-2152.7973670264
 11
-3520.677119931666
 21
-2152.7973670264
  0
LINE
  5
43
100
AcDbEntity
  8
1
  6
CONTINUOUS
 62
           2
100
AcDbLine
 10
-1436.802054775793
 20
-1632.797367026411
 11
-2357.802054775793
 21
-1632.797367026411
  0
LINE
  5
42
100
AcDbEntity
  8
1
  6
CONTINUOUS
 62
           3
100
AcDbLine
 10
-771.802054775793
 20
-1708.7973670264
 11
-280.802054775793
 21
-1708.7973670264
  0
LINE
  5
41
100
AcDbEntity
  8
1
  6
CONTINUOUS
 62
           2
100
AcDbLine
 10
-3515.67711993167
 20
1017.525840269391
 11
-3515.67711993167
 21
1129.163222410826
  0
LINE
  5
40
100
AcDbEntity
  8
1
  6
CONTINUOUS
 62
           2
100
AcDbLine
 10
-3475.67711993167
 20
994.663222410834
 11
-3475.67711993167
 21
1013.663222410834
  0
LINE
  5
3F
100
AcDbEntity
  8
1
  6
CONTINUOUS
 62
           2
100
AcDbLine
 10
-6190.677119931668
 20
-3712.797367026402
 11
-6190.677119931668
 21
-1768.484402235752
  0
LINE
  5
3E
100
AcDbEntity
  8
1
  6
CONTINUOUS
 62
           3
100
AcDbLine
 10
-6190.677119931668
 20
-3600.797367026402
 11
-6190.677119931668
 21
-3450.797367026402
  0
LINE
  5
3D
100
AcDbEntity
  8
1
  6
CONTINUOUS
 62
           3
100
AcDbLine
 10
-4160.67711993167
 20
-3450.797367026402
 11
-4160.67711993167
 21
-3600.797367026402
  0
LINE
  5
3C
100
AcDbEntity
  8
1
  6
CONTINUOUS
 62
           3
100
AcDbLine
 10
-6190.677119931668
 20
-3059.797367026402
 11
-6190.677119931668
 21
-2909.797367026402
  0
LINE
  5
3B
100
AcDbEntity
  8
1
  6
CONTINUOUS
 62
           3
100
AcDbLine
 10
-4160.67711993167
 20
-2909.797367026402
 11
-4160.67711993167
 21
-3059.797367026402
  0
LINE
  5
3A
100
AcDbEntity
  8
1
  6
CONTINUOUS
 62
           3
100
AcDbLine
 10
-6190.677119931668
 20
-2518.484402235752
 11
-6190.677119931668
 21
-2368.484402235752
  0
LINE
  5
39
100
AcDbEntity
  8
1
  6
CONTINUOUS
 62
           3
100
AcDbLine
 10
-4160.67711993167
 20
-2368.484402235752
 11
-4160.67711993167
 21
-2518.484402235752
  0
LINE
  5
38
100
AcDbEntity
  8
1
  6
CONTINUOUS
 62
           3
100
AcDbLine
 10
-6190.677119931668
 20
-1977.1714374451
 11
-6190.677119931668
 21
-1827.1714374451
  0
LINE
  5
37
100
AcDbEntity
  8
1
  6
CONTINUOUS
 62
           3
100
AcDbLine
 10
-4160.67711993167
 20
-1827.1714374451
 11
-4160.67711993167
 21
-1977.1714374451
  0
LINE
  5
36
100
AcDbEntity
  8
1
  6
CONTINUOUS
 62
           2
100
AcDbLine
 10
-3730.67711993167
 20
1284.163222410827
 11
-3510.67711993167
 21
1284.163222410827
  0
LINE
  5
35
100
AcDbEntity
  8
1
  6
CONTINUOUS
 62
           3
100
AcDbLine
 10
-5197.677119931668
 20
190.664636057098
 11
-5182.677119931668
 21
190.664636057098
  0
LINE
  5
34
100
AcDbEntity
  8
1
  6
CONTINUOUS
 62
           3
100
AcDbLine
 10
-5172.677119931668
 20
190.664636057098
 11
-5157.677119931668
 21
190.664636057098
  0
LINE
  5
33
100
AcDbEntity
  8
1
  6
CONTINUOUS
 62
           7
100
AcDbLine
 10
-7138.39113606135
 20
2640.73612225945
 11
103.584695604595
 21
2640.73612225945
  0
LINE
  5
32
100
AcDbEntity
  8
1
  6
CONTINUOUS
 62
           7
100
AcDbLine
 10
103.584695604595
 20
2640.73612225945
 11
103.584695604595
 21
-3974.5302624354
  0
LINE
  5
31
100
AcDbEntity
  8
1
  6
CONTINUOUS
 62
           7
100
AcDbLine
 10
103.584695604595
 20
-3974.5302624354
 11
-7138.39113606135
 21
-3974.5302624354
  0
LINE
  5
30
100
AcDbEntity
  8
1
  6
CONTINUOUS
 62
           7
100
AcDbLine
 10
-7138.39113606135
 20
-3974.5302624354
 11
-7138.39113606135
 21
2640.73612225945
  0
INSERT
  5
2C
100
AcDbEntity
  8
0
100
AcDbBlockReference
  2
CUES03E_01Q
 10
0.0
 20
0.0
  0
ENDSEC
  0
SECTION
  2
OBJECTS
  0
DICTIONARY
  5
19
100
AcDbDictionary
  3
ACAD_GROUP
350
1A
  3
ACAD_MLINESTYLE
350
1B
  0
DICTIONARY
  5
1A
102
{ACAD_REACTORS
330
19
102
}
100
AcDbDictionary
  0
DICTIONARY
  5
1B
102
{ACAD_REACTORS
330
19
102
}
100
AcDbDictionary
  3
STANDARD
350
1C
  0
MLINESTYLE
  5
1C
102
{ACAD_REACTORS
330
1B
102
}
100
AcDbMlineStyle
  2
STANDARD
 70
           0
  3

 62
           0
 51
90.0
 52
90.0
 71
           2
 49
0.5
 62
         256
  6
BYLAYER
 49
-0.5
 62
         256
  6
BYLAYER
  0
ENDSEC
  0
EOF
