  0
SECTION
  2
HEADER
  9
$ACADVER
  1
AC1015
  9
$ACADMAINTVER
 70
     6
  9
$DWGCODEPAGE
  3
DOS932
  9
$INSBASE
 10
0.0
 20
0.0
 30
0.0
  9
$EXTMIN
 10
0.0
 20
0.0
 30
0.0
  9
$EXTMAX
 10
297.0
 20
210.0
 30
0.0
  9
$LIMMIN
 10
0.0
 20
0.0
  9
$LIMMAX
 10
0.0
 20
0.0
  9
$ORTHOMODE
 70
     0
  9
$REGENMODE
 70
     1
  9
$FILLMODE
 70
     1
  9
$QTEXTMODE
 70
     0
  9
$MIRRTEXT
 70
     1
  9
$LTSCALE
 40
1.0
  9
$ATTMODE
 70
     1
  9
$TEXTSIZE
 40
3.175
  9
$TRACEWID
 40
1.0
  9
$TEXTSTYLE
  7
Standard
  9
$CLAYER
  8
0
  9
$CELTYPE
  6
ByLayer
  9
$CECOLOR
 62
   256
  9
$CELTSCALE
 40
1.0
  9
$DISPSILH
 70
     0
  9
$DIMSCALE
 40
1.0
  9
$DIMASZ
 40
2.0
  9
$DIMEXO
 40
1.0
  9
$DIMDLI
 40
3.75
  9
$DIMRND
 40
0.0
  9
$DIMDLE
 40
0.0
  9
$DIMEXE
 40
1.0
  9
$DIMTP
 40
0.0
  9
$DIMTM
 40
0.0
  9
$DIMTXT
 40
3.175
  9
$DIMCEN
 40
2.5
  9
$DIMTSZ
 40
0.0
  9
$DIMTOL
 70
     0
  9
$DIMLIM
 70
     0
  9
$DIMTIH
 70
     1
  9
$DIMTOH
 70
     1
  9
$DIMSE1
 70
     0
  9
$DIMSE2
 70
     0
  9
$DIMTAD
 70
     1
  9
$DIMZIN
 70
     0
  9
$DIMBLK
  1

  9
$DIMASO
 70
     1
  9
$DIMSHO
 70
     1
  9
$DIMPOST
  1

  9
$DIMAPOST
  1

  9
$DIMALT
 70
     0
  9
$DIMALTD
 70
     3
  9
$DIMALTF
 40
0.0393700787
  9
$DIMLFAC
 40
5.0
  9
$DIMTOFL
 70
     1
  9
$DIMTVP
 40
0.0
  9
$DIMTIX
 70
     0
  9
$DIMSOXD
 70
     0
  9
$DIMSAH
 70
     0
  9
$DIMBLK1
  1

  9
$DIMBLK2
  1

  9
$DIMSTYLE
  2
ISO-25
  9
$DIMCLRD
 70
     0
  9
$DIMCLRE
 70
     0
  9
$DIMCLRT
 70
     0
  9
$DIMTFAC
 40
1.0
  9
$DIMGAP
 40
1.524
  9
$DIMJUST
 70
     0
  9
$DIMSD1
 70
     0
  9
$DIMSD2
 70
     0
  9
$DIMTOLJ
 70
     0
  9
$DIMTZIN
 70
     0
  9
$DIMALTZ
 70
     0
  9
$DIMALTTZ
 70
     0
  9
$DIMUPT
 70
     0
  9
$DIMDEC
 70
     2
  9
$DIMTDEC
 70
     2
  9
$DIMALTU
 70
     2
  9
$DIMALTTD
 70
     3
  9
$DIMTXSTY
  7
Standard
  9
$DIMAUNIT
 70
     0
  9
$DIMADEC
 70
     0
  9
$DIMALTRND
 40
0.0
  9
$DIMAZIN
 70
     0
  9
$DIMDSEP
 70
    44
  9
$DIMATFIT
 70
     3
  9
$DIMFRAC
 70
     0
  9
$DIMLDRBLK
  1

  9
$DIMLUNIT
 70
     2
  9
$DIMLWD
 70
    -2
  9
$DIMLWE
 70
    -2
  9
$DIMTMOVE
 70
     0
  9
$LUNITS
 70
     2
  9
$LUPREC
 70
     2
  9
$SKETCHINC
 40
1.0
  9
$FILLETRAD
 40
10.0
  9
$AUNITS
 70
     0
  9
$AUPREC
 70
     0
  9
$MENU
  1
.
  9
$ELEVATION
 40
0.0
  9
$PELEVATION
 40
0.0
  9
$THICKNESS
 40
0.0
  9
$LIMCHECK
 70
     0
  9
$CHAMFERA
 40
10.0
  9
$CHAMFERB
 40
10.0
  9
$CHAMFERC
 40
20.0
  9
$CHAMFERD
 40
0.0
  9
$SKPOLY
 70
     0
  9
$TDCREATE
 40
2455618.358212014
  9
$TDUCREATE
 40
2455617.983212014
  9
$TDUPDATE
 40
2455618.358212025
  9
$TDUUPDATE
 40
2455617.983212025
  9
$TDINDWG
 40
0.0000000116
  9
$TDUSRTIMER
 40
0.0000000116
  9
$USRTIMER
 70
     1
  9
$ANGBASE
 50
0.0
  9
$ANGDIR
 70
     0
  9
$PDMODE
 70
     0
  9
$PDSIZE
 40
-1.0
  9
$PLINEWID
 40
0.0
  9
$SPLFRAME
 70
     0
  9
$SPLINETYPE
 70
     6
  9
$SPLINESEGS
 70
     8
  9
$HANDSEED
  5
314
  9
$SURFTAB1
 70
     6
  9
$SURFTAB2
 70
     6
  9
$SURFTYPE
 70
     6
  9
$SURFU
 70
     6
  9
$SURFV
 70
     6
  9
$UCSBASE
  2

  9
$UCSNAME
  2

  9
$UCSORG
 10
0.0
 20
0.0
 30
0.0
  9
$UCSXDIR
 10
1.0
 20
0.0
 30
0.0
  9
$UCSYDIR
 10
0.0
 20
1.0
 30
0.0
  9
$UCSORTHOREF
  2

  9
$UCSORTHOVIEW
 70
     0
  9
$UCSORGTOP
 10
0.0
 20
0.0
 30
0.0
  9
$UCSORGBOTTOM
 10
0.0
 20
0.0
 30
0.0
  9
$UCSORGLEFT
 10
0.0
 20
0.0
 30
0.0
  9
$UCSORGRIGHT
 10
0.0
 20
0.0
 30
0.0
  9
$UCSORGFRONT
 10
0.0
 20
0.0
 30
0.0
  9
$UCSORGBACK
 10
0.0
 20
0.0
 30
0.0
  9
$PUCSBASE
  2

  9
$PUCSNAME
  2

  9
$PUCSORG
 10
0.0
 20
0.0
 30
0.0
  9
$PUCSXDIR
 10
1.0
 20
0.0
 30
0.0
  9
$PUCSYDIR
 10
0.0
 20
1.0
 30
0.0
  9
$PUCSORTHOREF
  2

  9
$PUCSORTHOVIEW
 70
     0
  9
$PUCSORGTOP
 10
0.0
 20
0.0
 30
0.0
  9
$PUCSORGBOTTOM
 10
0.0
 20
0.0
 30
0.0
  9
$PUCSORGLEFT
 10
0.0
 20
0.0
 30
0.0
  9
$PUCSORGRIGHT
 10
0.0
 20
0.0
 30
0.0
  9
$PUCSORGFRONT
 10
0.0
 20
0.0
 30
0.0
  9
$PUCSORGBACK
 10
0.0
 20
0.0
 30
0.0
  9
$USERI1
 70
     0
  9
$USERI2
 70
     0
  9
$USERI3
 70
     0
  9
$USERI4
 70
     0
  9
$USERI5
 70
     0
  9
$USERR1
 40
0.0
  9
$USERR2
 40
0.0
  9
$USERR3
 40
0.0
  9
$USERR4
 40
0.0
  9
$USERR5
 40
0.0
  9
$WORLDVIEW
 70
     1
  9
$SHADEDGE
 70
     3
  9
$SHADEDIF
 70
    70
  9
$TILEMODE
 70
     1
  9
$MAXACTVP
 70
    64
  9
$PINSBASE
 10
0.0
 20
0.0
 30
0.0
  9
$PLIMCHECK
 70
     0
  9
$PEXTMIN
 10
1.0000000000E+20
 20
1.0000000000E+20
 30
1.0000000000E+20
  9
$PEXTMAX
 10
-1.0000000000E+20
 20
-1.0000000000E+20
 30
-1.0000000000E+20
  9
$PLIMMIN
 10
0.0
 20
0.0
  9
$PLIMMAX
 10
420.0
 20
297.0
  9
$UNITMODE
 70
     0
  9
$VISRETAIN
 70
     1
  9
$PLINEGEN
 70
     0
  9
$PSLTSCALE
 70
     1
  9
$TREEDEPTH
 70
  3020
  9
$CMLSTYLE
  2
Standard
  9
$CMLJUST
 70
     0
  9
$CMLSCALE
 40
20.0
  9
$PROXYGRAPHICS
 70
     1
  9
$MEASUREMENT
 70
     1
  9
$CELWEIGHT
370
    -1
  9
$ENDCAPS
280
     0
  9
$JOINSTYLE
280
     0
  9
$LWDISPLAY
290
     1
  9
$INSUNITS
 70
     4
  9
$HYPERLINKBASE
  1

  9
$STYLESHEET
  1

  9
$XEDIT
290
     1
  9
$CEPSNTYPE
380
     0
  9
$PSTYLEMODE
290
     1
  9
$FINGERPRINTGUID
  2
{A815902F-62AE-4204-AC45-3D552E6C8D1E}
  9
$VERSIONGUID
  2
{FAEB1C32-E019-11D5-929B-00C0DF256EC4}
  9
$EXTNAMES
290
     1
  9
$PSVPSCALE
 40
0.0
  9
$OLESTARTUP
290
     0
  0
ENDSEC
  0
SECTION
  2
CLASSES
  0
CLASS
  1
ACDBDICTIONARYWDFLT
  2
AcDbDictionaryWithDefault
  3
ObjectDBX Classes
 90
        0
280
     0
281
     0
  0
CLASS
  1
ACDBPLACEHOLDER
  2
AcDbPlaceHolder
  3
ObjectDBX Classes
 90
        0
280
     0
281
     0
  0
CLASS
  1
LAYOUT
  2
AcDbLayout
  3
ObjectDBX Classes
 90
        0
280
     0
281
     0
  0
ENDSEC
  0
SECTION
  2
TABLES
  0
TABLE
  2
VPORT
  5
8
330
0
100
AcDbSymbolTable
 70
     1
  0
VPORT
  5
29
330
8
100
AcDbSymbolTableRecord
100
AcDbViewportTableRecord
  2
*Active
 70
     0
 10
0.0
 20
0.0
 11
1.0
 21
1.0
 12
148.5
 22
105.0
 13
0.0
 23
0.0
 14
10.0
 24
10.0
 15
10.0
 25
10.0
 16
0.0
 26
0.0
 36
1.0
 17
0.0
 27
0.0
 37
0.0
 40
210.0
 41
1.4142857143
 42
50.0
 43
0.0
 44
0.0
 50
0.0
 51
0.0
 71
     0
 72
  2000
 73
     1
 74
     3
 75
     0
 76
     0
 77
     0
 78
     0
281
     0
 65
     1
110
0.0
120
0.0
130
0.0
111
1.0
121
0.0
131
0.0
112
0.0
122
1.0
132
0.0
 79
     0
146
0.0
  0
ENDTAB
  0
TABLE
  2
LTYPE
  5
5
330
0
100
AcDbSymbolTable
 70
     6
  0
LTYPE
  5
14
330
5
100
AcDbSymbolTableRecord
100
AcDbLinetypeTableRecord
  2
ByBlock
 70
     0
  3

 72
    65
 73
     0
 40
0.0
  0
LTYPE
  5
15
330
5
100
AcDbSymbolTableRecord
100
AcDbLinetypeTableRecord
  2
ByLayer
 70
     0
  3

 72
    65
 73
     0
 40
0.0
  0
LTYPE
  5
16
330
5
100
AcDbSymbolTableRecord
100
AcDbLinetypeTableRecord
  2
Continuous
 70
     0
  3
Solid line
 72
    65
 73
     0
 40
0.0
  0
LTYPE
  5
2A
330
5
100
AcDbSymbolTableRecord
100
AcDbLinetypeTableRecord
  2
HIDDEN
 70
     0
  3
Hidden __ __ __ __ __ __ __ __ __ __ __ __ __ __
 72
    65
 73
     2
 40
1.905
 49
1.27
 74
     0
 49
-0.635
 74
     0
  0
LTYPE
  5
2B
330
5
100
AcDbSymbolTableRecord
100
AcDbLinetypeTableRecord
  2
PHANTOM
 70
     0
  3
Phantom ______  __  __  ______  __  __  ______
 72
    65
 73
     6
 40
12.7
 49
6.35
 74
     0
 49
-1.27
 74
     0
 49
1.27
 74
     0
 49
-1.27
 74
     0
 49
1.27
 74
     0
 49
-1.27
 74
     0
  0
LTYPE
  5
2C
330
5
100
AcDbSymbolTableRecord
100
AcDbLinetypeTableRecord
  2
CENTER
 70
     0
  3
Center ____ _ ____ _ ____ _ ____ _ ____ _ ____
 72
    65
 73
     4
 40
10.16
 49
6.35
 74
     0
 49
-1.27
 74
     0
 49
1.27
 74
     0
 49
-1.27
 74
     0
  0
LTYPE
  5
2D
330
5
100
AcDbSymbolTableRecord
100
AcDbLinetypeTableRecord
  2
CENTERX2
 70
     0
  3
Center (2x) ________  __  ________  __  _____
 72
    65
 73
     4
 40
20.32
 49
12.7
 74
     0
 49
-2.54
 74
     0
 49
2.54
 74
     0
 49
-2.54
 74
     0
  0
LTYPE
  5
2E
330
5
100
AcDbSymbolTableRecord
100
AcDbLinetypeTableRecord
  2
DOT2
 70
     0
  3
Dot (.5x) ........................................
 72
    65
 73
     2
 40
0.635
 49
0.0
 74
     0
 49
-0.635
 74
     0
  0
ENDTAB
  0
TABLE
  2
LAYER
  5
2
330
0
100
AcDbSymbolTable
 70
     8
  0
LAYER
  5
10
330
2
100
AcDbSymbolTableRecord
100
AcDbLayerTableRecord
  2
0
 70
     0
 62
     7
  6
Continuous
370
    -3
390
F
  0
LAYER
  5
2F
330
2
100
AcDbSymbolTableRecord
100
AcDbLayerTableRecord
  2
ﾚｲﾔｰ0
 70
     0
 62
  -211
  6
Continuous
370
    -3
390
F
  0
LAYER
  5
30
330
2
100
AcDbSymbolTableRecord
100
AcDbLayerTableRecord
  2
SLD-0_0
 70
     0
 62
   179
  6
Continuous
370
    -3
390
F
  0
LAYER
  5
31
330
2
100
AcDbSymbolTableRecord
100
AcDbLayerTableRecord
  2
SLD-0
 70
     0
 62
   179
  6
Continuous
370
    -3
390
F
  0
LAYER
  5
32
330
2
100
AcDbSymbolTableRecord
100
AcDbLayerTableRecord
  2
1
 70
     0
 62
   179
  6
Continuous
370
    -3
390
F
  0
LAYER
  5
33
330
2
100
AcDbSymbolTableRecord
100
AcDbLayerTableRecord
  2
中心線
 70
     0
 62
     7
  6
Continuous
370
    -3
390
F
  0
LAYER
  5
34
330
2
100
AcDbSymbolTableRecord
100
AcDbLayerTableRecord
  2
寸法
 70
     0
 62
     7
  6
Continuous
370
    -3
390
F
  0
LAYER
  5
35
330
2
100
AcDbSymbolTableRecord
100
AcDbLayerTableRecord
  2
注記
 70
     0
 62
     7
  6
Continuous
370
    -3
390
F
  0
ENDTAB
  0
TABLE
  2
STYLE
  5
3
330
0
100
AcDbSymbolTable
 70
     2
  0
STYLE
  5
11
330
3
100
AcDbSymbolTableRecord
100
AcDbTextStyleTableRecord
  2
Standard
 70
     0
 40
0.0
 41
1.0
 50
0.0
 71
     0
 42
2.5
  3
txt
  4
bigfont
  0
STYLE
  5
3C
330
3
100
AcDbSymbolTableRecord
100
AcDbTextStyleTableRecord
  2
SLDTEXTSTYLE0
 70
     0
 40
0.0
 41
0.63
 50
0.0
 71
     0
 42
0.2
  3
TXT
  4
bigfont
  0
ENDTAB
  0
TABLE
  2
VIEW
  5
6
330
0
100
AcDbSymbolTable
 70
     0
  0
ENDTAB
  0
TABLE
  2
UCS
  5
7
330
0
100
AcDbSymbolTable
 70
     0
  0
ENDTAB
  0
TABLE
  2
APPID
  5
9
330
0
100
AcDbSymbolTable
 70
     1
  0
APPID
  5
12
330
9
100
AcDbSymbolTableRecord
100
AcDbRegAppTableRecord
  2
ACAD
 70
     0
  0
ENDTAB
  0
TABLE
  2
DIMSTYLE
  5
A
330
0
100
AcDbSymbolTable
 70
     1
100
AcDbDimStyleTable
  0
DIMSTYLE
105
27
330
A
100
AcDbSymbolTableRecord
100
AcDbDimStyleTableRecord
  2
ISO-25
 70
     0
 41
2.5
 42
0.625
 43
3.75
 44
1.25
 73
     0
 74
     0
 77
     1
 78
     8
140
2.5
141
2.5
143
0.0393700787
147
0.625
171
     3
172
     1
271
     2
272
     2
274
     3
278
    44
283
     0
284
     8
340
11
  0
ENDTAB
  0
TABLE
  2
BLOCK_RECORD
  5
1
330
0
100
AcDbSymbolTable
 70
     8
  0
BLOCK_RECORD
  5
1F
330
1
100
AcDbSymbolTableRecord
100
AcDbBlockTableRecord
  2
*Model_Space
340
22
  0
BLOCK_RECORD
  5
1B
330
1
100
AcDbSymbolTableRecord
100
AcDbBlockTableRecord
  2
*Paper_Space
340
1E
  0
BLOCK_RECORD
  5
23
330
1
100
AcDbSymbolTableRecord
100
AcDbBlockTableRecord
  2
*Paper_Space0
340
26
  0
BLOCK_RECORD
  5
13C
330
1
100
AcDbSymbolTableRecord
100
AcDbBlockTableRecord
  2
SW_CENTERMARKSYMBOL_0
340
0
102
{BLKREFS
331
147
102
}
1001
ACAD
1000
DesignCenter Data
1002
{
1070
     1
1070
     0
1002
}
  0
BLOCK_RECORD
  5
148
330
1
100
AcDbSymbolTableRecord
100
AcDbBlockTableRecord
  2
SW_CENTERMARKSYMBOL_1
340
0
102
{BLKREFS
331
153
102
}
1001
ACAD
1000
DesignCenter Data
1002
{
1070
     1
1070
     0
1002
}
  0
BLOCK_RECORD
  5
1E2
330
1
100
AcDbSymbolTableRecord
100
AcDbBlockTableRecord
  2
SW_CENTERMARKSYMBOL_2
340
0
102
{BLKREFS
331
1ED
102
}
1001
ACAD
1000
DesignCenter Data
1002
{
1070
     1
1070
     0
1002
}
  0
BLOCK_RECORD
  5
268
330
1
100
AcDbSymbolTableRecord
100
AcDbBlockTableRecord
  2
SW_CENTERMARKSYMBOL_3
340
0
102
{BLKREFS
331
273
102
}
1001
ACAD
1000
DesignCenter Data
1002
{
1070
     1
1070
     0
1002
}
  0
BLOCK_RECORD
  5
274
330
1
100
AcDbSymbolTableRecord
100
AcDbBlockTableRecord
  2
SW_CENTERMARKSYMBOL_4
340
0
102
{BLKREFS
331
27F
102
}
1001
ACAD
1000
DesignCenter Data
1002
{
1070
     1
1070
     0
1002
}
  0
BLOCK_RECORD
  5
280
330
1
100
AcDbSymbolTableRecord
100
AcDbBlockTableRecord
  2
SW_CENTERMARKSYMBOL_5
340
0
102
{BLKREFS
331
28B
102
}
1001
ACAD
1000
DesignCenter Data
1002
{
1070
     1
1070
     0
1002
}
  0
BLOCK_RECORD
  5
28C
330
1
100
AcDbSymbolTableRecord
100
AcDbBlockTableRecord
  2
SW_CENTERMARKSYMBOL_6
340
0
102
{BLKREFS
331
297
102
}
1001
ACAD
1000
DesignCenter Data
1002
{
1070
     1
1070
     0
1002
}
  0
ENDTAB
  0
ENDSEC
  0
SECTION
  2
BLOCKS
  0
BLOCK
  5
20
330
1F
100
AcDbEntity
  8
0
100
AcDbBlockBegin
  2
*Model_Space
 70
     0
 71
     0
 10
0.0
 20
0.0
 30
0.0
  3
*Model_Space
  1

  0
ENDBLK
  5
21
330
1F
100
AcDbEntity
  8
0
100
AcDbBlockEnd
  0
BLOCK
  5
1C
330
1B
100
AcDbEntity
 67
     1
  8
0
100
AcDbBlockBegin
  2
*Paper_Space
 70
     0
 71
     0
 10
0.0
 20
0.0
 30
0.0
  3
*Paper_Space
  1

  0
ENDBLK
  5
1D
330
1B
100
AcDbEntity
 67
     1
  8
0
100
AcDbBlockEnd
  0
BLOCK
  5
24
330
23
100
AcDbEntity
  8
0
100
AcDbBlockBegin
  2
*Paper_Space0
 70
     0
 71
     0
 10
0.0
 20
0.0
 30
0.0
  3
*Paper_Space0
  1

  0
ENDBLK
  5
25
330
23
100
AcDbEntity
  8
0
100
AcDbBlockEnd
  0
BLOCK
  5
13D
330
13C
100
AcDbEntity
  8
0
100
AcDbBlockBegin
  2
SW_CENTERMARKSYMBOL_0
 70
     0
 71
     0
 10
0.0
 20
0.0
 30
0.0
  3
SW_CENTERMARKSYMBOL_0
  1

  0
LINE
  5
13F
330
13C
100
AcDbEntity
  8
中心線
 62
     0
100
AcDbLine
 10
0.0
 20
0.0
 30
0.0
 11
0.0
 21
0.5
 31
0.0
  0
LINE
  5
140
330
13C
100
AcDbEntity
  8
中心線
 62
     0
100
AcDbLine
 10
0.0
 20
0.0
 30
0.0
 11
-0.5
 21
0.0
 31
0.0
  0
LINE
  5
141
330
13C
100
AcDbEntity
  8
中心線
 62
     0
100
AcDbLine
 10
0.0
 20
0.0
 30
0.0
 11
0.0
 21
-0.5
 31
0.0
  0
LINE
  5
142
330
13C
100
AcDbEntity
  8
中心線
 62
     0
100
AcDbLine
 10
0.0
 20
0.0
 30
0.0
 11
0.5
 21
0.0
 31
0.0
  0
LINE
  5
143
330
13C
100
AcDbEntity
  8
中心線
 62
     0
100
AcDbLine
 10
0.0
 20
1.0
 30
0.0
 11
0.0
 21
3.5
 31
0.0
  0
LINE
  5
144
330
13C
100
AcDbEntity
  8
中心線
 62
     0
100
AcDbLine
 10
-1.0
 20
0.0
 30
0.0
 11
-3.5
 21
0.0
 31
0.0
  0
LINE
  5
145
330
13C
100
AcDbEntity
  8
中心線
 62
     0
100
AcDbLine
 10
0.0
 20
-1.0
 30
0.0
 11
0.0
 21
-3.5
 31
0.0
  0
LINE
  5
146
330
13C
100
AcDbEntity
  8
中心線
 62
     0
100
AcDbLine
 10
1.0
 20
0.0
 30
0.0
 11
3.5
 21
0.0
 31
0.0
  0
ENDBLK
  5
13E
330
13C
100
AcDbEntity
  8
0
100
AcDbBlockEnd
  0
BLOCK
  5
149
330
148
100
AcDbEntity
  8
0
100
AcDbBlockBegin
  2
SW_CENTERMARKSYMBOL_1
 70
     0
 71
     0
 10
0.0
 20
0.0
 30
0.0
  3
SW_CENTERMARKSYMBOL_1
  1

  0
LINE
  5
14B
330
148
100
AcDbEntity
  8
中心線
 62
     0
100
AcDbLine
 10
0.0
 20
0.0
 30
0.0
 11
0.0
 21
0.5
 31
0.0
  0
LINE
  5
14C
330
148
100
AcDbEntity
  8
中心線
 62
     0
100
AcDbLine
 10
0.0
 20
0.0
 30
0.0
 11
-0.5
 21
0.0
 31
0.0
  0
LINE
  5
14D
330
148
100
AcDbEntity
  8
中心線
 62
     0
100
AcDbLine
 10
0.0
 20
0.0
 30
0.0
 11
0.0
 21
-0.5
 31
0.0
  0
LINE
  5
14E
330
148
100
AcDbEntity
  8
中心線
 62
     0
100
AcDbLine
 10
0.0
 20
0.0
 30
0.0
 11
0.5
 21
0.0
 31
0.0
  0
LINE
  5
14F
330
148
100
AcDbEntity
  8
中心線
 62
     0
100
AcDbLine
 10
0.0
 20
1.0
 30
0.0
 11
0.0
 21
1.9
 31
0.0
  0
LINE
  5
150
330
148
100
AcDbEntity
  8
中心線
 62
     0
100
AcDbLine
 10
-1.0
 20
0.0
 30
0.0
 11
-1.9
 21
0.0
 31
0.0
  0
LINE
  5
151
330
148
100
AcDbEntity
  8
中心線
 62
     0
100
AcDbLine
 10
0.0
 20
-1.0
 30
0.0
 11
0.0
 21
-1.9
 31
0.0
  0
LINE
  5
152
330
148
100
AcDbEntity
  8
中心線
 62
     0
100
AcDbLine
 10
1.0
 20
0.0
 30
0.0
 11
1.9
 21
0.0
 31
0.0
  0
ENDBLK
  5
14A
330
148
100
AcDbEntity
  8
0
100
AcDbBlockEnd
  0
BLOCK
  5
1E3
330
1E2
100
AcDbEntity
  8
0
100
AcDbBlockBegin
  2
SW_CENTERMARKSYMBOL_2
 70
     0
 71
     0
 10
0.0
 20
0.0
 30
0.0
  3
SW_CENTERMARKSYMBOL_2
  1

  0
LINE
  5
1E5
330
1E2
100
AcDbEntity
  8
中心線
 62
     0
100
AcDbLine
 10
0.0
 20
0.0
 30
0.0
 11
0.0
 21
0.5
 31
0.0
  0
LINE
  5
1E6
330
1E2
100
AcDbEntity
  8
中心線
 62
     0
100
AcDbLine
 10
0.0
 20
0.0
 30
0.0
 11
-0.5
 21
0.0
 31
0.0
  0
LINE
  5
1E7
330
1E2
100
AcDbEntity
  8
中心線
 62
     0
100
AcDbLine
 10
0.0
 20
0.0
 30
0.0
 11
0.0
 21
-0.5
 31
0.0
  0
LINE
  5
1E8
330
1E2
100
AcDbEntity
  8
中心線
 62
     0
100
AcDbLine
 10
0.0
 20
0.0
 30
0.0
 11
0.5
 21
0.0
 31
0.0
  0
LINE
  5
1E9
330
1E2
100
AcDbEntity
  8
中心線
 62
     0
100
AcDbLine
 10
0.0
 20
1.0
 30
0.0
 11
0.0
 21
4.5
 31
0.0
  0
LINE
  5
1EA
330
1E2
100
AcDbEntity
  8
中心線
 62
     0
100
AcDbLine
 10
-1.0
 20
0.0
 30
0.0
 11
-4.5
 21
0.0
 31
0.0
  0
LINE
  5
1EB
330
1E2
100
AcDbEntity
  8
中心線
 62
     0
100
AcDbLine
 10
0.0
 20
-1.0
 30
0.0
 11
0.0
 21
-4.5
 31
0.0
  0
LINE
  5
1EC
330
1E2
100
AcDbEntity
  8
中心線
 62
     0
100
AcDbLine
 10
1.0
 20
0.0
 30
0.0
 11
4.5
 21
0.0
 31
0.0
  0
ENDBLK
  5
1E4
330
1E2
100
AcDbEntity
  8
0
100
AcDbBlockEnd
  0
BLOCK
  5
269
330
268
100
AcDbEntity
  8
0
100
AcDbBlockBegin
  2
SW_CENTERMARKSYMBOL_3
 70
     0
 71
     0
 10
0.0
 20
0.0
 30
0.0
  3
SW_CENTERMARKSYMBOL_3
  1

  0
LINE
  5
26B
330
268
100
AcDbEntity
  8
中心線
 62
     0
100
AcDbLine
 10
0.0
 20
0.0
 30
0.0
 11
0.0
 21
0.5
 31
0.0
  0
LINE
  5
26C
330
268
100
AcDbEntity
  8
中心線
 62
     0
100
AcDbLine
 10
0.0
 20
0.0
 30
0.0
 11
-0.5
 21
0.0
 31
0.0
  0
LINE
  5
26D
330
268
100
AcDbEntity
  8
中心線
 62
     0
100
AcDbLine
 10
0.0
 20
0.0
 30
0.0
 11
0.0
 21
-0.5
 31
0.0
  0
LINE
  5
26E
330
268
100
AcDbEntity
  8
中心線
 62
     0
100
AcDbLine
 10
0.0
 20
0.0
 30
0.0
 11
0.5
 21
0.0
 31
0.0
  0
LINE
  5
26F
330
268
100
AcDbEntity
  8
中心線
 62
     0
100
AcDbLine
 10
0.0
 20
1.0
 30
0.0
 11
0.0
 21
1.4
 31
0.0
  0
LINE
  5
270
330
268
100
AcDbEntity
  8
中心線
 62
     0
100
AcDbLine
 10
-1.0
 20
0.0
 30
0.0
 11
-1.4
 21
0.0
 31
0.0
  0
LINE
  5
271
330
268
100
AcDbEntity
  8
中心線
 62
     0
100
AcDbLine
 10
0.0
 20
-1.0
 30
0.0
 11
0.0
 21
-1.4
 31
0.0
  0
LINE
  5
272
330
268
100
AcDbEntity
  8
中心線
 62
     0
100
AcDbLine
 10
1.0
 20
0.0
 30
0.0
 11
1.4
 21
0.0
 31
0.0
  0
ENDBLK
  5
26A
330
268
100
AcDbEntity
  8
0
100
AcDbBlockEnd
  0
BLOCK
  5
275
330
274
100
AcDbEntity
  8
0
100
AcDbBlockBegin
  2
SW_CENTERMARKSYMBOL_4
 70
     0
 71
     0
 10
0.0
 20
0.0
 30
0.0
  3
SW_CENTERMARKSYMBOL_4
  1

  0
LINE
  5
277
330
274
100
AcDbEntity
  8
中心線
 62
     0
100
AcDbLine
 10
0.0
 20
0.0
 30
0.0
 11
0.0
 21
0.5
 31
0.0
  0
LINE
  5
278
330
274
100
AcDbEntity
  8
中心線
 62
     0
100
AcDbLine
 10
0.0
 20
0.0
 30
0.0
 11
-0.5
 21
0.0
 31
0.0
  0
LINE
  5
279
330
274
100
AcDbEntity
  8
中心線
 62
     0
100
AcDbLine
 10
0.0
 20
0.0
 30
0.0
 11
0.0
 21
-0.5
 31
0.0
  0
LINE
  5
27A
330
274
100
AcDbEntity
  8
中心線
 62
     0
100
AcDbLine
 10
0.0
 20
0.0
 30
0.0
 11
0.5
 21
0.0
 31
0.0
  0
LINE
  5
27B
330
274
100
AcDbEntity
  8
中心線
 62
     0
100
AcDbLine
 10
0.0
 20
1.0
 30
0.0
 11
0.0
 21
1.4
 31
0.0
  0
LINE
  5
27C
330
274
100
AcDbEntity
  8
中心線
 62
     0
100
AcDbLine
 10
-1.0
 20
0.0
 30
0.0
 11
-1.4
 21
0.0
 31
0.0
  0
LINE
  5
27D
330
274
100
AcDbEntity
  8
中心線
 62
     0
100
AcDbLine
 10
0.0
 20
-1.0
 30
0.0
 11
0.0
 21
-1.4
 31
0.0
  0
LINE
  5
27E
330
274
100
AcDbEntity
  8
中心線
 62
     0
100
AcDbLine
 10
1.0
 20
0.0
 30
0.0
 11
1.4
 21
0.0
 31
0.0
  0
ENDBLK
  5
276
330
274
100
AcDbEntity
  8
0
100
AcDbBlockEnd
  0
BLOCK
  5
281
330
280
100
AcDbEntity
  8
0
100
AcDbBlockBegin
  2
SW_CENTERMARKSYMBOL_5
 70
     0
 71
     0
 10
0.0
 20
0.0
 30
0.0
  3
SW_CENTERMARKSYMBOL_5
  1

  0
LINE
  5
283
330
280
100
AcDbEntity
  8
中心線
 62
     0
100
AcDbLine
 10
0.0
 20
0.0
 30
0.0
 11
0.0
 21
0.5
 31
0.0
  0
LINE
  5
284
330
280
100
AcDbEntity
  8
中心線
 62
     0
100
AcDbLine
 10
0.0
 20
0.0
 30
0.0
 11
-0.5
 21
0.0
 31
0.0
  0
LINE
  5
285
330
280
100
AcDbEntity
  8
中心線
 62
     0
100
AcDbLine
 10
0.0
 20
0.0
 30
0.0
 11
0.0
 21
-0.5
 31
0.0
  0
LINE
  5
286
330
280
100
AcDbEntity
  8
中心線
 62
     0
100
AcDbLine
 10
0.0
 20
0.0
 30
0.0
 11
0.5
 21
0.0
 31
0.0
  0
LINE
  5
287
330
280
100
AcDbEntity
  8
中心線
 62
     0
100
AcDbLine
 10
0.0
 20
1.0
 30
0.0
 11
0.0
 21
1.4
 31
0.0
  0
LINE
  5
288
330
280
100
AcDbEntity
  8
中心線
 62
     0
100
AcDbLine
 10
-1.0
 20
0.0
 30
0.0
 11
-1.4
 21
0.0
 31
0.0
  0
LINE
  5
289
330
280
100
AcDbEntity
  8
中心線
 62
     0
100
AcDbLine
 10
0.0
 20
-1.0
 30
0.0
 11
0.0
 21
-1.4
 31
0.0
  0
LINE
  5
28A
330
280
100
AcDbEntity
  8
中心線
 62
     0
100
AcDbLine
 10
1.0
 20
0.0
 30
0.0
 11
1.4
 21
0.0
 31
0.0
  0
ENDBLK
  5
282
330
280
100
AcDbEntity
  8
0
100
AcDbBlockEnd
  0
BLOCK
  5
28D
330
28C
100
AcDbEntity
  8
0
100
AcDbBlockBegin
  2
SW_CENTERMARKSYMBOL_6
 70
     0
 71
     0
 10
0.0
 20
0.0
 30
0.0
  3
SW_CENTERMARKSYMBOL_6
  1

  0
LINE
  5
28F
330
28C
100
AcDbEntity
  8
中心線
 62
     0
100
AcDbLine
 10
0.0
 20
0.0
 30
0.0
 11
0.0
 21
0.5
 31
0.0
  0
LINE
  5
290
330
28C
100
AcDbEntity
  8
中心線
 62
     0
100
AcDbLine
 10
0.0
 20
0.0
 30
0.0
 11
-0.5
 21
0.0
 31
0.0
  0
LINE
  5
291
330
28C
100
AcDbEntity
  8
中心線
 62
     0
100
AcDbLine
 10
0.0
 20
0.0
 30
0.0
 11
0.0
 21
-0.5
 31
0.0
  0
LINE
  5
292
330
28C
100
AcDbEntity
  8
中心線
 62
     0
100
AcDbLine
 10
0.0
 20
0.0
 30
0.0
 11
0.5
 21
0.0
 31
0.0
  0
LINE
  5
293
330
28C
100
AcDbEntity
  8
中心線
 62
     0
100
AcDbLine
 10
0.0
 20
1.0
 30
0.0
 11
0.0
 21
1.4
 31
0.0
  0
LINE
  5
294
330
28C
100
AcDbEntity
  8
中心線
 62
     0
100
AcDbLine
 10
-1.0
 20
0.0
 30
0.0
 11
-1.4
 21
0.0
 31
0.0
  0
LINE
  5
295
330
28C
100
AcDbEntity
  8
中心線
 62
     0
100
AcDbLine
 10
0.0
 20
-1.0
 30
0.0
 11
0.0
 21
-1.4
 31
0.0
  0
LINE
  5
296
330
28C
100
AcDbEntity
  8
中心線
 62
     0
100
AcDbLine
 10
1.0
 20
0.0
 30
0.0
 11
1.4
 21
0.0
 31
0.0
  0
ENDBLK
  5
28E
330
28C
100
AcDbEntity
  8
0
100
AcDbBlockEnd
  0
ENDSEC
  0
SECTION
  2
ENTITIES
  0
LINE
  5
36
330
1F
100
AcDbEntity
  8
ﾚｲﾔｰ0
100
AcDbLine
 10
276.0
 20
194.0
 30
0.0
 11
276.0
 21
201.5
 31
0.0
  0
LINE
  5
37
330
1F
100
AcDbEntity
  8
ﾚｲﾔｰ0
100
AcDbLine
 10
21.0
 20
194.0
 30
0.0
 11
21.0
 21
201.5
 31
0.0
  0
LINE
  5
38
330
1F
100
AcDbEntity
  8
ﾚｲﾔｰ0
100
AcDbLine
 10
21.0
 20
16.0
 30
0.0
 11
21.0
 21
8.5
 31
0.0
  0
LINE
  5
39
330
1F
100
AcDbEntity
  8
ﾚｲﾔｰ0
100
AcDbLine
 10
276.0
 20
16.0
 30
0.0
 11
276.0
 21
8.5
 31
0.0
  0
LINE
  5
3A
330
1F
100
AcDbEntity
  8
ﾚｲﾔｰ0
100
AcDbLine
 10
276.0
 20
201.5
 30
0.0
 11
21.0
 21
201.5
 31
0.0
  0
LINE
  5
3B
330
1F
100
AcDbEntity
  8
ﾚｲﾔｰ0
100
AcDbLine
 10
21.0
 20
8.5
 30
0.0
 11
276.0
 21
8.5
 31
0.0
  0
MTEXT
  5
3D
330
1F
100
AcDbEntity
  8
ﾚｲﾔｰ0
100
AcDbMText
 10
264.6253068675
 20
14.4909243614
 30
0.0
 40
6.0
 41
0.0
 71
     1
 72
     1
  1
★
  7
SLDTEXTSTYLE0
 73
     1
 44
1.0
  0
MTEXT
  5
3E
330
1F
100
AcDbEntity
  8
ﾚｲﾔｰ0
100
AcDbMText
 10
256.3279517445
 20
14.4909243614
 30
0.0
 40
6.0
 41
0.0
 71
     1
 72
     1
  1
★
  7
SLDTEXTSTYLE0
 73
     1
 44
1.0
  0
MTEXT
  5
3F
330
1F
100
AcDbEntity
  8
ﾚｲﾔｰ0
100
AcDbMText
 10
248.0305966214
 20
14.4909243614
 30
0.0
 40
6.0
 41
0.0
 71
     1
 72
     1
  1
★
  7
SLDTEXTSTYLE0
 73
     1
 44
1.0
  0
MTEXT
  5
40
330
1F
100
AcDbEntity
  8
ﾚｲﾔｰ0
100
AcDbMText
 10
239.2406102764
 20
14.4909243614
 30
0.0
 40
6.0
 41
0.0
 71
     1
 72
     1
  1
★
  7
SLDTEXTSTYLE0
 73
     1
 44
1.0
  0
LINE
  5
41
330
1F
100
AcDbEntity
  8
0
  6
Continuous
 62
     7
370
    15
100
AcDbLine
 10
107.7598186195
 20
128.4237126727
 30
0.0
 11
107.7598186195
 21
129.0237109084
 31
0.0
  0
LINE
  5
42
330
1F
100
AcDbEntity
  8
0
  6
Continuous
 62
     7
370
    15
100
AcDbLine
 10
99.7598186121
 20
129.0237109084
 30
0.0
 11
99.7598186121
 21
128.4237126727
 31
0.0
  0
LINE
  5
43
330
1F
100
AcDbEntity
  8
0
  6
Continuous
 62
     7
370
    15
100
AcDbLine
 10
99.7598186121
 20
128.4237126727
 30
0.0
 11
100.9598188088
 21
128.1021724362
 31
0.0
  0
LINE
  5
44
330
1F
100
AcDbEntity
  8
0
  6
Continuous
 62
     7
370
    15
100
AcDbLine
 10
106.5598186091
 20
128.1021724362
 30
0.0
 11
107.7598186195
 21
128.4237126727
 31
0.0
  0
LINE
  5
45
330
1F
100
AcDbEntity
  8
0
  6
Continuous
 62
     7
370
    15
100
AcDbLine
 10
106.5598186091
 20
126.6237120051
 30
0.0
 11
106.5598186091
 21
128.1021724362
 31
0.0
  0
LINE
  5
46
330
1F
100
AcDbEntity
  8
0
  6
Continuous
 62
     7
370
    15
100
AcDbLine
 10
100.9598188088
 20
128.1021724362
 30
0.0
 11
100.9598188088
 21
126.6237120051
 31
0.0
  0
ARC
  5
47
330
1F
100
AcDbEntity
  8
0
  6
Continuous
 62
     7
370
    15
100
AcDbCircle
 10
94.4198185525
 20
121.9237112899
 30
0.0
 40
0.700000000000017
100
AcDbArc
 50
90.0
 51
180.0
  0
ARC
  5
48
330
1F
100
AcDbEntity
  8
0
  6
Continuous
 62
     7
370
    15
100
AcDbCircle
 10
94.4198185525
 20
116.9237112899
 30
0.0
 40
0.700000000000017
100
AcDbArc
 50
180.0
 51
270.0
  0
LINE
  5
49
330
1F
100
AcDbEntity
  8
0
  6
Continuous
 62
     7
370
    15
100
AcDbLine
 10
88.7598186717
 20
96.7237110157
 30
0.0
 11
89.3598183975
 21
96.7237110157
 31
0.0
  0
LINE
  5
4A
330
1F
100
AcDbEntity
  8
0
  6
Continuous
 62
     7
370
    15
100
AcDbLine
 10
89.3598183975
 20
102.7237112541
 30
0.0
 11
88.7598186717
 21
102.7237112541
 31
0.0
  0
LINE
  5
4B
330
1F
100
AcDbEntity
  8
0
  6
Continuous
 62
     7
370
    15
100
AcDbLine
 10
89.3598183975
 20
96.7237110157
 30
0.0
 11
89.7237882003
 21
97.7237115521
 31
0.0
  0
LINE
  5
4C
330
1F
100
AcDbEntity
  8
0
  6
Continuous
 62
     7
370
    15
100
AcDbLine
 10
89.7237882003
 20
101.7237107177
 30
0.0
 11
89.3598183975
 21
102.7237112541
 31
0.0
  0
LINE
  5
4D
330
1F
100
AcDbEntity
  8
0
  6
Continuous
 62
     7
370
    15
100
AcDbLine
 10
94.4198191151
 20
101.7237107177
 30
0.0
 11
89.7237882003
 21
101.7237107177
 31
0.0
  0
LINE
  5
4E
330
1F
100
AcDbEntity
  8
0
  6
Continuous
 62
     7
370
    15
100
AcDbLine
 10
89.7237882003
 20
97.7237115521
 30
0.0
 11
94.4198191151
 21
97.7237115521
 31
0.0
  0
LINE
  5
4F
330
1F
100
AcDbEntity
  8
0
  6
Continuous
 62
     7
370
    15
100
AcDbLine
 10
112.7598185078
 20
122.6237098594
 30
0.0
 11
111.3598185577
 21
122.6237098594
 31
0.0
  0
LINE
  5
50
330
1F
100
AcDbEntity
  8
0
  6
Continuous
 62
     7
370
    15
100
AcDbLine
 10
116.859818621
 20
122.223712029
 30
0.0
 11
115.759818627
 21
123.3237127681
 31
0.0
  0
LINE
  5
51
330
1F
100
AcDbEntity
  8
0
  6
Continuous
 62
     7
370
    15
100
AcDbLine
 10
115.759818627
 20
123.3237127681
 30
0.0
 11
112.7598185078
 21
123.3237127681
 31
0.0
  0
LINE
  5
52
330
1F
100
AcDbEntity
  8
0
  6
Continuous
 62
     7
370
    15
100
AcDbLine
 10
147.7598190293
 20
122.3237107415
 30
0.0
 11
120.1598182306
 21
122.3237107415
 31
0.0
  0
LINE
  5
53
330
1F
100
AcDbEntity
  8
0
  6
Continuous
 62
     7
370
    15
100
AcDbLine
 10
116.9362891451
 20
98.6237118859
 30
0.0
 11
120.1598182306
 21
98.6237118859
 31
0.0
  0
LINE
  5
54
330
1F
100
AcDbEntity
  8
0
  6
Continuous
 62
     7
370
    15
100
AcDbLine
 10
120.1598182306
 20
122.223712029
 30
0.0
 11
116.859818621
 21
122.223712029
 31
0.0
  0
LINE
  5
55
330
1F
100
AcDbEntity
  8
0
  6
Continuous
 62
     7
370
    15
100
AcDbLine
 10
147.7598190293
 20
99.9237115402
 30
0.0
 11
148.5598176703
 21
99.9237115402
 31
0.0
  0
LINE
  5
56
330
1F
100
AcDbEntity
  8
0
  6
Continuous
 62
     7
370
    15
100
AcDbLine
 10
148.5598176703
 20
120.9237108846
 30
0.0
 11
147.7598190293
 21
120.9237108846
 31
0.0
  0
LINE
  5
57
330
1F
100
AcDbEntity
  8
0
  6
Continuous
 62
     7
370
    15
100
AcDbLine
 10
148.5598176703
 20
100.3237108607
 30
0.0
 11
150.3598183379
 21
100.3237108607
 31
0.0
  0
LINE
  5
58
330
1F
100
AcDbEntity
  8
0
  6
Continuous
 62
     7
370
    15
100
AcDbLine
 10
150.3598183379
 20
120.5237100739
 30
0.0
 11
148.5598176703
 21
120.5237100739
 31
0.0
  0
LINE
  5
59
330
1F
100
AcDbEntity
  8
0
  6
Continuous
 62
     7
370
    15
100
AcDbLine
 10
150.3598183379
 20
106.0237119813
 30
0.0
 11
152.1598190055
 21
106.0237119813
 31
0.0
  0
LINE
  5
5A
330
1F
100
AcDbEntity
  8
0
  6
Continuous
 62
     7
370
    15
100
AcDbLine
 10
152.1598190055
 20
114.8237119336
 30
0.0
 11
150.3598183379
 21
114.8237119336
 31
0.0
  0
LINE
  5
5B
330
1F
100
AcDbEntity
  8
0
  6
Continuous
 62
     7
370
    15
100
AcDbLine
 10
107.7598186195
 20
128.4237126727
 30
0.0
 11
99.7598186121
 21
128.4237126727
 31
0.0
  0
LINE
  5
5C
330
1F
100
AcDbEntity
  8
0
  6
Continuous
 62
     7
370
    15
100
AcDbLine
 10
107.7598186195
 20
129.0237109084
 30
0.0
 11
99.7598186121
 21
129.0237109084
 31
0.0
  0
LINE
  5
5D
330
1F
100
AcDbEntity
  8
0
  6
Continuous
 62
     7
370
    15
100
AcDbLine
 10
106.5598186091
 20
128.1021724362
 30
0.0
 11
100.9598188088
 21
128.1021724362
 31
0.0
  0
LINE
  5
5E
330
1F
100
AcDbEntity
  8
0
  6
Continuous
 62
     7
370
    15
100
AcDbLine
 10
93.7198191866
 20
121.9237099309
 30
0.0
 11
93.7198191866
 21
116.923711719
 31
0.0
  0
LINE
  5
5F
330
1F
100
AcDbEntity
  8
0
  6
Continuous
 62
     7
370
    15
100
AcDbLine
 10
107.1598187074
 20
125.4237125535
 30
0.0
 11
99.3598185465
 21
125.4237125535
 31
0.0
  0
LINE
  5
60
330
1F
100
AcDbEntity
  8
0
  6
Continuous
 62
     7
370
    15
100
AcDbLine
 10
107.1598187074
 20
125.4237125535
 30
0.0
 11
107.1598187074
 21
92.2237115819
 31
0.0
  0
LINE
  5
61
330
1F
100
AcDbEntity
  8
0
  6
Continuous
 62
     7
370
    15
100
AcDbLine
 10
99.3598185465
 20
92.2237115819
 30
0.0
 11
107.1598187074
 21
92.2237115819
 31
0.0
  0
LINE
  5
62
330
1F
100
AcDbEntity
  8
0
  6
Continuous
 62
     7
370
    15
100
AcDbLine
 10
99.3598185465
 20
92.2237115819
 30
0.0
 11
99.3598185465
 21
125.4237125535
 31
0.0
  0
LINE
  5
63
330
1F
100
AcDbEntity
  8
0
  6
Continuous
 62
     7
370
    15
100
AcDbLine
 10
107.1598187074
 20
92.2237115819
 30
0.0
 11
107.1598187074
 21
91.0237113852
 31
0.0
  0
LINE
  5
64
330
1F
100
AcDbEntity
  8
0
  6
Continuous
 62
     7
370
    15
100
AcDbLine
 10
107.1598187074
 20
91.0237113852
 30
0.0
 11
99.3598185465
 21
91.0237113852
 31
0.0
  0
LINE
  5
65
330
1F
100
AcDbEntity
  8
0
  6
Continuous
 62
     7
370
    15
100
AcDbLine
 10
99.3598185465
 20
91.0237113852
 30
0.0
 11
99.3598185465
 21
92.2237115819
 31
0.0
  0
LINE
  5
66
330
1F
100
AcDbEntity
  8
0
  6
Continuous
 62
     7
370
    15
100
AcDbLine
 10
99.3598185465
 20
126.6237120051
 30
0.0
 11
107.1598187074
 21
126.6237120051
 31
0.0
  0
LINE
  5
67
330
1F
100
AcDbEntity
  8
0
  6
Continuous
 62
     7
370
    15
100
AcDbLine
 10
107.1598187074
 20
126.6237120051
 30
0.0
 11
107.1598187074
 21
125.4237125535
 31
0.0
  0
LINE
  5
68
330
1F
100
AcDbEntity
  8
0
  6
Continuous
 62
     7
370
    15
100
AcDbLine
 10
99.3598185465
 20
125.4237125535
 30
0.0
 11
99.3598185465
 21
126.6237120051
 31
0.0
  0
LINE
  5
69
330
1F
100
AcDbEntity
  8
0
  6
Continuous
 62
     7
370
    15
100
AcDbLine
 10
94.4198191151
 20
115.851597013
 30
0.0
 11
99.3598185465
 21
115.851597013
 31
0.0
  0
LINE
  5
6A
330
1F
100
AcDbEntity
  8
0
  6
Continuous
 62
     7
370
    15
100
AcDbLine
 10
94.4198191151
 20
122.9958246369
 30
0.0
 11
99.3598185465
 21
122.9958246369
 31
0.0
  0
LINE
  5
6B
330
1F
100
AcDbEntity
  8
0
  6
Continuous
 62
     7
370
    15
100
AcDbLine
 10
94.4198191151
 20
115.851597013
 30
0.0
 11
94.4198191151
 21
122.9958246369
 31
0.0
  0
LINE
  5
6C
330
1F
100
AcDbEntity
  8
0
  6
Continuous
 62
     7
370
    15
100
AcDbLine
 10
113.7598184854
 20
101.6237120051
 30
0.0
 11
107.3598183677
 21
101.6237120051
 31
0.0
  0
LINE
  5
6D
330
1F
100
AcDbEntity
  8
0
  6
Continuous
 62
     7
370
    15
100
AcDbLine
 10
131.7598178968
 20
83.6237112899
 30
0.0
 11
131.7598178968
 21
84.6237112675
 31
0.0
  0
LINE
  5
6E
330
1F
100
AcDbEntity
  8
0
  6
Continuous
 62
     7
370
    15
100
AcDbLine
 10
103.7598185227
 20
84.6237112675
 30
0.0
 11
103.7598185227
 21
83.6237112899
 31
0.0
  0
LINE
  5
6F
330
1F
100
AcDbEntity
  8
0
  6
Continuous
 62
     7
370
    15
100
AcDbLine
 10
111.7598185301
 20
88.3237111289
 30
0.0
 11
103.7598185227
 21
84.6237112675
 31
0.0
  0
LINE
  5
70
330
1F
100
AcDbEntity
  8
0
  6
Continuous
 62
     7
370
    15
100
AcDbLine
 10
111.7598185301
 20
91.8237115164
 30
0.0
 11
111.7598185301
 21
88.3237111289
 31
0.0
  0
LINE
  5
71
330
1F
100
AcDbEntity
  8
0
  6
Continuous
 62
     7
370
    15
100
AcDbLine
 10
107.3598183677
 20
91.8237115164
 30
0.0
 11
111.7598185301
 21
91.8237115164
 31
0.0
  0
LINE
  5
72
330
1F
100
AcDbEntity
  8
0
  6
Continuous
 62
     7
370
    15
100
AcDbLine
 10
103.7598185227
 20
83.6237112899
 30
0.0
 11
131.7598178968
 21
83.6237112899
 31
0.0
  0
LINE
  5
73
330
1F
100
AcDbEntity
  8
0
  6
Continuous
 62
     7
370
    15
100
AcDbLine
 10
131.7598178968
 20
84.6237112675
 30
0.0
 11
113.7598184854
 21
101.6237120051
 31
0.0
  0
LINE
  5
74
330
1F
100
AcDbEntity
  8
0
  6
Continuous
 62
     7
370
    15
100
AcDbLine
 10
107.3598183677
 20
101.6237120051
 30
0.0
 11
107.3598183677
 21
91.8237115164
 31
0.0
  0
LINE
  5
75
330
1F
100
AcDbEntity
  8
0
  6
Continuous
 62
     7
370
    15
100
AcDbLine
 10
107.1598187074
 20
124.6237109322
 30
0.0
 11
110.7598185525
 21
124.6237109322
 31
0.0
  0
LINE
  5
76
330
1F
100
AcDbEntity
  8
0
  6
Continuous
 62
     7
370
    15
100
AcDbLine
 10
110.7598185525
 20
124.6237109322
 30
0.0
 11
110.7598185525
 21
124.0237126965
 31
0.0
  0
LINE
  5
77
330
1F
100
AcDbEntity
  8
0
  6
Continuous
 62
     7
370
    15
100
AcDbLine
 10
110.7598185525
 20
124.0237126965
 30
0.0
 11
107.1598187074
 21
124.0237126965
 31
0.0
  0
LINE
  5
78
330
1F
100
AcDbEntity
  8
0
  6
Continuous
 62
     7
370
    15
100
AcDbLine
 10
110.7598185525
 20
102.4237106461
 30
0.0
 11
110.7598185525
 21
124.0237126965
 31
0.0
  0
LINE
  5
79
330
1F
100
AcDbEntity
  8
0
  6
Continuous
 62
     7
370
    15
100
AcDbLine
 10
107.1598187074
 20
102.4237106461
 30
0.0
 11
110.7598185525
 21
102.4237106461
 31
0.0
  0
LINE
  5
7A
330
1F
100
AcDbEntity
  8
0
  6
Continuous
 62
     7
370
    15
100
AcDbLine
 10
107.1598187074
 20
91.0237113852
 30
0.0
 11
110.7598185525
 21
91.0237113852
 31
0.0
  0
LINE
  5
7B
330
1F
100
AcDbEntity
  8
0
  6
Continuous
 62
     7
370
    15
100
AcDbLine
 10
110.7598185525
 20
91.0237113852
 30
0.0
 11
110.7598185525
 21
91.8237115164
 31
0.0
  0
LINE
  5
7C
330
1F
100
AcDbEntity
  8
0
  6
Continuous
 62
     7
370
    15
100
AcDbLine
 10
110.7598185525
 20
101.6237120051
 30
0.0
 11
110.7598185525
 21
102.4237106461
 31
0.0
  0
LINE
  5
7D
330
1F
100
AcDbEntity
  8
0
  6
Continuous
 62
     7
370
    15
100
AcDbLine
 10
94.4198191151
 20
95.5252732057
 30
0.0
 11
99.3598185465
 21
95.5252732057
 31
0.0
  0
LINE
  5
7E
330
1F
100
AcDbEntity
  8
0
  6
Continuous
 62
     7
370
    15
100
AcDbLine
 10
99.3598185465
 20
94.2758831103
 30
0.0
 11
94.4198191151
 21
94.2758831103
 31
0.0
  0
LINE
  5
7F
330
1F
100
AcDbEntity
  8
0
  6
Continuous
 62
     7
370
    15
100
AcDbLine
 10
94.4198191151
 20
94.2758831103
 30
0.0
 11
94.4198191151
 21
95.5252732057
 31
0.0
  0
LINE
  5
80
330
1F
100
AcDbEntity
  8
0
  6
Continuous
 62
     7
370
    15
100
AcDbLine
 10
94.4198191151
 20
95.5252732057
 30
0.0
 11
94.4198191151
 21
115.851597013
 31
0.0
  0
LINE
  5
81
330
1F
100
AcDbEntity
  8
0
  6
Continuous
 62
     7
370
    15
100
AcDbLine
 10
94.4198191151
 20
124.4237105269
 30
0.0
 11
99.3598185465
 21
124.4237105269
 31
0.0
  0
LINE
  5
82
330
1F
100
AcDbEntity
  8
0
  6
Continuous
 62
     7
370
    15
100
AcDbLine
 10
94.4198191151
 20
122.9958246369
 30
0.0
 11
94.4198191151
 21
124.4237105269
 31
0.0
  0
LINE
  5
83
330
1F
100
AcDbEntity
  8
0
  6
Continuous
 62
     7
370
    15
100
AcDbLine
 10
99.3598185465
 20
90.5743214209
 30
0.0
 11
99.3598185465
 21
91.0237113852
 31
0.0
  0
LINE
  5
84
330
1F
100
AcDbEntity
  8
0
  6
Continuous
 62
     7
370
    15
100
AcDbLine
 10
94.4198191151
 20
90.5743214209
 30
0.0
 11
99.3598185465
 21
90.5743214209
 31
0.0
  0
LINE
  5
85
330
1F
100
AcDbEntity
  8
0
  6
Continuous
 62
     7
370
    15
100
AcDbLine
 10
94.4198191151
 20
90.5743214209
 30
0.0
 11
94.4198191151
 21
94.2758831103
 31
0.0
  0
LINE
  5
86
330
1F
100
AcDbEntity
  8
0
  6
Continuous
 62
     7
370
    15
100
AcDbLine
 10
99.3598185465
 20
90.2322108764
 30
0.0
 11
96.3598191723
 21
90.2322108764
 31
0.0
  0
SPLINE
  5
87
330
1F
100
AcDbEntity
  8
0
  6
Continuous
 62
     7
370
    15
100
AcDbSpline
210
0.0
220
0.0
230
1.0
 70
     8
 71
     3
 72
    24
 73
    20
 74
     0
 42
0.00000001
 43
0.00000001
 40
0.0
 40
0.0
 40
0.0
 40
0.0
 40
0.1249999999999984
 40
0.1249999999999984
 40
0.2499999999999966
 40
0.2499999999999966
 40
0.3749999999999948
 40
0.3749999999999948
 40
0.499999999999993
 40
0.499999999999993
 40
0.6249999999999912
 40
0.6249999999999912
 40
0.7499999999999895
 40
0.7499999999999895
 40
0.8124999999999908
 40
0.8124999999999908
 40
0.8749999999999922
 40
0.8749999999999922
 40
1.0
 40
1.0
 40
1.0
 40
1.0
 10
95.35981855245535
 20
89.83489919055344
 30
0.0
 10
95.35981855245534
 20
89.84213406813741
 30
0.0
 10
95.3666997340167
 20
89.85270849415744
 30
0.0
 10
95.3930434220403
 20
89.87987918829782
 30
0.0
 10
95.41285313825959
 20
89.89671606335962
 30
0.0
 10
95.46336957687966
 20
89.9344067593481
 30
0.0
 10
95.49398600872391
 20
89.9552573893748
 30
0.0
 10
95.56569143326743
 20
89.99970112693295
 30
0.0
 10
95.60657359354086
 20
90.0231276131468
 30
0.0
 10
95.69609621706667
 20
90.06949352574925
 30
0.0
 10
95.74516862441304
 20
90.09269696736804
 30
0.0
 10
95.85212226951822
 20
90.13678077663911
 30
0.0
 10
95.90856738579443
 20
90.15706586015773
 30
0.0
 10
95.99813302813573
 20
90.18321139816902
 30
0.0
 10
96.02881124430823
 20
90.19120870367938
 30
0.0
 10
96.0919816124694
 20
90.20542213062576
 30
0.0
 10
96.12471139502541
 20
90.2116697287197
 30
0.0
 10
96.2238700770085
 20
90.2268266752644
 30
0.0
 10
96.29118844531109
 20
90.23221068464271
 30
0.0
 10
96.35981855245535
 20
90.23221068464271
 30
0.0
  0
LINE
  5
88
330
1F
100
AcDbEntity
  8
0
  6
Continuous
 62
     7
370
    15
100
AcDbLine
 10
95.3598186359
 20
89.8237111885
 30
0.0
 11
94.4198191151
 21
89.8237111885
 31
0.0
  0
LINE
  5
89
330
1F
100
AcDbEntity
  8
0
  6
Continuous
 62
     7
370
    15
100
AcDbLine
 10
99.3598185465
 20
90.5743214209
 30
0.0
 11
99.3598185465
 21
90.2322108764
 31
0.0
  0
LINE
  5
8A
330
1F
100
AcDbEntity
  8
0
  6
Continuous
 62
     7
370
    15
100
AcDbLine
 10
94.4198191151
 20
89.8237111885
 30
0.0
 11
94.4198191151
 21
90.5743214209
 31
0.0
  0
LINE
  5
8B
330
1F
100
AcDbEntity
  8
0
  6
Continuous
 62
     7
370
    15
100
AcDbLine
 10
96.3598191723
 20
90.2322108764
 30
0.0
 11
96.3598191723
 21
84.6877112892
 31
0.0
  0
LINE
  5
8C
330
1F
100
AcDbEntity
  8
0
  6
Continuous
 62
     7
370
    15
100
AcDbLine
 10
111.7598185301
 20
91.0237113852
 30
0.0
 11
110.7598185525
 21
91.0237113852
 31
0.0
  0
LINE
  5
8D
330
1F
100
AcDbEntity
  8
0
  6
Continuous
 62
     7
370
    15
100
AcDbLine
 10
96.3598191723
 20
84.6877112892
 30
0.0
 11
103.898196666
 21
84.6877112892
 31
0.0
  0
LINE
  5
8E
330
1F
100
AcDbEntity
  8
0
  6
Continuous
 62
     7
370
    15
100
AcDbLine
 10
95.3598186359
 20
84.6877112892
 30
0.0
 11
95.3598186359
 21
89.8348993529
 31
0.0
  0
LINE
  5
8F
330
1F
100
AcDbEntity
  8
0
  6
Continuous
 62
     7
370
    15
100
AcDbLine
 10
96.3598191723
 20
84.6877112892
 30
0.0
 11
95.3598186359
 21
84.6877112892
 31
0.0
  0
LINE
  5
90
330
1F
100
AcDbEntity
  8
0
  6
Continuous
 62
     7
370
    15
100
AcDbLine
 10
110.7598185525
 20
125.0237117429
 30
0.0
 11
107.1598187074
 21
125.0237117429
 31
0.0
  0
LINE
  5
91
330
1F
100
AcDbEntity
  8
0
  6
Continuous
 62
     7
370
    15
100
AcDbLine
 10
110.7598185525
 20
124.6237109322
 30
0.0
 11
110.7598185525
 21
125.0237117429
 31
0.0
  0
LINE
  5
92
330
1F
100
AcDbEntity
  8
0
  6
Continuous
 62
     7
370
    15
100
AcDbLine
 10
107.1598187074
 20
125.6237099786
 30
0.0
 11
110.7598185525
 21
125.6237099786
 31
0.0
  0
LINE
  5
93
330
1F
100
AcDbEntity
  8
0
  6
Continuous
 62
     7
370
    15
100
AcDbLine
 10
110.7598185525
 20
125.6237099786
 30
0.0
 11
110.7598185525
 21
125.0237117429
 31
0.0
  0
LINE
  5
94
330
1F
100
AcDbEntity
  8
0
  6
Continuous
 62
     7
370
    15
100
AcDbLine
 10
94.4198191151
 20
125.2237121482
 30
0.0
 11
99.3598185465
 21
125.2237121482
 31
0.0
  0
LINE
  5
95
330
1F
100
AcDbEntity
  8
0
  6
Continuous
 62
     7
370
    15
100
AcDbLine
 10
99.3598185465
 20
124.6237109322
 30
0.0
 11
94.4198191151
 21
124.6237109322
 31
0.0
  0
LINE
  5
96
330
1F
100
AcDbEntity
  8
0
  6
Continuous
 62
     7
370
    15
100
AcDbLine
 10
94.4198191151
 20
124.6237109322
 30
0.0
 11
94.4198191151
 21
125.2237121482
 31
0.0
  0
LINE
  5
97
330
1F
100
AcDbEntity
  8
0
  6
Continuous
 62
     7
370
    15
100
AcDbLine
 10
94.4198191151
 20
124.4237105269
 30
0.0
 11
94.4198191151
 21
124.6237109322
 31
0.0
  0
LINE
  5
98
330
1F
100
AcDbEntity
  8
0
  6
Continuous
 62
     7
370
    15
100
AcDbLine
 10
99.3598185465
 20
127.0237098355
 30
0.0
 11
100.9598188088
 21
127.0237098355
 31
0.0
  0
LINE
  5
99
330
1F
100
AcDbEntity
  8
0
  6
Continuous
 62
     7
370
    15
100
AcDbLine
 10
106.5598186091
 20
127.0237098355
 30
0.0
 11
107.1598187074
 21
127.0237098355
 31
0.0
  0
LINE
  5
9A
330
1F
100
AcDbEntity
  8
0
  6
Continuous
 62
     7
370
    15
100
AcDbLine
 10
107.1598187074
 20
126.6237120051
 30
0.0
 11
107.1598187074
 21
127.0237098355
 31
0.0
  0
LINE
  5
9B
330
1F
100
AcDbEntity
  8
0
  6
Continuous
 62
     7
370
    15
100
AcDbLine
 10
99.3598185465
 20
126.6237120051
 30
0.0
 11
99.3598185465
 21
127.0237098355
 31
0.0
  0
LINE
  5
9C
330
1F
100
AcDbEntity
  8
0
  6
Continuous
 62
     7
370
    15
100
AcDbLine
 10
88.7598186717
 20
99.7237111349
 30
0.0
 11
88.7598186717
 21
102.7237112541
 31
0.0
  0
LINE
  5
9D
330
1F
100
AcDbEntity
  8
0
  6
Continuous
 62
     7
370
    15
100
AcDbLine
 10
88.7598186717
 20
96.7237110157
 30
0.0
 11
88.7598186717
 21
99.7237111349
 31
0.0
  0
LINE
  5
9E
330
1F
100
AcDbEntity
  8
0
  6
Continuous
 62
     7
370
    15
100
AcDbLine
 10
89.3598183975
 20
102.7237112541
 30
0.0
 11
89.3598183975
 21
96.7237110157
 31
0.0
  0
LINE
  5
9F
330
1F
100
AcDbEntity
  8
0
  6
Continuous
 62
     7
370
    15
100
AcDbLine
 10
89.7237882003
 20
99.7237111349
 30
0.0
 11
89.7237882003
 21
101.7237107177
 31
0.0
  0
LINE
  5
A0
330
1F
100
AcDbEntity
  8
0
  6
Continuous
 62
     7
370
    15
100
AcDbLine
 10
89.7237882003
 20
97.7237115521
 30
0.0
 11
89.7237882003
 21
99.7237111349
 31
0.0
  0
LINE
  5
A1
330
1F
100
AcDbEntity
  8
0
  6
Continuous
 62
     7
370
    15
100
AcDbLine
 10
91.8598189935
 20
90.7237115223
 30
0.0
 11
94.4198191151
 21
90.7237115223
 31
0.0
  0
LINE
  5
A2
330
1F
100
AcDbEntity
  8
0
  6
Continuous
 62
     7
370
    15
100
AcDbLine
 10
91.8598189935
 20
90.7237115223
 30
0.0
 11
91.8598189935
 21
92.1237113793
 31
0.0
  0
LINE
  5
A3
330
1F
100
AcDbEntity
  8
0
  6
Continuous
 62
     7
370
    15
100
AcDbLine
 10
91.8598189935
 20
92.1237113793
 30
0.0
 11
94.4198191151
 21
92.1237113793
 31
0.0
  0
LINE
  5
A4
330
1F
100
AcDbEntity
  8
0
  6
Continuous
 62
     7
370
    15
100
AcDbLine
 10
91.8598189935
 20
92.1237113793
 30
0.0
 11
91.8598189935
 21
93.5237112362
 31
0.0
  0
LINE
  5
A5
330
1F
100
AcDbEntity
  8
0
  6
Continuous
 62
     7
370
    15
100
AcDbLine
 10
91.8598189935
 20
93.5237112362
 30
0.0
 11
94.4198191151
 21
93.5237112362
 31
0.0
  0
LINE
  5
A6
330
1F
100
AcDbEntity
  8
0
  6
Continuous
 62
     7
370
    15
100
AcDbLine
 10
112.7598185078
 20
103.3180798311
 30
0.0
 11
110.7598185525
 21
103.3180798311
 31
0.0
  0
LINE
  5
A7
330
1F
100
AcDbEntity
  8
0
  6
Continuous
 62
     7
370
    15
100
AcDbLine
 10
112.7598185078
 20
101.6237120051
 30
0.0
 11
112.7598185078
 21
103.3180798311
 31
0.0
  0
LINE
  5
A8
330
1F
100
AcDbEntity
  8
0
  6
Continuous
 62
     7
370
    15
100
AcDbLine
 10
110.7598185525
 20
117.5293425937
 30
0.0
 11
112.7598185078
 21
117.5293425937
 31
0.0
  0
LINE
  5
A9
330
1F
100
AcDbEntity
  8
0
  6
Continuous
 62
     7
370
    15
100
AcDbLine
 10
112.7598185078
 20
103.3180798311
 30
0.0
 11
112.7598185078
 21
117.5293425937
 31
0.0
  0
LINE
  5
AA
330
1F
100
AcDbEntity
  8
0
  6
Continuous
 62
     7
370
    15
100
AcDbLine
 10
112.7598185078
 20
119.138018312
 30
0.0
 11
111.3598185577
 21
119.138018312
 31
0.0
  0
LINE
  5
AB
330
1F
100
AcDbEntity
  8
0
  6
Continuous
 62
     7
370
    15
100
AcDbLine
 10
110.7598185525
 20
120.3614841122
 30
0.0
 11
111.3598185577
 21
120.3614841122
 31
0.0
  0
LINE
  5
AC
330
1F
100
AcDbEntity
  8
0
  6
Continuous
 62
     7
370
    15
100
AcDbLine
 10
112.7598185078
 20
117.5293425937
 30
0.0
 11
112.7598185078
 21
119.138018312
 31
0.0
  0
LINE
  5
AD
330
1F
100
AcDbEntity
  8
0
  6
Continuous
 62
     7
370
    15
100
AcDbLine
 10
111.3598185577
 20
119.8945025821
 30
0.0
 11
112.7598185078
 21
119.8945025821
 31
0.0
  0
LINE
  5
AE
330
1F
100
AcDbEntity
  8
0
  6
Continuous
 62
     7
370
    15
100
AcDbLine
 10
111.3598185577
 20
122.6237098594
 30
0.0
 11
111.3598185577
 21
119.8945025821
 31
0.0
  0
LINE
  5
AF
330
1F
100
AcDbEntity
  8
0
  6
Continuous
 62
     7
370
    15
100
AcDbLine
 10
112.7598185078
 20
122.6237098594
 30
0.0
 11
112.7598185078
 21
119.8945025821
 31
0.0
  0
LINE
  5
B0
330
1F
100
AcDbEntity
  8
0
  6
Continuous
 62
     7
370
    15
100
AcDbLine
 10
111.3598185577
 20
119.138018312
 30
0.0
 11
111.3598185577
 21
119.8945025821
 31
0.0
  0
LINE
  5
B1
330
1F
100
AcDbEntity
  8
0
  6
Continuous
 62
     7
370
    15
100
AcDbLine
 10
112.7598185078
 20
119.8945025821
 30
0.0
 11
112.7598185078
 21
119.138018312
 31
0.0
  0
LINE
  5
B2
330
1F
100
AcDbEntity
  8
0
  6
Continuous
 62
     7
370
    15
100
AcDbLine
 10
116.859818621
 20
110.4237119574
 30
0.0
 11
116.859818621
 21
122.223712029
 31
0.0
  0
LINE
  5
B3
330
1F
100
AcDbEntity
  8
0
  6
Continuous
 62
     7
370
    15
100
AcDbLine
 10
116.859818621
 20
98.6959333439
 30
0.0
 11
116.859818621
 21
110.4237119574
 31
0.0
  0
LINE
  5
B4
330
1F
100
AcDbEntity
  8
0
  6
Continuous
 62
     7
370
    15
100
AcDbLine
 10
115.759818627
 20
110.4237119574
 30
0.0
 11
115.759818627
 21
123.3237127681
 31
0.0
  0
LINE
  5
B5
330
1F
100
AcDbEntity
  8
0
  6
Continuous
 62
     7
370
    15
100
AcDbLine
 10
115.759818627
 20
99.7348229308
 30
0.0
 11
115.759818627
 21
110.4237119574
 31
0.0
  0
LINE
  5
B6
330
1F
100
AcDbEntity
  8
0
  6
Continuous
 62
     7
370
    15
100
AcDbLine
 10
111.3598185577
 20
121.2587128301
 30
0.0
 11
110.7598185525
 21
121.2587128301
 31
0.0
  0
LINE
  5
B7
330
1F
100
AcDbEntity
  8
0
  6
Continuous
 62
     7
370
    15
100
AcDbLine
 10
147.3598182187
 20
99.6237109322
 30
0.0
 11
147.7598190293
 21
99.6237109322
 31
0.0
  0
LINE
  5
B8
330
1F
100
AcDbEntity
  8
0
  6
Continuous
 62
     7
370
    15
100
AcDbLine
 10
120.1598182306
 20
99.6237109322
 30
0.0
 11
121.3598184273
 21
99.6237109322
 31
0.0
  0
LINE
  5
B9
330
1F
100
AcDbEntity
  8
0
  6
Continuous
 62
     7
370
    15
100
AcDbLine
 10
147.7598190293
 20
122.3237107415
 30
0.0
 11
147.7598190293
 21
99.6237109322
 31
0.0
  0
LINE
  5
BA
330
1F
100
AcDbEntity
  8
0
  6
Continuous
 62
     7
370
    15
100
AcDbLine
 10
120.1598182306
 20
122.3237107415
 30
0.0
 11
120.1598182306
 21
99.6237109322
 31
0.0
  0
LINE
  5
BB
330
1F
100
AcDbEntity
  8
0
  6
Continuous
 62
     7
370
    15
100
AcDbLine
 10
120.1598182306
 20
99.6237109322
 30
0.0
 11
120.1598182306
 21
98.6237118859
 31
0.0
  0
LINE
  5
BC
330
1F
100
AcDbEntity
  8
0
  6
Continuous
 62
     7
370
    15
100
AcDbLine
 10
144.5598185048
 20
93.2237113733
 30
0.0
 11
144.5598185048
 21
98.02371067
 31
0.0
  0
LINE
  5
BD
330
1F
100
AcDbEntity
  8
0
  6
Continuous
 62
     7
370
    15
100
AcDbLine
 10
134.9598184213
 20
93.2237113733
 30
0.0
 11
144.5598185048
 21
93.2237113733
 31
0.0
  0
LINE
  5
BE
330
1F
100
AcDbEntity
  8
0
  6
Continuous
 62
     7
370
    15
100
AcDbLine
 10
144.5598185048
 20
98.02371067
 30
0.0
 11
134.9598184213
 21
98.02371067
 31
0.0
  0
LINE
  5
BF
330
1F
100
AcDbEntity
  8
0
  6
Continuous
 62
     7
370
    15
100
AcDbLine
 10
134.9598184213
 20
98.02371067
 30
0.0
 11
134.9598184213
 21
93.2237113733
 31
0.0
  0
LINE
  5
C0
330
1F
100
AcDbEntity
  8
0
  6
Continuous
 62
     7
370
    15
100
AcDbLine
 10
112.7598185078
 20
124.4237105269
 30
0.0
 11
110.7598185525
 21
124.4237105269
 31
0.0
  0
LINE
  5
C1
330
1F
100
AcDbEntity
  8
0
  6
Continuous
 62
     7
370
    15
100
AcDbLine
 10
112.7598185078
 20
122.6237098594
 30
0.0
 11
112.7598185078
 21
124.4237105269
 31
0.0
  0
LINE
  5
C2
330
1F
100
AcDbEntity
  8
0
  6
Continuous
 62
     7
370
    15
100
AcDbLine
 10
148.5598176703
 20
110.4237119574
 30
0.0
 11
148.5598176703
 21
120.9237108846
 31
0.0
  0
LINE
  5
C3
330
1F
100
AcDbEntity
  8
0
  6
Continuous
 62
     7
370
    15
100
AcDbLine
 10
148.5598176703
 20
99.9237115402
 30
0.0
 11
148.5598176703
 21
110.4237119574
 31
0.0
  0
LINE
  5
C4
330
1F
100
AcDbEntity
  8
0
  6
Continuous
 62
     7
370
    15
100
AcDbLine
 10
146.959817408
 20
98.6237118859
 30
0.0
 11
132.5598180279
 21
98.6237118859
 31
0.0
  0
LINE
  5
C5
330
1F
100
AcDbEntity
  8
0
  6
Continuous
 62
     7
370
    15
100
AcDbLine
 10
146.959817408
 20
92.6237116475
 30
0.0
 11
146.959817408
 21
98.6237118859
 31
0.0
  0
LINE
  5
C6
330
1F
100
AcDbEntity
  8
0
  6
Continuous
 62
     7
370
    15
100
AcDbLine
 10
132.5598180279
 20
92.6237116475
 30
0.0
 11
146.959817408
 21
92.6237116475
 31
0.0
  0
LINE
  5
C7
330
1F
100
AcDbEntity
  8
0
  6
Continuous
 62
     7
370
    15
100
AcDbLine
 10
132.5598180279
 20
98.6237118859
 30
0.0
 11
132.5598180279
 21
92.6237116475
 31
0.0
  0
LINE
  5
C8
330
1F
100
AcDbEntity
  8
0
  6
Continuous
 62
     7
370
    15
100
AcDbLine
 10
150.3598183379
 20
110.4237119574
 30
0.0
 11
150.3598183379
 21
120.5237100739
 31
0.0
  0
LINE
  5
C9
330
1F
100
AcDbEntity
  8
0
  6
Continuous
 62
     7
370
    15
100
AcDbLine
 10
150.3598183379
 20
100.3237108607
 30
0.0
 11
150.3598183379
 21
110.4237119574
 31
0.0
  0
LINE
  5
CA
330
1F
100
AcDbEntity
  8
0
  6
Continuous
 62
     7
370
    15
100
AcDbLine
 10
147.3598182187
 20
99.6237109322
 30
0.0
 11
121.3598184273
 21
99.6237109322
 31
0.0
  0
LINE
  5
CB
330
1F
100
AcDbEntity
  8
0
  6
Continuous
 62
     7
370
    15
100
AcDbLine
 10
121.3598184273
 20
94.4459336717
 30
0.0
 11
121.3598184273
 21
99.6237109322
 31
0.0
  0
LINE
  5
CC
330
1F
100
AcDbEntity
  8
0
  6
Continuous
 62
     7
370
    15
100
AcDbLine
 10
128.795112668
 20
87.4237111677
 30
0.0
 11
147.3598182187
 21
87.4237111677
 31
0.0
  0
LINE
  5
CD
330
1F
100
AcDbEntity
  8
0
  6
Continuous
 62
     7
370
    15
100
AcDbLine
 10
147.3598182187
 20
87.4237111677
 30
0.0
 11
147.3598182187
 21
99.6237109322
 31
0.0
  0
LINE
  5
CE
330
1F
100
AcDbEntity
  8
0
  6
Continuous
 62
     7
370
    15
100
AcDbLine
 10
148.4998196349
 20
91.1237115879
 30
0.0
 11
147.3598182187
 21
91.1237115879
 31
0.0
  0
LINE
  5
CF
330
1F
100
AcDbEntity
  8
0
  6
Continuous
 62
     7
370
    15
100
AcDbLine
 10
148.4998196349
 20
91.1237115879
 30
0.0
 11
148.4998196349
 21
88.9237112273
 31
0.0
  0
LINE
  5
D0
330
1F
100
AcDbEntity
  8
0
  6
Continuous
 62
     7
370
    15
100
AcDbLine
 10
148.4998196349
 20
88.9237112273
 30
0.0
 11
147.3598182187
 21
88.9237112273
 31
0.0
  0
LINE
  5
D1
330
1F
100
AcDbEntity
  8
0
  6
Continuous
 62
     7
370
    15
100
AcDbLine
 10
148.4998196349
 20
93.323711576
 30
0.0
 11
147.3598182187
 21
93.323711576
 31
0.0
  0
LINE
  5
D2
330
1F
100
AcDbEntity
  8
0
  6
Continuous
 62
     7
370
    15
100
AcDbLine
 10
148.4998196349
 20
93.323711576
 30
0.0
 11
148.4998196349
 21
91.1237115879
 31
0.0
  0
LINE
  5
D3
330
1F
100
AcDbEntity
  8
0
  6
Continuous
 62
     7
370
    15
100
AcDbLine
 10
152.1598190055
 20
110.4237119574
 30
0.0
 11
152.1598190055
 21
114.8237119336
 31
0.0
  0
LINE
  5
D4
330
1F
100
AcDbEntity
  8
0
  6
Continuous
 62
     7
370
    15
100
AcDbLine
 10
152.1598190055
 20
106.0237119813
 30
0.0
 11
152.1598190055
 21
110.4237119574
 31
0.0
  0
LINE
  5
D5
330
1F
100
AcDbEntity
  8
0
  6
Continuous
 62
     7
370
    15
100
AcDbLine
 10
148.8998174653
 20
93.323711576
 30
0.0
 11
148.4998196349
 21
93.323711576
 31
0.0
  0
LINE
  5
D6
330
1F
100
AcDbEntity
  8
0
  6
Continuous
 62
     7
370
    15
100
AcDbLine
 10
148.8998174653
 20
93.323711576
 30
0.0
 11
148.8998174653
 21
88.9237112273
 31
0.0
  0
LINE
  5
D7
330
1F
100
AcDbEntity
  8
0
  6
Continuous
 62
     7
370
    15
100
AcDbLine
 10
148.8998174653
 20
88.9237112273
 30
0.0
 11
148.4998196349
 21
88.9237112273
 31
0.0
  0
LINE
  5
D8
330
1F
100
AcDbEntity
  8
中心線
  6
CENTERX2
 62
     7
370
     0
100
AcDbLine
 10
103.7598185525
 20
124.6237112899
 30
0.0
 11
103.7598185525
 21
131.0237112899
 31
0.0
  0
LINE
  5
D9
330
1F
100
AcDbEntity
  8
中心線
  6
CENTERX2
 62
     7
370
     0
100
AcDbLine
 10
87.7237887867
 20
99.7237112899
 30
0.0
 11
96.4198185525
 21
99.7237112899
 31
0.0
  0
CIRCLE
  5
DA
330
1F
100
AcDbEntity
  8
0
  6
Continuous
 62
     7
370
     0
100
AcDbCircle
 10
39.2537250613
 20
91.0737112899
 30
0.0
 40
1.399999999999999
  0
LINE
  5
DB
330
1F
100
AcDbEntity
  8
0
  6
Continuous
 62
     7
370
    15
100
AcDbLine
 10
56.4537249272
 20
127.3737126727
 30
0.0
 11
57.6537247514
 21
127.0521724362
 31
0.0
  0
LINE
  5
DC
330
1F
100
AcDbEntity
  8
0
  6
Continuous
 62
     7
370
    15
100
AcDbLine
 10
63.2537256693
 20
127.0521724362
 30
0.0
 11
64.453725121
 21
127.3737126727
 31
0.0
  0
LINE
  5
DD
330
1F
100
AcDbEntity
  8
0
  6
Continuous
 62
     7
370
    15
100
AcDbLine
 10
64.453725121
 20
127.3737126727
 30
0.0
 11
64.453725121
 21
127.9737109084
 31
0.0
  0
LINE
  5
DE
330
1F
100
AcDbEntity
  8
0
  6
Continuous
 62
     7
370
    15
100
AcDbLine
 10
56.4537249272
 20
127.9737109084
 30
0.0
 11
56.4537249272
 21
127.3737126727
 31
0.0
  0
LINE
  5
DF
330
1F
100
AcDbEntity
  8
0
  6
Continuous
 62
     7
370
    15
100
AcDbLine
 10
63.2537256693
 20
125.5737120051
 30
0.0
 11
63.2537256693
 21
127.0521724362
 31
0.0
  0
LINE
  5
E0
330
1F
100
AcDbEntity
  8
0
  6
Continuous
 62
     7
370
    15
100
AcDbLine
 10
57.6537247514
 20
127.0521724362
 30
0.0
 11
57.6537247514
 21
125.5737120051
 31
0.0
  0
LINE
  5
E1
330
1F
100
AcDbEntity
  8
0
  6
Continuous
 62
     7
370
    15
100
AcDbLine
 10
63.2537256693
 20
127.0521724362
 30
0.0
 11
57.6537247514
 21
127.0521724362
 31
0.0
  0
LINE
  5
E2
330
1F
100
AcDbEntity
  8
0
  6
Continuous
 62
     7
370
    15
100
AcDbLine
 10
64.453725121
 20
127.3737126727
 30
0.0
 11
56.4537249272
 21
127.3737126727
 31
0.0
  0
LINE
  5
E3
330
1F
100
AcDbEntity
  8
0
  6
Continuous
 62
     7
370
    15
100
AcDbLine
 10
64.453725121
 20
127.9737109084
 30
0.0
 11
56.4537249272
 21
127.9737109084
 31
0.0
  0
CIRCLE
  5
E4
330
1F
100
AcDbEntity
  8
0
  6
Continuous
 62
     7
370
    15
100
AcDbCircle
 10
60.0537250613
 20
118.3737112899
 30
0.0
 40
3.200000000000003
  0
CIRCLE
  5
E5
330
1F
100
AcDbEntity
  8
0
  6
Continuous
 62
     7
370
    15
100
AcDbCircle
 10
60.0537250613
 20
118.3737112899
 30
0.0
 40
2.5
  0
CIRCLE
  5
E6
330
1F
100
AcDbEntity
  8
0
  6
Continuous
 62
     7
370
    15
100
AcDbCircle
 10
40.2537250613
 20
98.6737112899
 30
0.0
 40
1.720000000000006
  0
CIRCLE
  5
E7
330
1F
100
AcDbEntity
  8
0
  6
Continuous
 62
     7
370
    15
100
AcDbCircle
 10
40.2537250613
 20
98.6737112899
 30
0.0
 40
3.000000000000007
  0
LINE
  5
E8
330
1F
100
AcDbEntity
  8
0
  6
Continuous
 62
     7
370
    15
100
AcDbLine
 10
40.0620151078
 20
89.6737115223
 30
0.0
 11
40.8703055
 21
91.0737113793
 31
0.0
  0
LINE
  5
E9
330
1F
100
AcDbEntity
  8
0
  6
Continuous
 62
     7
370
    15
100
AcDbLine
 10
38.4454343235
 20
89.6737115223
 30
0.0
 11
40.0620151078
 21
89.6737115223
 31
0.0
  0
LINE
  5
EA
330
1F
100
AcDbEntity
  8
0
  6
Continuous
 62
     7
370
    15
100
AcDbLine
 10
38.4454343235
 20
92.4737112362
 30
0.0
 11
37.6371439313
 21
91.0737113793
 31
0.0
  0
LINE
  5
EB
330
1F
100
AcDbEntity
  8
0
  6
Continuous
 62
     7
370
    15
100
AcDbLine
 10
40.0620151078
 20
92.4737112362
 30
0.0
 11
38.4454343235
 21
92.4737112362
 31
0.0
  0
LINE
  5
EC
330
1F
100
AcDbEntity
  8
0
  6
Continuous
 62
     7
370
    15
100
AcDbLine
 10
40.8703055
 20
91.0737113793
 30
0.0
 11
40.0620151078
 21
92.4737112362
 31
0.0
  0
LINE
  5
ED
330
1F
100
AcDbEntity
  8
0
  6
Continuous
 62
     7
370
    15
100
AcDbLine
 10
37.6371439313
 20
91.0737113793
 30
0.0
 11
38.4454343235
 21
89.6737115223
 31
0.0
  0
ARC
  5
EE
330
1F
100
AcDbEntity
  8
0
  6
Continuous
 62
     7
370
    15
100
AcDbCircle
 10
61.1337250613
 20
94.4752734086
 30
0.0
 40
2.000000000000007
100
AcDbArc
 50
321.3401917459
 51
0.0
  0
LINE
  5
EF
330
1F
100
AcDbEntity
  8
0
  6
Continuous
 62
     7
370
    15
100
AcDbLine
 10
59.7342129564
 20
89.5243214209
 30
0.0
 11
62.6954626059
 21
93.2258831103
 31
0.0
  0
LINE
  5
F0
330
1F
100
AcDbEntity
  8
0
  6
Continuous
 62
     7
370
    15
100
AcDbLine
 10
43.5337248956
 20
88.7737111885
 30
0.0
 11
58.1724751508
 21
88.7737111885
 31
0.0
  0
ARC
  5
F1
330
1F
100
AcDbEntity
  8
0
  6
Continuous
 62
     7
370
    15
100
AcDbCircle
 10
43.5337250613
 20
90.7737112899
 30
0.0
 40
2.0
100
AcDbArc
 50
180.0
 51
270.0
  0
LINE
  5
F2
330
1F
100
AcDbEntity
  8
0
  6
Continuous
 62
     7
370
    15
100
AcDbLine
 10
41.5337253129
 20
92.1737113733
 30
0.0
 11
41.5337253129
 21
90.7737115164
 31
0.0
  0
ARC
  5
F3
330
1F
100
AcDbEntity
  8
0
  6
Continuous
 62
     7
370
    15
100
AcDbCircle
 10
40.5337250613
 20
92.1737112899
 30
0.0
 40
1.0
100
AcDbArc
 50
0.0
 51
90.0
  0
LINE
  5
F4
330
1F
100
AcDbEntity
  8
0
  6
Continuous
 62
     7
370
    15
100
AcDbLine
 10
39.1337249195
 20
93.1737111647
 30
0.0
 11
40.5337247764
 21
93.1737111647
 31
0.0
  0
ARC
  5
F5
330
1F
100
AcDbEntity
  8
0
  6
Continuous
 62
     7
370
    15
100
AcDbCircle
 10
39.1337250613
 20
95.1737112899
 30
0.0
 40
2.000000000000007
100
AcDbArc
 50
180.0
 51
270.0
  0
LINE
  5
F6
330
1F
100
AcDbEntity
  8
0
  6
Continuous
 62
     7
370
    15
100
AcDbLine
 10
37.1337245917
 20
121.3737124343
 30
0.0
 11
37.1337245917
 21
95.1737114925
 31
0.0
  0
ARC
  5
F7
330
1F
100
AcDbEntity
  8
0
  6
Continuous
 62
     7
370
    15
100
AcDbCircle
 10
39.1337250613
 20
121.3737112899
 30
0.0
 40
2.000000000000007
100
AcDbArc
 50
90.0
 51
180.0
  0
LINE
  5
F8
330
1F
100
AcDbEntity
  8
0
  6
Continuous
 62
     7
370
    15
100
AcDbLine
 10
44.4537251955
 20
123.3737105269
 30
0.0
 11
39.1337249195
 21
123.3737105269
 31
0.0
  0
LINE
  5
F9
330
1F
100
AcDbEntity
  8
0
  6
Continuous
 62
     7
370
    15
100
AcDbLine
 10
44.4537251955
 20
123.5737109322
 30
0.0
 11
44.4537251955
 21
123.3737105269
 31
0.0
  0
ARC
  5
FA
330
1F
100
AcDbEntity
  8
0
  6
Continuous
 62
     7
370
    15
100
AcDbCircle
 10
45.0537250613
 20
123.5737112899
 30
0.0
 40
0.6000000000000085
100
AcDbArc
 50
90.0
 51
180.0
  0
ARC
  5
FB
330
1F
100
AcDbEntity
  8
0
  6
Continuous
 62
     7
370
    15
100
AcDbCircle
 10
55.4537250613
 20
123.5737112899
 30
0.0
 40
0.6000000000000085
100
AcDbArc
 50
0.0
 51
90.0
  0
LINE
  5
FC
330
1F
100
AcDbEntity
  8
0
  6
Continuous
 62
     7
370
    15
100
AcDbLine
 10
61.217300198
 20
123.3737105269
 30
0.0
 11
56.0537252342
 21
123.3737105269
 31
0.0
  0
ARC
  5
FD
330
1F
100
AcDbEntity
  8
0
  6
Continuous
 62
     7
370
    15
100
AcDbCircle
 10
61.2172999208
 20
121.3737112899
 30
0.0
 40
2.0
100
AcDbArc
 50
16.6220474864
 51
90.0
  0
ARC
  5
FE
330
1F
100
AcDbEntity
  8
0
  6
Continuous
 62
     7
370
    15
100
AcDbCircle
 10
61.3337250613
 20
118.3737112899
 30
0.0
 40
4.000000000000004
100
AcDbArc
 50
296.7436839504
 51
63.2563160496
  0
LINE
  5
FF
330
1F
100
AcDbEntity
  8
0
  6
Continuous
 62
     7
370
    15
100
AcDbLine
 10
55.4537251359
 20
124.1737121482
 30
0.0
 11
45.0537249213
 21
124.1737121482
 31
0.0
  0
LINE
  5
100
330
1F
100
AcDbEntity
  8
0
  6
Continuous
 62
     7
370
    15
100
AcDbLine
 10
56.0537252342
 20
123.3737105269
 30
0.0
 11
56.0537252342
 21
123.5737109322
 31
0.0
  0
LINE
  5
101
330
1F
100
AcDbEntity
  8
0
  6
Continuous
 62
     7
370
    15
100
AcDbLine
 10
63.1337251281
 20
94.4752732057
 30
0.0
 11
63.1337251281
 21
114.801597013
 31
0.0
  0
ARC
  5
102
330
1F
100
AcDbEntity
  8
0
  6
Continuous
 62
     7
370
    15
100
AcDbCircle
 10
58.1724753664
 20
90.7737112899
 30
0.0
 40
2.000000000000003
100
AcDbArc
 50
270.0
 51
321.3401917459
  0
LINE
  5
103
330
1F
100
AcDbEntity
  8
0
  6
Continuous
 62
     7
370
    15
100
AcDbLine
 10
58.3837251877
 20
83.6377112892
 30
0.0
 11
58.3837251877
 21
88.7848993529
 31
0.0
  0
LINE
  5
104
330
1F
100
AcDbEntity
  8
0
  6
Continuous
 62
     7
370
    15
100
AcDbLine
 10
59.3837249791
 20
89.1822108764
 30
0.0
 11
59.3837249791
 21
83.6377112892
 31
0.0
  0
LINE
  5
105
330
1F
100
AcDbEntity
  8
0
  6
Continuous
 62
     7
370
    15
100
AcDbLine
 10
59.3837249791
 20
83.6377112892
 30
0.0
 11
58.3837251877
 21
83.6377112892
 31
0.0
  0
LINE
  5
106
330
1F
100
AcDbEntity
  8
0
  6
Continuous
 62
     7
370
    15
100
AcDbLine
 10
41.8837252771
 20
89.6434457738
 30
0.0
 11
41.8837252771
 21
83.6377112892
 31
0.0
  0
LINE
  5
107
330
1F
100
AcDbEntity
  8
0
  6
Continuous
 62
     7
370
    15
100
AcDbLine
 10
41.8837252771
 20
83.6377112892
 30
0.0
 11
58.3837251877
 21
83.6377112892
 31
0.0
  0
LINE
  5
108
330
1F
100
AcDbEntity
  8
0
  6
Continuous
 62
     7
370
    15
100
AcDbLine
 10
40.8837247407
 20
83.6377112892
 30
0.0
 11
40.8837247407
 21
89.9737113852
 31
0.0
  0
LINE
  5
109
330
1F
100
AcDbEntity
  8
0
  6
Continuous
 62
     7
370
    15
100
AcDbLine
 10
40.8837247407
 20
89.9737113852
 30
0.0
 11
41.7006950592
 21
89.9737113852
 31
0.0
  0
LINE
  5
10A
330
1F
100
AcDbEntity
  8
0
  6
Continuous
 62
     7
370
    15
100
AcDbLine
 10
41.8837252771
 20
83.6377112892
 30
0.0
 11
40.8837247407
 21
83.6377112892
 31
0.0
  0
LINE
  5
10B
330
1F
100
AcDbEntity
  8
0
  6
Continuous
 62
     7
370
    15
100
AcDbLine
 10
40.2352202451
 20
89.9737113852
 30
0.0
 11
40.8837247407
 21
89.9737113852
 31
0.0
  0
LINE
  5
10C
330
1F
100
AcDbEntity
  8
0
  6
Continuous
 62
     7
370
    15
100
AcDbLine
 10
35.9375413274
 20
90.9005740423
 30
0.0
 11
38.7537251925
 21
88.9737115939
 31
0.0
  0
ARC
  5
10D
330
1F
100
AcDbEntity
  8
0
  6
Continuous
 62
     7
370
    15
100
AcDbCircle
 10
36.6151618658
 20
91.8909426679
 30
0.0
 40
1.200000000000008
100
AcDbArc
 50
146.0
 51
235.6196552762
  0
LINE
  5
10E
330
1F
100
AcDbEntity
  8
0
  6
Continuous
 62
     7
370
    15
100
AcDbLine
 10
37.1607865905
 20
94.8458151657
 30
0.0
 11
35.6203164672
 21
92.5619737942
 31
0.0
  0
LINE
  5
10F
330
1F
100
AcDbEntity
  8
0
  6
Continuous
 62
     7
370
    15
100
AcDbLine
 10
40.1337247109
 20
88.9737115939
 30
0.0
 11
40.1337247109
 21
89.7979156811
 31
0.0
  0
LINE
  5
110
330
1F
100
AcDbEntity
  8
0
  6
Continuous
 62
     7
370
    15
100
AcDbLine
 10
38.7537251925
 20
88.9737115939
 30
0.0
 11
40.1337247109
 21
88.9737115939
 31
0.0
  0
LINE
  5
111
330
1F
100
AcDbEntity
  8
0
  6
Continuous
 62
     7
370
    15
100
AcDbLine
 10
44.3537249928
 20
125.9737098355
 30
0.0
 11
36.1537243938
 21
125.9737098355
 31
0.0
  0
LINE
  5
112
330
1F
100
AcDbEntity
  8
0
  6
Continuous
 62
     7
370
    15
100
AcDbLine
 10
60.0937250768
 20
89.9737113852
 30
0.0
 11
64.7537257289
 21
89.9737113852
 31
0.0
  0
LINE
  5
113
330
1F
100
AcDbEntity
  8
0
  6
Continuous
 62
     7
370
    15
100
AcDbLine
 10
34.9537249421
 20
124.7737103839
 30
0.0
 11
34.9537249421
 21
92.2066623111
 31
0.0
  0
LINE
  5
114
330
1F
100
AcDbEntity
  8
0
  6
Continuous
 62
     7
370
    15
100
AcDbLine
 10
65.9537251806
 20
91.1737115819
 30
0.0
 11
65.9537251806
 21
124.3737125535
 31
0.0
  0
LINE
  5
115
330
1F
100
AcDbEntity
  8
0
  6
Continuous
 62
     7
370
    15
100
AcDbLine
 10
64.7537257289
 20
125.5737120051
 30
0.0
 11
56.9417249178
 21
125.5737120051
 31
0.0
  0
ARC
  5
116
330
1F
100
AcDbEntity
  8
0
  6
Continuous
 62
     7
370
    15
100
AcDbCircle
 10
64.7537250613
 20
91.1737112899
 30
0.0
 40
1.200000000000017
100
AcDbArc
 50
270.0
 51
0.0
  0
LINE
  5
117
330
1F
100
AcDbEntity
  8
0
  6
Continuous
 62
     7
370
    15
100
AcDbLine
 10
44.3537249928
 20
125.273709907
 30
0.0
 11
44.3537249928
 21
125.9737098355
 31
0.0
  0
ARC
  5
118
330
1F
100
AcDbEntity
  8
0
  6
Continuous
 62
     7
370
    15
100
AcDbCircle
 10
36.1537250613
 20
124.7737112899
 30
0.0
 40
1.200000000000017
100
AcDbArc
 50
90.0
 51
180.0
  0
LINE
  5
119
330
1F
100
AcDbEntity
  8
0
  6
Continuous
 62
     7
370
    15
100
AcDbLine
 10
56.9417249178
 20
125.5737120051
 30
0.0
 11
56.9417249178
 21
125.273709907
 31
0.0
  0
ARC
  5
11A
330
1F
100
AcDbEntity
  8
0
  6
Continuous
 62
     7
370
    15
100
AcDbCircle
 10
36.1537250613
 20
92.2066625867
 30
0.0
 40
1.20000000000001
100
AcDbArc
 50
180.0
 51
235.6196552762
  0
ARC
  5
11B
330
1F
100
AcDbEntity
  8
0
  6
Continuous
 62
     7
370
    15
100
AcDbCircle
 10
64.7537250613
 20
124.3737112899
 30
0.0
 40
1.200000000000003
100
AcDbArc
 50
0.0
 51
90.0
  0
LINE
  5
11C
330
1F
100
AcDbEntity
  8
0
  6
Continuous
 62
     7
370
    15
100
AcDbLine
 10
56.9417249178
 20
125.273709907
 30
0.0
 11
44.3537249928
 21
125.273709907
 31
0.0
  0
LINE
  5
11D
330
1F
100
AcDbEntity
  8
0
  6
Continuous
 62
     7
370
    15
100
AcDbLine
 10
35.9375413274
 20
90.9005740423
 30
0.0
 11
35.4761045193
 21
91.2162938852
 31
0.0
  0
LINE
  5
11E
330
1F
100
AcDbEntity
  8
0
  6
Continuous
 62
     7
370
    15
100
AcDbLine
 10
35.6537248706
 20
83.5737112675
 30
0.0
 11
36.3537247991
 21
83.5737112675
 31
0.0
  0
LINE
  5
11F
330
1F
100
AcDbEntity
  8
0
  6
Continuous
 62
     7
370
    15
100
AcDbLine
 10
36.3537247991
 20
83.2137112737
 30
0.0
 11
36.3537247991
 21
83.5737112675
 31
0.0
  0
LINE
  5
120
330
1F
100
AcDbEntity
  8
0
  6
Continuous
 62
     7
370
    15
100
AcDbLine
 10
36.3537247991
 20
83.2137112737
 30
0.0
 11
40.4537249123
 21
83.2137112737
 31
0.0
  0
LINE
  5
121
330
1F
100
AcDbEntity
  8
0
  6
Continuous
 62
     7
370
    15
100
AcDbLine
 10
40.4537249123
 20
82.5737112899
 30
0.0
 11
35.6537248706
 21
82.5737112899
 31
0.0
  0
LINE
  5
122
330
1F
100
AcDbEntity
  8
0
  6
Continuous
 62
     7
370
    15
100
AcDbLine
 10
35.6537248706
 20
82.5737112899
 30
0.0
 11
35.6537248706
 21
83.5737112675
 31
0.0
  0
LINE
  5
123
330
1F
100
AcDbEntity
  8
0
  6
Continuous
 62
     7
370
    15
100
AcDbLine
 10
40.4537249123
 20
83.2137112737
 30
0.0
 11
40.4537249123
 21
82.5737112899
 31
0.0
  0
LINE
  5
124
330
1F
100
AcDbEntity
  8
0
  6
Continuous
 62
     7
370
    15
100
AcDbLine
 10
64.5537253236
 20
83.5737112675
 30
0.0
 11
64.5537253236
 21
83.2137112737
 31
0.0
  0
LINE
  5
125
330
1F
100
AcDbEntity
  8
0
  6
Continuous
 62
     7
370
    15
100
AcDbLine
 10
65.2537252521
 20
83.5737112675
 30
0.0
 11
64.5537253236
 21
83.5737112675
 31
0.0
  0
LINE
  5
126
330
1F
100
AcDbEntity
  8
0
  6
Continuous
 62
     7
370
    15
100
AcDbLine
 10
65.2537252521
 20
83.5737112675
 30
0.0
 11
65.2537252521
 21
82.5737112899
 31
0.0
  0
LINE
  5
127
330
1F
100
AcDbEntity
  8
0
  6
Continuous
 62
     7
370
    15
100
AcDbLine
 10
60.4537252104
 20
83.2137112737
 30
0.0
 11
60.4537252104
 21
82.5737112899
 31
0.0
  0
LINE
  5
128
330
1F
100
AcDbEntity
  8
0
  6
Continuous
 62
     7
370
    15
100
AcDbLine
 10
60.4537252104
 20
83.2137112737
 30
0.0
 11
64.5537253236
 21
83.2137112737
 31
0.0
  0
LINE
  5
129
330
1F
100
AcDbEntity
  8
0
  6
Continuous
 62
     7
370
    15
100
AcDbLine
 10
65.2537252521
 20
82.5737112899
 30
0.0
 11
60.4537252104
 21
82.5737112899
 31
0.0
  0
LINE
  5
12A
330
1F
100
AcDbEntity
  8
0
  6
Continuous
 62
     7
370
    15
100
AcDbLine
 10
35.6537248706
 20
87.2737111289
 30
0.0
 11
36.3537247991
 21
87.2737111289
 31
0.0
  0
LINE
  5
12B
330
1F
100
AcDbEntity
  8
0
  6
Continuous
 62
     7
370
    15
100
AcDbLine
 10
36.3537247991
 20
83.5737112675
 30
0.0
 11
36.3537247991
 21
87.2737111289
 31
0.0
  0
LINE
  5
12C
330
1F
100
AcDbEntity
  8
0
  6
Continuous
 62
     7
370
    15
100
AcDbLine
 10
35.6537248706
 20
83.5737112675
 30
0.0
 11
35.6537248706
 21
87.2737111289
 31
0.0
  0
LINE
  5
12D
330
1F
100
AcDbEntity
  8
0
  6
Continuous
 62
     7
370
    15
100
AcDbLine
 10
65.2537252521
 20
87.2737111289
 30
0.0
 11
64.5537253236
 21
87.2737111289
 31
0.0
  0
LINE
  5
12E
330
1F
100
AcDbEntity
  8
0
  6
Continuous
 62
     7
370
    15
100
AcDbLine
 10
64.5537253236
 20
87.2737111289
 30
0.0
 11
64.5537253236
 21
83.5737112675
 31
0.0
  0
LINE
  5
12F
330
1F
100
AcDbEntity
  8
0
  6
Continuous
 62
     7
370
    15
100
AcDbLine
 10
65.2537252521
 20
87.2737111289
 30
0.0
 11
65.2537252521
 21
83.5737112675
 31
0.0
  0
LINE
  5
130
330
1F
100
AcDbEntity
  8
0
  6
Continuous
 62
     7
370
    15
100
AcDbLine
 10
35.6537248706
 20
90.7737115164
 30
0.0
 11
36.1229564761
 21
90.7737115164
 31
0.0
  0
LINE
  5
131
330
1F
100
AcDbEntity
  8
0
  6
Continuous
 62
     7
370
    15
100
AcDbLine
 10
35.6537248706
 20
90.7737115164
 30
0.0
 11
35.6537248706
 21
91.0947637398
 31
0.0
  0
LINE
  5
132
330
1F
100
AcDbEntity
  8
0
  6
Continuous
 62
     7
370
    15
100
AcDbLine
 10
64.5537253236
 20
89.9737113852
 30
0.0
 11
64.5537253236
 21
87.2737111289
 31
0.0
  0
LINE
  5
133
330
1F
100
AcDbEntity
  8
0
  6
Continuous
 62
     7
370
    15
100
AcDbLine
 10
65.2537252521
 20
90.0828400392
 30
0.0
 11
65.2537252521
 21
87.2737111289
 31
0.0
  0
LINE
  5
134
330
1F
100
AcDbEntity
  8
0
  6
Continuous
 62
     7
370
    15
100
AcDbLine
 10
36.3537247991
 20
87.2737111289
 30
0.0
 11
36.3537247991
 21
90.6158165772
 31
0.0
  0
LINE
  5
135
330
1F
100
AcDbEntity
  8
0
  6
Continuous
 62
     7
370
    15
100
AcDbLine
 10
35.6537248706
 20
87.2737111289
 30
0.0
 11
35.6537248706
 21
90.7737115164
 31
0.0
  0
LINE
  5
136
330
1F
100
AcDbEntity
  8
0
  6
Continuous
 62
     7
370
    15
100
AcDbLine
 10
60.4537252104
 20
83.2137112737
 30
0.0
 11
40.4537249123
 21
83.2137112737
 31
0.0
  0
LINE
  5
137
330
1F
100
AcDbEntity
  8
0
  6
Continuous
 62
     7
370
    15
100
AcDbLine
 10
40.4537249123
 20
82.5737112899
 30
0.0
 11
60.4537252104
 21
82.5737112899
 31
0.0
  0
LINE
  5
138
330
1F
100
AcDbEntity
  8
0
  6
Continuous
 62
     7
370
    15
100
AcDbLine
 10
59.833725146
 20
86.3737111677
 30
0.0
 11
59.833725146
 21
89.6487110991
 31
0.0
  0
LINE
  5
139
330
1F
100
AcDbEntity
  8
0
  6
Continuous
 62
     7
370
    15
100
AcDbLine
 10
40.4337253188
 20
86.3737111677
 30
0.0
 11
40.8837247407
 21
86.3737111677
 31
0.0
  0
LINE
  5
13A
330
1F
100
AcDbEntity
  8
0
  6
Continuous
 62
     7
370
    15
100
AcDbLine
 10
59.3837249791
 20
86.3737111677
 30
0.0
 11
59.833725146
 21
86.3737111677
 31
0.0
  0
LINE
  5
13B
330
1F
100
AcDbEntity
  8
0
  6
Continuous
 62
     7
370
    15
100
AcDbLine
 10
40.4337253188
 20
86.3737111677
 30
0.0
 11
40.4337253188
 21
89.9737113852
 31
0.0
  0
INSERT
  5
147
330
1F
100
AcDbEntity
  8
中心線
100
AcDbBlockReference
  2
SW_CENTERMARKSYMBOL_0
 10
40.2537250613
 20
98.6737112899
 30
0.0
  0
INSERT
  5
153
330
1F
100
AcDbEntity
  8
中心線
100
AcDbBlockReference
  2
SW_CENTERMARKSYMBOL_1
 10
39.2537250613
 20
91.0737112899
 30
0.0
  0
LINE
  5
154
330
1F
100
AcDbEntity
  8
中心線
  6
CENTERX2
 62
     7
370
     0
100
AcDbLine
 10
60.4537250613
 20
123.5737112899
 30
0.0
 11
60.4537250613
 21
129.9737112899
 31
0.0
  0
LINE
  5
155
330
1F
100
AcDbEntity
  8
中心線
  6
CENTERX2
370
     0
100
AcDbLine
 10
50.4537250613
 20
79.7476039846
 30
0.0
 11
50.4537250613
 21
126.5237112899
 31
0.0
  0
ARC
  5
156
330
1F
100
AcDbEntity
  8
0
  6
Continuous
 62
     7
370
    15
100
AcDbCircle
 10
94.4198185525
 20
161.348959208
 30
0.0
 40
0.700000000000017
100
AcDbArc
 50
90.0
 51
180.0
  0
ARC
  5
157
330
1F
100
AcDbEntity
  8
0
  6
Continuous
 62
     7
370
    15
100
AcDbCircle
 10
94.4198185525
 20
156.348959208
 30
0.0
 40
0.700000000000017
100
AcDbArc
 50
180.0
 51
270.0
  0
LINE
  5
158
330
1F
100
AcDbEntity
  8
0
  6
Continuous
 62
     7
370
    15
100
AcDbLine
 10
94.4198191151
 20
153.5689591532
 30
0.0
 11
99.3598185465
 21
153.5689591532
 31
0.0
  0
LINE
  5
159
330
1F
100
AcDbEntity
  8
0
  6
Continuous
 62
     7
370
    15
100
AcDbLine
 10
89.3598183975
 20
175.6489588981
 30
0.0
 11
89.7237882003
 21
176.6489594345
 31
0.0
  0
LINE
  5
15A
330
1F
100
AcDbEntity
  8
0
  6
Continuous
 62
     7
370
    15
100
AcDbLine
 10
89.7237882003
 20
180.6489593451
 30
0.0
 11
89.3598183975
 21
181.6489591365
 31
0.0
  0
LINE
  5
15B
330
1F
100
AcDbEntity
  8
0
  6
Continuous
 62
     7
370
    15
100
AcDbLine
 10
88.7598186717
 20
175.6489588981
 30
0.0
 11
89.3598183975
 21
175.6489588981
 31
0.0
  0
LINE
  5
15C
330
1F
100
AcDbEntity
  8
0
  6
Continuous
 62
     7
370
    15
100
AcDbLine
 10
89.3598183975
 20
181.6489591365
 30
0.0
 11
88.7598186717
 21
181.6489591365
 31
0.0
  0
LINE
  5
15D
330
1F
100
AcDbEntity
  8
0
  6
Continuous
 62
     7
370
    15
100
AcDbLine
 10
94.4198191151
 20
180.6489593451
 30
0.0
 11
89.7237882003
 21
180.6489593451
 31
0.0
  0
LINE
  5
15E
330
1F
100
AcDbEntity
  8
0
  6
Continuous
 62
     7
370
    15
100
AcDbLine
 10
89.7237882003
 20
176.6489594345
 30
0.0
 11
94.4198191151
 21
176.6489594345
 31
0.0
  0
LINE
  5
15F
330
1F
100
AcDbEntity
  8
0
  6
Continuous
 62
     7
370
    15
100
AcDbLine
 10
99.3598185465
 20
183.4875225191
 30
0.0
 11
96.3598191723
 21
183.4875225191
 31
0.0
  0
LINE
  5
160
330
1F
100
AcDbEntity
  8
0
  6
Continuous
 62
     7
370
    15
100
AcDbLine
 10
112.7598185078
 20
155.8689593439
 30
0.0
 11
115.759818627
 21
155.8689593439
 31
0.0
  0
LINE
  5
161
330
1F
100
AcDbEntity
  8
0
  6
Continuous
 62
     7
370
    15
100
AcDbLine
 10
115.759818627
 20
181.6689594751
 30
0.0
 11
112.7598185078
 21
181.6689594751
 31
0.0
  0
LINE
  5
162
330
1F
100
AcDbEntity
  8
0
  6
Continuous
 62
     7
370
    15
100
AcDbLine
 10
115.759818627
 20
155.8689593439
 30
0.0
 11
116.859818621
 21
156.968959338
 31
0.0
  0
LINE
  5
163
330
1F
100
AcDbEntity
  8
0
  6
Continuous
 62
     7
370
    15
100
AcDbLine
 10
116.859818621
 20
180.568959481
 30
0.0
 11
115.759818627
 21
181.6689594751
 31
0.0
  0
LINE
  5
164
330
1F
100
AcDbEntity
  8
0
  6
Continuous
 62
     7
370
    15
100
AcDbLine
 10
112.7598185078
 20
182.3689594035
 30
0.0
 11
111.3598185577
 21
182.3689594035
 31
0.0
  0
LINE
  5
165
330
1F
100
AcDbEntity
  8
0
  6
Continuous
 62
     7
370
    15
100
AcDbLine
 10
111.3598185577
 20
155.1689594154
 30
0.0
 11
112.7598185078
 21
155.1689594154
 31
0.0
  0
LINE
  5
166
330
1F
100
AcDbEntity
  8
0
  6
Continuous
 62
     7
370
    15
100
AcDbLine
 10
120.1598182306
 20
156.8689591353
 30
0.0
 11
147.7598190293
 21
156.8689591353
 31
0.0
  0
LINE
  5
167
330
1F
100
AcDbEntity
  8
0
  6
Continuous
 62
     7
370
    15
100
AcDbLine
 10
147.7598190293
 20
180.6689589386
 30
0.0
 11
120.1598182306
 21
180.6689589386
 31
0.0
  0
LINE
  5
168
330
1F
100
AcDbEntity
  8
0
  6
Continuous
 62
     7
370
    15
100
AcDbLine
 10
116.859818621
 20
156.968959338
 30
0.0
 11
120.1598182306
 21
156.968959338
 31
0.0
  0
LINE
  5
169
330
1F
100
AcDbEntity
  8
0
  6
Continuous
 62
     7
370
    15
100
AcDbLine
 10
120.1598182306
 20
180.568959481
 30
0.0
 11
116.859818621
 21
180.568959481
 31
0.0
  0
LINE
  5
16A
330
1F
100
AcDbEntity
  8
0
  6
Continuous
 62
     7
370
    15
100
AcDbLine
 10
147.7598190293
 20
158.2689589923
 30
0.0
 11
148.5598176703
 21
158.2689589923
 31
0.0
  0
LINE
  5
16B
330
1F
100
AcDbEntity
  8
0
  6
Continuous
 62
     7
370
    15
100
AcDbLine
 10
148.5598176703
 20
179.2689590817
 30
0.0
 11
147.7598190293
 21
179.2689590817
 31
0.0
  0
LINE
  5
16C
330
1F
100
AcDbEntity
  8
0
  6
Continuous
 62
     7
370
    15
100
AcDbLine
 10
148.5598176703
 20
158.6689590578
 30
0.0
 11
150.3598183379
 21
158.6689590578
 31
0.0
  0
LINE
  5
16D
330
1F
100
AcDbEntity
  8
0
  6
Continuous
 62
     7
370
    15
100
AcDbLine
 10
150.3598183379
 20
178.8689590161
 30
0.0
 11
148.5598176703
 21
178.8689590161
 31
0.0
  0
LINE
  5
16E
330
1F
100
AcDbEntity
  8
0
  6
Continuous
 62
     7
370
    15
100
AcDbLine
 10
150.3598183379
 20
164.3689590608
 30
0.0
 11
152.1598190055
 21
164.3689590608
 31
0.0
  0
LINE
  5
16F
330
1F
100
AcDbEntity
  8
0
  6
Continuous
 62
     7
370
    15
100
AcDbLine
 10
152.1598190055
 20
173.1689593856
 30
0.0
 11
150.3598183379
 21
173.1689593856
 31
0.0
  0
CIRCLE
  5
170
330
1F
100
AcDbEntity
  8
0
  6
Continuous
 62
     7
370
    15
100
AcDbCircle
 10
103.7598185525
 20
158.448959208
 30
0.0
 40
2.61999999999999
  0
CIRCLE
  5
171
330
1F
100
AcDbEntity
  8
0
  6
Continuous
 62
     7
370
    15
100
AcDbCircle
 10
103.7598185525
 20
158.448959208
 30
0.0
 40
4.000000000000014
  0
LINE
  5
172
330
1F
100
AcDbEntity
  8
0
  6
Continuous
 62
     7
370
    15
100
AcDbLine
 10
93.7198191866
 20
158.8489591246
 30
0.0
 11
93.7198191866
 21
156.3489592736
 31
0.0
  0
LINE
  5
173
330
1F
100
AcDbEntity
  8
0
  6
Continuous
 62
     7
370
    15
100
AcDbLine
 10
93.7198191866
 20
161.3489589756
 30
0.0
 11
93.7198191866
 21
158.8489591246
 31
0.0
  0
LINE
  5
174
330
1F
100
AcDbEntity
  8
0
  6
Continuous
 62
     7
370
    15
100
AcDbLine
 10
99.3598185465
 20
183.9489593272
 30
0.0
 11
107.1598187074
 21
183.9489593272
 31
0.0
  0
LINE
  5
175
330
1F
100
AcDbEntity
  8
0
  6
Continuous
 62
     7
370
    15
100
AcDbLine
 10
107.1598187074
 20
183.9489593272
 30
0.0
 11
107.1598187074
 21
182.7489598756
 31
0.0
  0
LINE
  5
176
330
1F
100
AcDbEntity
  8
0
  6
Continuous
 62
     7
370
    15
100
AcDbLine
 10
107.1598187074
 20
182.7489598756
 30
0.0
 11
99.3598185465
 21
182.7489598756
 31
0.0
  0
LINE
  5
177
330
1F
100
AcDbEntity
  8
0
  6
Continuous
 62
     7
370
    15
100
AcDbLine
 10
99.3598185465
 20
182.7489598756
 30
0.0
 11
99.3598185465
 21
183.9489593272
 31
0.0
  0
LINE
  5
178
330
1F
100
AcDbEntity
  8
0
  6
Continuous
 62
     7
370
    15
100
AcDbLine
 10
99.3598185465
 20
174.5489592766
 30
0.0
 11
107.1598187074
 21
174.5489592766
 31
0.0
  0
LINE
  5
179
330
1F
100
AcDbEntity
  8
0
  6
Continuous
 62
     7
370
    15
100
AcDbLine
 10
107.1598187074
 20
182.7489598756
 30
0.0
 11
107.1598187074
 21
174.5489592766
 31
0.0
  0
LINE
  5
17A
330
1F
100
AcDbEntity
  8
0
  6
Continuous
 62
     7
370
    15
100
AcDbLine
 10
99.3598185465
 20
174.5489592766
 30
0.0
 11
99.3598185465
 21
182.7489598756
 31
0.0
  0
LINE
  5
17B
330
1F
100
AcDbEntity
  8
0
  6
Continuous
 62
     7
370
    15
100
AcDbLine
 10
99.3598185465
 20
154.1489585405
 30
0.0
 11
107.1598187074
 21
154.1489585405
 31
0.0
  0
LINE
  5
17C
330
1F
100
AcDbEntity
  8
0
  6
Continuous
 62
     7
370
    15
100
AcDbLine
 10
99.3598185465
 20
161.9609593516
 30
0.0
 11
101.8451757714
 21
161.9609593516
 31
0.0
  0
LINE
  5
17D
330
1F
100
AcDbEntity
  8
0
  6
Continuous
 62
     7
370
    15
100
AcDbLine
 10
105.6744609013
 20
161.9609593516
 30
0.0
 11
107.1598187074
 21
161.9609593516
 31
0.0
  0
LINE
  5
17E
330
1F
100
AcDbEntity
  8
0
  6
Continuous
 62
     7
370
    15
100
AcDbLine
 10
107.1598187074
 20
154.1489585405
 30
0.0
 11
107.1598187074
 21
156.3418283229
 31
0.0
  0
LINE
  5
17F
330
1F
100
AcDbEntity
  8
0
  6
Continuous
 62
     7
370
    15
100
AcDbLine
 10
107.1598187074
 20
160.5560897951
 30
0.0
 11
107.1598187074
 21
161.9609593516
 31
0.0
  0
LINE
  5
180
330
1F
100
AcDbEntity
  8
0
  6
Continuous
 62
     7
370
    15
100
AcDbLine
 10
99.3598185465
 20
154.1489585405
 30
0.0
 11
99.3598185465
 21
161.9609593516
 31
0.0
  0
LINE
  5
181
330
1F
100
AcDbEntity
  8
0
  6
Continuous
 62
     7
370
    15
100
AcDbLine
 10
107.1598187074
 20
152.9489590888
 30
0.0
 11
99.3598185465
 21
152.9489590888
 31
0.0
  0
LINE
  5
182
330
1F
100
AcDbEntity
  8
0
  6
Continuous
 62
     7
370
    15
100
AcDbLine
 10
107.1598187074
 20
154.1489585405
 30
0.0
 11
107.1598187074
 21
152.9489590888
 31
0.0
  0
LINE
  5
183
330
1F
100
AcDbEntity
  8
0
  6
Continuous
 62
     7
370
    15
100
AcDbLine
 10
99.3598185465
 20
152.9489590888
 30
0.0
 11
99.3598185465
 21
154.1489585405
 31
0.0
  0
LINE
  5
184
330
1F
100
AcDbEntity
  8
0
  6
Continuous
 62
     7
370
    15
100
AcDbLine
 10
107.1598187074
 20
161.9609593516
 30
0.0
 11
107.1598187074
 21
174.5489592766
 31
0.0
  0
LINE
  5
185
330
1F
100
AcDbEntity
  8
0
  6
Continuous
 62
     7
370
    15
100
AcDbLine
 10
99.3598185465
 20
161.9609593516
 30
0.0
 11
99.3598185465
 21
174.5489592766
 31
0.0
  0
LINE
  5
186
330
1F
100
AcDbEntity
  8
0
  6
Continuous
 62
     7
370
    15
100
AcDbLine
 10
107.1598187074
 20
162.8489590352
 30
0.0
 11
110.7598185525
 21
162.8489590352
 31
0.0
  0
LINE
  5
187
330
1F
100
AcDbEntity
  8
0
  6
Continuous
 62
     7
370
    15
100
AcDbLine
 10
110.7598185525
 20
174.7489593094
 30
0.0
 11
107.1598187074
 21
174.7489593094
 31
0.0
  0
LINE
  5
188
330
1F
100
AcDbEntity
  8
0
  6
Continuous
 62
     7
370
    15
100
AcDbLine
 10
110.7598185525
 20
162.8489590352
 30
0.0
 11
110.7598185525
 21
174.7489593094
 31
0.0
  0
LINE
  5
189
330
1F
100
AcDbEntity
  8
0
  6
Continuous
 62
     7
370
    15
100
AcDbLine
 10
107.1598187074
 20
175.3489590352
 30
0.0
 11
110.7598185525
 21
175.3489590352
 31
0.0
  0
LINE
  5
18A
330
1F
100
AcDbEntity
  8
0
  6
Continuous
 62
     7
370
    15
100
AcDbLine
 10
110.7598185525
 20
175.3489590352
 30
0.0
 11
110.7598185525
 21
174.7489593094
 31
0.0
  0
LINE
  5
18B
330
1F
100
AcDbEntity
  8
0
  6
Continuous
 62
     7
370
    15
100
AcDbLine
 10
110.7598185525
 20
162.2489593094
 30
0.0
 11
107.1598187074
 21
162.2489593094
 31
0.0
  0
LINE
  5
18C
330
1F
100
AcDbEntity
  8
0
  6
Continuous
 62
     7
370
    15
100
AcDbLine
 10
110.7598185525
 20
162.8489590352
 30
0.0
 11
110.7598185525
 21
162.2489593094
 31
0.0
  0
LINE
  5
18D
330
1F
100
AcDbEntity
  8
0
  6
Continuous
 62
     7
370
    15
100
AcDbLine
 10
94.4198191151
 20
174.4489590739
 30
0.0
 11
99.3598185465
 21
174.4489590739
 31
0.0
  0
LINE
  5
18E
330
1F
100
AcDbEntity
  8
0
  6
Continuous
 62
     7
370
    15
100
AcDbLine
 10
99.3598185465
 20
173.8489593481
 30
0.0
 11
94.4198191151
 21
173.8489593481
 31
0.0
  0
LINE
  5
18F
330
1F
100
AcDbEntity
  8
0
  6
Continuous
 62
     7
370
    15
100
AcDbLine
 10
94.4198191151
 20
173.8489593481
 30
0.0
 11
94.4198191151
 21
174.4489590739
 31
0.0
  0
LINE
  5
190
330
1F
100
AcDbEntity
  8
0
  6
Continuous
 62
     7
370
    15
100
AcDbLine
 10
94.4198191151
 20
163.4489591335
 30
0.0
 11
99.3598185465
 21
163.4489591335
 31
0.0
  0
LINE
  5
191
330
1F
100
AcDbEntity
  8
0
  6
Continuous
 62
     7
370
    15
100
AcDbLine
 10
94.4198191151
 20
163.4489591335
 30
0.0
 11
94.4198191151
 21
173.8489593481
 31
0.0
  0
LINE
  5
192
330
1F
100
AcDbEntity
  8
0
  6
Continuous
 62
     7
370
    15
100
AcDbLine
 10
99.3598185465
 20
162.8489590352
 30
0.0
 11
94.4198191151
 21
162.8489590352
 31
0.0
  0
LINE
  5
193
330
1F
100
AcDbEntity
  8
0
  6
Continuous
 62
     7
370
    15
100
AcDbLine
 10
94.4198191151
 20
162.8489590352
 30
0.0
 11
94.4198191151
 21
163.4489591335
 31
0.0
  0
LINE
  5
194
330
1F
100
AcDbEntity
  8
0
  6
Continuous
 62
     7
370
    15
100
AcDbLine
 10
110.7598185525
 20
182.2489588623
 30
0.0
 11
107.1598187074
 21
182.2489588623
 31
0.0
  0
LINE
  5
195
330
1F
100
AcDbEntity
  8
0
  6
Continuous
 62
     7
370
    15
100
AcDbLine
 10
110.7598185525
 20
175.3489590352
 30
0.0
 11
110.7598185525
 21
182.2489588623
 31
0.0
  0
LINE
  5
196
330
1F
100
AcDbEntity
  8
0
  6
Continuous
 62
     7
370
    15
100
AcDbLine
 10
107.1598187074
 20
182.8489585881
 30
0.0
 11
110.7598185525
 21
182.8489585881
 31
0.0
  0
LINE
  5
197
330
1F
100
AcDbEntity
  8
0
  6
Continuous
 62
     7
370
    15
100
AcDbLine
 10
110.7598185525
 20
182.8489585881
 30
0.0
 11
110.7598185525
 21
182.2489588623
 31
0.0
  0
LINE
  5
198
330
1F
100
AcDbEntity
  8
0
  6
Continuous
 62
     7
370
    15
100
AcDbLine
 10
107.1598187074
 20
154.6489595537
 30
0.0
 11
110.7598185525
 21
154.6489595537
 31
0.0
  0
LINE
  5
199
330
1F
100
AcDbEntity
  8
0
  6
Continuous
 62
     7
370
    15
100
AcDbLine
 10
110.7598185525
 20
154.6489595537
 30
0.0
 11
110.7598185525
 21
162.2489593094
 31
0.0
  0
LINE
  5
19A
330
1F
100
AcDbEntity
  8
0
  6
Continuous
 62
     7
370
    15
100
AcDbLine
 10
110.7598185525
 20
154.0489598279
 30
0.0
 11
107.1598187074
 21
154.0489598279
 31
0.0
  0
LINE
  5
19B
330
1F
100
AcDbEntity
  8
0
  6
Continuous
 62
     7
370
    15
100
AcDbLine
 10
110.7598185525
 20
154.6489595537
 30
0.0
 11
110.7598185525
 21
154.0489598279
 31
0.0
  0
LINE
  5
19C
330
1F
100
AcDbEntity
  8
0
  6
Continuous
 62
     7
370
    15
100
AcDbLine
 10
94.4198191151
 20
181.7689596777
 30
0.0
 11
99.3598185465
 21
181.7689596777
 31
0.0
  0
LINE
  5
19D
330
1F
100
AcDbEntity
  8
0
  6
Continuous
 62
     7
370
    15
100
AcDbLine
 10
99.3598185465
 20
179.7689593499
 30
0.0
 11
94.4198191151
 21
179.7689593499
 31
0.0
  0
LINE
  5
19E
330
1F
100
AcDbEntity
  8
0
  6
Continuous
 62
     7
370
    15
100
AcDbLine
 10
94.4198191151
 20
179.7689593499
 30
0.0
 11
94.4198191151
 21
181.7689596777
 31
0.0
  0
LINE
  5
19F
330
1F
100
AcDbEntity
  8
0
  6
Continuous
 62
     7
370
    15
100
AcDbLine
 10
94.4198191151
 20
174.4489590739
 30
0.0
 11
94.4198191151
 21
179.7689593499
 31
0.0
  0
LINE
  5
1A0
330
1F
100
AcDbEntity
  8
0
  6
Continuous
 62
     7
370
    15
100
AcDbLine
 10
94.4198191151
 20
157.6853840714
 30
0.0
 11
99.3598185465
 21
157.6853840714
 31
0.0
  0
LINE
  5
1A1
330
1F
100
AcDbEntity
  8
0
  6
Continuous
 62
     7
370
    15
100
AcDbLine
 10
94.4198191151
 20
157.6853840714
 30
0.0
 11
94.4198191151
 21
162.8489590352
 31
0.0
  0
LINE
  5
1A2
330
1F
100
AcDbEntity
  8
0
  6
Continuous
 62
     7
370
    15
100
AcDbLine
 10
94.4198191151
 20
155.7689591413
 30
0.0
 11
99.3598185465
 21
155.7689591413
 31
0.0
  0
LINE
  5
1A3
330
1F
100
AcDbEntity
  8
0
  6
Continuous
 62
     7
370
    15
100
AcDbLine
 10
94.4198191151
 20
155.7689591413
 30
0.0
 11
94.4198191151
 21
157.6853840714
 31
0.0
  0
LINE
  5
1A4
330
1F
100
AcDbEntity
  8
0
  6
Continuous
 62
     7
370
    15
100
AcDbLine
 10
94.4198191151
 20
153.5689591532
 30
0.0
 11
94.4198191151
 21
155.7689591413
 31
0.0
  0
LINE
  5
1A5
330
1F
100
AcDbEntity
  8
0
  6
Continuous
 62
     7
370
    15
100
AcDbLine
 10
89.7237882003
 20
176.6489594345
 30
0.0
 11
89.7237882003
 21
180.6489593451
 31
0.0
  0
LINE
  5
1A6
330
1F
100
AcDbEntity
  8
0
  6
Continuous
 62
     7
370
    15
100
AcDbLine
 10
89.3598183975
 20
181.6489591365
 30
0.0
 11
89.3598183975
 21
175.6489588981
 31
0.0
  0
LINE
  5
1A7
330
1F
100
AcDbEntity
  8
0
  6
Continuous
 62
     7
370
    15
100
AcDbLine
 10
88.7598186717
 20
175.6489588981
 30
0.0
 11
88.7598186717
 21
181.6489591365
 31
0.0
  0
LINE
  5
1A8
330
1F
100
AcDbEntity
  8
0
  6
Continuous
 62
     7
370
    15
100
AcDbLine
 10
113.7598184854
 20
183.2489593988
 30
0.0
 11
113.7598184854
 21
182.5489594703
 31
0.0
  0
LINE
  5
1A9
330
1F
100
AcDbEntity
  8
0
  6
Continuous
 62
     7
370
    15
100
AcDbLine
 10
113.7598184854
 20
183.2489593988
 30
0.0
 11
131.7598178968
 21
183.2489593988
 31
0.0
  0
LINE
  5
1AA
330
1F
100
AcDbEntity
  8
0
  6
Continuous
 62
     7
370
    15
100
AcDbLine
 10
131.7598178968
 20
183.2489593988
 30
0.0
 11
131.7598178968
 21
182.5489594703
 31
0.0
  0
LINE
  5
1AB
330
1F
100
AcDbEntity
  8
0
  6
Continuous
 62
     7
370
    15
100
AcDbLine
 10
113.7598184854
 20
182.5489594703
 30
0.0
 11
131.7598178968
 21
182.5489594703
 31
0.0
  0
LINE
  5
1AC
330
1F
100
AcDbEntity
  8
0
  6
Continuous
 62
     7
370
    15
100
AcDbLine
 10
107.3598183677
 20
183.2489593988
 30
0.0
 11
113.7598184854
 21
183.2489593988
 31
0.0
  0
LINE
  5
1AD
330
1F
100
AcDbEntity
  8
0
  6
Continuous
 62
     7
370
    15
100
AcDbLine
 10
112.7598185078
 20
182.5489594703
 30
0.0
 11
113.7598184854
 21
182.5489594703
 31
0.0
  0
LINE
  5
1AE
330
1F
100
AcDbEntity
  8
0
  6
Continuous
 62
     7
370
    15
100
AcDbLine
 10
107.3598183677
 20
183.2489593988
 30
0.0
 11
107.3598183677
 21
182.8489585881
 31
0.0
  0
LINE
  5
1AF
330
1F
100
AcDbEntity
  8
0
  6
Continuous
 62
     7
370
    15
100
AcDbLine
 10
131.7598178968
 20
153.6489590173
 30
0.0
 11
131.7598178968
 21
154.3489589458
 31
0.0
  0
LINE
  5
1B0
330
1F
100
AcDbEntity
  8
0
  6
Continuous
 62
     7
370
    15
100
AcDbLine
 10
131.7598178968
 20
153.6489590173
 30
0.0
 11
113.7598184854
 21
153.6489590173
 31
0.0
  0
LINE
  5
1B1
330
1F
100
AcDbEntity
  8
0
  6
Continuous
 62
     7
370
    15
100
AcDbLine
 10
113.7598184854
 20
153.6489590173
 30
0.0
 11
113.7598184854
 21
154.3489589458
 31
0.0
  0
LINE
  5
1B2
330
1F
100
AcDbEntity
  8
0
  6
Continuous
 62
     7
370
    15
100
AcDbLine
 10
131.7598178968
 20
154.3489589458
 30
0.0
 11
113.7598184854
 21
154.3489589458
 31
0.0
  0
LINE
  5
1B3
330
1F
100
AcDbEntity
  8
0
  6
Continuous
 62
     7
370
    15
100
AcDbLine
 10
113.7598184854
 20
153.6489590173
 30
0.0
 11
107.3598183677
 21
153.6489590173
 31
0.0
  0
LINE
  5
1B4
330
1F
100
AcDbEntity
  8
0
  6
Continuous
 62
     7
370
    15
100
AcDbLine
 10
113.7598184854
 20
154.3489589458
 30
0.0
 11
110.7598185525
 21
154.3489589458
 31
0.0
  0
LINE
  5
1B5
330
1F
100
AcDbEntity
  8
0
  6
Continuous
 62
     7
370
    15
100
AcDbLine
 10
107.3598183677
 20
153.6489590173
 30
0.0
 11
107.3598183677
 21
154.0489598279
 31
0.0
  0
LINE
  5
1B6
330
1F
100
AcDbEntity
  8
0
  6
Continuous
 62
     7
370
    15
100
AcDbLine
 10
99.3598185465
 20
183.2823678022
 30
0.0
 11
96.3598191723
 21
183.2823678022
 31
0.0
  0
LINE
  5
1B7
330
1F
100
AcDbEntity
  8
0
  6
Continuous
 62
     7
370
    15
100
AcDbLine
 10
96.3598191723
 20
181.7689596777
 30
0.0
 11
96.3598191723
 21
183.2823678022
 31
0.0
  0
LINE
  5
1B8
330
1F
100
AcDbEntity
  8
0
  6
Continuous
 62
     7
370
    15
100
AcDbLine
 10
96.3598191723
 20
183.2823678022
 30
0.0
 11
96.3598191723
 21
183.4875225191
 31
0.0
  0
LINE
  5
1B9
330
1F
100
AcDbEntity
  8
0
  6
Continuous
 62
     7
370
    15
100
AcDbLine
 10
91.8598189935
 20
180.6489593451
 30
0.0
 11
91.8598189935
 21
181.2655403381
 31
0.0
  0
LINE
  5
1BA
330
1F
100
AcDbEntity
  8
0
  6
Continuous
 62
     7
370
    15
100
AcDbLine
 10
91.8598189935
 20
181.2655403381
 30
0.0
 11
94.4198191151
 21
181.2655403381
 31
0.0
  0
LINE
  5
1BB
330
1F
100
AcDbEntity
  8
0
  6
Continuous
 62
     7
370
    15
100
AcDbLine
 10
107.1598187074
 20
183.2489593988
 30
0.0
 11
107.3598183677
 21
183.2489593988
 31
0.0
  0
LINE
  5
1BC
330
1F
100
AcDbEntity
  8
0
  6
Continuous
 62
     7
370
    15
100
AcDbLine
 10
107.3598183677
 20
153.6489590173
 30
0.0
 11
107.1598187074
 21
153.6489590173
 31
0.0
  0
ARC
  5
1BD
330
1F
100
AcDbEntity
  8
0
  6
Continuous
 62
     7
370
    15
100
AcDbCircle
 10
128.7598185525
 20
180.248959208
 30
0.0
 40
0.900000000000015
100
AcDbArc
 50
27.8181392846
 51
152.1818607154
  0
LINE
  5
1BE
330
1F
100
AcDbEntity
  8
0
  6
Continuous
 62
     7
370
    15
100
AcDbLine
 10
129.6598181114
 20
156.6489591365
 30
0.0
 11
129.6325162038
 21
156.8689591353
 31
0.0
  0
ARC
  5
1BF
330
1F
100
AcDbEntity
  8
0
  6
Continuous
 62
     7
370
    15
100
AcDbCircle
 10
128.7598185525
 20
156.648959208
 30
0.0
 40
0.9000000000000057
100
AcDbArc
 50
165.8509954911
 51
0.0
  0
LINE
  5
1C0
330
1F
100
AcDbEntity
  8
0
  6
Continuous
 62
     7
370
    15
100
AcDbLine
 10
131.7598178968
 20
156.8689591353
 30
0.0
 11
131.7598178968
 21
154.3489589458
 31
0.0
  0
LINE
  5
1C1
330
1F
100
AcDbEntity
  8
0
  6
Continuous
 62
     7
370
    15
100
AcDbLine
 10
131.7598178968
 20
182.5489594703
 30
0.0
 11
131.7598178968
 21
180.6689589386
 31
0.0
  0
LINE
  5
1C2
330
1F
100
AcDbEntity
  8
0
  6
Continuous
 62
     7
370
    15
100
AcDbLine
 10
112.7598185078
 20
179.0284483795
 30
0.0
 11
111.3598185577
 21
179.0284483795
 31
0.0
  0
LINE
  5
1C3
330
1F
100
AcDbEntity
  8
0
  6
Continuous
 62
     7
370
    15
100
AcDbLine
 10
110.7598185525
 20
175.8745907908
 30
0.0
 11
112.7598185078
 21
175.8745907908
 31
0.0
  0
LINE
  5
1C4
330
1F
100
AcDbEntity
  8
0
  6
Continuous
 62
     7
370
    15
100
AcDbLine
 10
110.7598185525
 20
180.1308571463
 30
0.0
 11
111.3598185577
 21
180.1308571463
 31
0.0
  0
LINE
  5
1C5
330
1F
100
AcDbEntity
  8
0
  6
Continuous
 62
     7
370
    15
100
AcDbLine
 10
112.7598185078
 20
175.8745907908
 30
0.0
 11
112.7598185078
 21
179.0284483795
 31
0.0
  0
LINE
  5
1C6
330
1F
100
AcDbEntity
  8
0
  6
Continuous
 62
     7
370
    15
100
AcDbLine
 10
112.7598185078
 20
161.6633272832
 30
0.0
 11
110.7598185525
 21
161.6633272832
 31
0.0
  0
LINE
  5
1C7
330
1F
100
AcDbEntity
  8
0
  6
Continuous
 62
     7
370
    15
100
AcDbLine
 10
112.7598185078
 20
161.6633272832
 30
0.0
 11
112.7598185078
 21
175.8745907908
 31
0.0
  0
LINE
  5
1C8
330
1F
100
AcDbEntity
  8
0
  6
Continuous
 62
     7
370
    15
100
AcDbLine
 10
111.3598185577
 20
158.5094704394
 30
0.0
 11
112.7598185078
 21
158.5094704394
 31
0.0
  0
LINE
  5
1C9
330
1F
100
AcDbEntity
  8
0
  6
Continuous
 62
     7
370
    15
100
AcDbLine
 10
111.3598185577
 20
157.4070609276
 30
0.0
 11
110.7598185525
 21
157.4070609276
 31
0.0
  0
LINE
  5
1CA
330
1F
100
AcDbEntity
  8
0
  6
Continuous
 62
     7
370
    15
100
AcDbLine
 10
112.7598185078
 20
158.5094704394
 30
0.0
 11
112.7598185078
 21
161.6633272832
 31
0.0
  0
LINE
  5
1CB
330
1F
100
AcDbEntity
  8
0
  6
Continuous
 62
     7
370
    15
100
AcDbLine
 10
115.759818627
 20
155.8689593439
 30
0.0
 11
115.759818627
 21
181.6689594751
 31
0.0
  0
LINE
  5
1CC
330
1F
100
AcDbEntity
  8
0
  6
Continuous
 62
     7
370
    15
100
AcDbLine
 10
116.859818621
 20
156.968959338
 30
0.0
 11
116.859818621
 21
180.568959481
 31
0.0
  0
LINE
  5
1CD
330
1F
100
AcDbEntity
  8
0
  6
Continuous
 62
     7
370
    15
100
AcDbLine
 10
111.3598185577
 20
179.7882839208
 30
0.0
 11
112.7598185078
 21
179.7882839208
 31
0.0
  0
LINE
  5
1CE
330
1F
100
AcDbEntity
  8
0
  6
Continuous
 62
     7
370
    15
100
AcDbLine
 10
111.3598185577
 20
182.3689594035
 30
0.0
 11
111.3598185577
 21
179.7882839208
 31
0.0
  0
LINE
  5
1CF
330
1F
100
AcDbEntity
  8
0
  6
Continuous
 62
     7
370
    15
100
AcDbLine
 10
112.7598185078
 20
182.3689594035
 30
0.0
 11
112.7598185078
 21
179.7882839208
 31
0.0
  0
LINE
  5
1D0
330
1F
100
AcDbEntity
  8
0
  6
Continuous
 62
     7
370
    15
100
AcDbLine
 10
112.7598185078
 20
157.7496348982
 30
0.0
 11
111.3598185577
 21
157.7496348982
 31
0.0
  0
LINE
  5
1D1
330
1F
100
AcDbEntity
  8
0
  6
Continuous
 62
     7
370
    15
100
AcDbLine
 10
111.3598185577
 20
157.7496348982
 30
0.0
 11
111.3598185577
 21
155.1689594154
 31
0.0
  0
LINE
  5
1D2
330
1F
100
AcDbEntity
  8
0
  6
Continuous
 62
     7
370
    15
100
AcDbLine
 10
112.7598185078
 20
157.7496348982
 30
0.0
 11
112.7598185078
 21
155.1689594154
 31
0.0
  0
LINE
  5
1D3
330
1F
100
AcDbEntity
  8
0
  6
Continuous
 62
     7
370
    15
100
AcDbLine
 10
120.1598182306
 20
180.6689589386
 30
0.0
 11
120.1598182306
 21
156.8689591353
 31
0.0
  0
LINE
  5
1D4
330
1F
100
AcDbEntity
  8
0
  6
Continuous
 62
     7
370
    15
100
AcDbLine
 10
147.7598190293
 20
180.6689589386
 30
0.0
 11
147.7598190293
 21
156.8689591353
 31
0.0
  0
LINE
  5
1D5
330
1F
100
AcDbEntity
  8
0
  6
Continuous
 62
     7
370
    15
100
AcDbLine
 10
111.3598185577
 20
179.0284483795
 30
0.0
 11
111.3598185577
 21
179.7882839208
 31
0.0
  0
LINE
  5
1D6
330
1F
100
AcDbEntity
  8
0
  6
Continuous
 62
     7
370
    15
100
AcDbLine
 10
112.7598185078
 20
179.7882839208
 30
0.0
 11
112.7598185078
 21
179.0284483795
 31
0.0
  0
LINE
  5
1D7
330
1F
100
AcDbEntity
  8
0
  6
Continuous
 62
     7
370
    15
100
AcDbLine
 10
111.3598185577
 20
157.7496348982
 30
0.0
 11
111.3598185577
 21
158.5094704394
 31
0.0
  0
LINE
  5
1D8
330
1F
100
AcDbEntity
  8
0
  6
Continuous
 62
     7
370
    15
100
AcDbLine
 10
112.7598185078
 20
158.5094704394
 30
0.0
 11
112.7598185078
 21
157.7496348982
 31
0.0
  0
LINE
  5
1D9
330
1F
100
AcDbEntity
  8
0
  6
Continuous
 62
     7
370
    15
100
AcDbLine
 10
111.3598185577
 20
180.923409677
 30
0.0
 11
110.7598185525
 21
180.923409677
 31
0.0
  0
LINE
  5
1DA
330
1F
100
AcDbEntity
  8
0
  6
Continuous
 62
     7
370
    15
100
AcDbLine
 10
110.7598185525
 20
156.6145083969
 30
0.0
 11
111.3598185577
 21
156.6145083969
 31
0.0
  0
LINE
  5
1DB
330
1F
100
AcDbEntity
  8
0
  6
Continuous
 62
     7
370
    15
100
AcDbLine
 10
148.5598176703
 20
158.2689589923
 30
0.0
 11
148.5598176703
 21
179.2689590817
 31
0.0
  0
LINE
  5
1DC
330
1F
100
AcDbEntity
  8
0
  6
Continuous
 62
     7
370
    15
100
AcDbLine
 10
150.3598183379
 20
158.6689590578
 30
0.0
 11
150.3598183379
 21
178.8689590161
 31
0.0
  0
LINE
  5
1DD
330
1F
100
AcDbEntity
  8
0
  6
Continuous
 62
     7
370
    15
100
AcDbLine
 10
112.7598185078
 20
182.768958724
 30
0.0
 11
110.7598185525
 21
182.768958724
 31
0.0
  0
LINE
  5
1DE
330
1F
100
AcDbEntity
  8
0
  6
Continuous
 62
     7
370
    15
100
AcDbLine
 10
112.7598185078
 20
182.3689594035
 30
0.0
 11
112.7598185078
 21
182.768958724
 31
0.0
  0
LINE
  5
1DF
330
1F
100
AcDbEntity
  8
0
  6
Continuous
 62
     7
370
    15
100
AcDbLine
 10
110.7598185525
 20
154.7689586048
 30
0.0
 11
112.7598185078
 21
154.7689586048
 31
0.0
  0
LINE
  5
1E0
330
1F
100
AcDbEntity
  8
0
  6
Continuous
 62
     7
370
    15
100
AcDbLine
 10
112.7598185078
 20
154.7689586048
 30
0.0
 11
112.7598185078
 21
155.1689594154
 31
0.0
  0
LINE
  5
1E1
330
1F
100
AcDbEntity
  8
0
  6
Continuous
 62
     7
370
    15
100
AcDbLine
 10
152.1598190055
 20
164.3689590608
 30
0.0
 11
152.1598190055
 21
173.1689593856
 31
0.0
  0
INSERT
  5
1ED
330
1F
100
AcDbEntity
  8
中心線
100
AcDbBlockReference
  2
SW_CENTERMARKSYMBOL_2
 10
103.7598185525
 20
158.448959208
 30
0.0
  0
LINE
  5
1EE
330
1F
100
AcDbEntity
  8
中心線
  6
CENTERX2
 62
     7
370
     0
100
AcDbLine
 10
87.7237887867
 20
178.648959208
 30
0.0
 11
96.4198185525
 21
178.648959208
 31
0.0
  0
LINE
  5
1EF
330
1F
100
AcDbEntity
  8
中心線
  6
CENTERX2
370
     0
100
AcDbLine
 10
91.7493031009
 20
168.448959208
 30
0.0
 11
153.6355947022
 21
168.448959208
 31
0.0
  0
ARC
  5
1F0
330
1F
100
AcDbEntity
  8
0
  6
Continuous
 62
     7
370
    15
100
AcDbCircle
 10
94.4198185525
 20
58.5604649019
 30
0.0
 40
0.700000000000017
100
AcDbArc
 50
90.0
 51
180.0
  0
ARC
  5
1F1
330
1F
100
AcDbEntity
  8
0
  6
Continuous
 62
     7
370
    15
100
AcDbCircle
 10
94.4198185525
 20
53.5604649019
 30
0.0
 40
0.700000000000017
100
AcDbArc
 50
180.0
 51
270.0
  0
LINE
  5
1F2
330
1F
100
AcDbEntity
  8
0
  6
Continuous
 62
     7
370
    15
100
AcDbLine
 10
96.3598191723
 20
31.4219015908
 30
0.0
 11
99.3598185465
 21
31.4219015908
 31
0.0
  0
LINE
  5
1F3
330
1F
100
AcDbEntity
  8
0
  6
Continuous
 62
     7
370
    15
100
AcDbLine
 10
89.3598183975
 20
33.2604649734
 30
0.0
 11
89.7237882003
 21
34.2604647648
 31
0.0
  0
LINE
  5
1F4
330
1F
100
AcDbEntity
  8
0
  6
Continuous
 62
     7
370
    15
100
AcDbLine
 10
89.7237882003
 20
38.2604646754
 30
0.0
 11
89.3598183975
 21
39.2604652119
 31
0.0
  0
LINE
  5
1F5
330
1F
100
AcDbEntity
  8
0
  6
Continuous
 62
     7
370
    15
100
AcDbLine
 10
88.7598186717
 20
33.2604649734
 30
0.0
 11
89.3598183975
 21
33.2604649734
 31
0.0
  0
LINE
  5
1F6
330
1F
100
AcDbEntity
  8
0
  6
Continuous
 62
     7
370
    15
100
AcDbLine
 10
89.3598183975
 20
39.2604652119
 30
0.0
 11
88.7598186717
 21
39.2604652119
 31
0.0
  0
LINE
  5
1F7
330
1F
100
AcDbEntity
  8
0
  6
Continuous
 62
     7
370
    15
100
AcDbLine
 10
94.4198191151
 20
38.2604646754
 30
0.0
 11
89.7237882003
 21
38.2604646754
 31
0.0
  0
LINE
  5
1F8
330
1F
100
AcDbEntity
  8
0
  6
Continuous
 62
     7
370
    15
100
AcDbLine
 10
89.7237882003
 20
34.2604647648
 30
0.0
 11
91.8598189935
 21
34.2604647648
 31
0.0
  0
LINE
  5
1F9
330
1F
100
AcDbEntity
  8
0
  6
Continuous
 62
     7
370
    15
100
AcDbLine
 10
99.3598185465
 20
61.3404649568
 30
0.0
 11
94.4198191151
 21
61.3404649568
 31
0.0
  0
LINE
  5
1FA
330
1F
100
AcDbEntity
  8
0
  6
Continuous
 62
     7
370
    15
100
AcDbLine
 10
127.9638290391
 20
34.2404651713
 30
0.0
 11
129.5558080062
 21
34.2404651713
 31
0.0
  0
LINE
  5
1FB
330
1F
100
AcDbEntity
  8
0
  6
Continuous
 62
     7
370
    15
100
AcDbLine
 10
131.7598178968
 20
34.2404651713
 30
0.0
 11
147.7598190293
 21
34.2404651713
 31
0.0
  0
LINE
  5
1FC
330
1F
100
AcDbEntity
  8
0
  6
Continuous
 62
     7
370
    15
100
AcDbLine
 10
147.7598190293
 20
58.0404649746
 30
0.0
 11
131.7598178968
 21
58.0404649746
 31
0.0
  0
LINE
  5
1FD
330
1F
100
AcDbEntity
  8
0
  6
Continuous
 62
     7
370
    15
100
AcDbLine
 10
129.6325162038
 20
58.0404649746
 30
0.0
 11
127.8871208415
 21
58.0404649746
 31
0.0
  0
LINE
  5
1FE
330
1F
100
AcDbEntity
  8
0
  6
Continuous
 62
     7
370
    15
100
AcDbLine
 10
147.7598190293
 20
35.6404650283
 30
0.0
 11
148.5598176703
 21
35.6404650283
 31
0.0
  0
LINE
  5
1FF
330
1F
100
AcDbEntity
  8
0
  6
Continuous
 62
     7
370
    15
100
AcDbLine
 10
148.5598176703
 20
56.6404651177
 30
0.0
 11
147.7598190293
 21
56.6404651177
 31
0.0
  0
LINE
  5
200
330
1F
100
AcDbEntity
  8
0
  6
Continuous
 62
     7
370
    15
100
AcDbLine
 10
148.5598176703
 20
36.0404650938
 30
0.0
 11
150.3598183379
 21
36.0404650938
 31
0.0
  0
LINE
  5
201
330
1F
100
AcDbEntity
  8
0
  6
Continuous
 62
     7
370
    15
100
AcDbLine
 10
150.3598183379
 20
56.2404650521
 30
0.0
 11
148.5598176703
 21
56.2404650521
 31
0.0
  0
LINE
  5
202
330
1F
100
AcDbEntity
  8
0
  6
Continuous
 62
     7
370
    15
100
AcDbLine
 10
150.3598183379
 20
41.7404647243
 30
0.0
 11
152.1598190055
 21
41.7404647243
 31
0.0
  0
LINE
  5
203
330
1F
100
AcDbEntity
  8
0
  6
Continuous
 62
     7
370
    15
100
AcDbLine
 10
152.1598190055
 20
50.5404650491
 30
0.0
 11
150.3598183379
 21
50.5404650491
 31
0.0
  0
LINE
  5
204
330
1F
100
AcDbEntity
  8
0
  6
Continuous
 62
     7
370
    15
100
AcDbLine
 10
93.7198191866
 20
58.5604648363
 30
0.0
 11
93.7198191866
 21
53.5604651344
 31
0.0
  0
LINE
  5
205
330
1F
100
AcDbEntity
  8
0
  6
Continuous
 62
     7
370
    15
100
AcDbLine
 10
131.7598178968
 20
31.6604647112
 30
0.0
 11
103.7598185227
 21
31.6604647112
 31
0.0
  0
LINE
  5
206
330
1F
100
AcDbEntity
  8
0
  6
Continuous
 62
     7
370
    15
100
AcDbLine
 10
103.7598185227
 20
36.4604647529
 30
0.0
 11
103.7598185227
 21
31.6604647112
 31
0.0
  0
LINE
  5
207
330
1F
100
AcDbEntity
  8
0
  6
Continuous
 62
     7
370
    15
100
AcDbLine
 10
103.7598185227
 20
36.4604647529
 30
0.0
 11
114.1598187372
 21
36.4604647529
 31
0.0
  0
LINE
  5
208
330
1F
100
AcDbEntity
  8
0
  6
Continuous
 62
     7
370
    15
100
AcDbLine
 10
114.1598187372
 20
36.4604647529
 30
0.0
 11
114.1598187372
 21
56.4604650509
 31
0.0
  0
LINE
  5
209
330
1F
100
AcDbEntity
  8
0
  6
Continuous
 62
     7
370
    15
100
AcDbLine
 10
114.1598187372
 20
56.4604650509
 30
0.0
 11
103.7598185227
 21
56.4604650509
 31
0.0
  0
LINE
  5
20A
330
1F
100
AcDbEntity
  8
0
  6
Continuous
 62
     7
370
    15
100
AcDbLine
 10
103.7598185227
 20
61.2604650927
 30
0.0
 11
103.7598185227
 21
56.4604650509
 31
0.0
  0
LINE
  5
20B
330
1F
100
AcDbEntity
  8
0
  6
Continuous
 62
     7
370
    15
100
AcDbLine
 10
103.7598185227
 20
61.2604650927
 30
0.0
 11
131.7598178968
 21
61.2604650927
 31
0.0
  0
LINE
  5
20C
330
1F
100
AcDbEntity
  8
0
  6
Continuous
 62
     7
370
    15
100
AcDbLine
 10
131.7598178968
 20
61.2604650927
 30
0.0
 11
131.7598178968
 21
56.4604650509
 31
0.0
  0
LINE
  5
20D
330
1F
100
AcDbEntity
  8
0
  6
Continuous
 62
     7
370
    15
100
AcDbLine
 10
131.7598178968
 20
56.4604650509
 30
0.0
 11
121.3598184273
 21
56.4604650509
 31
0.0
  0
LINE
  5
20E
330
1F
100
AcDbEntity
  8
0
  6
Continuous
 62
     7
370
    15
100
AcDbLine
 10
121.3598184273
 20
56.4604650509
 30
0.0
 11
121.3598184273
 21
36.4604647529
 31
0.0
  0
LINE
  5
20F
330
1F
100
AcDbEntity
  8
0
  6
Continuous
 62
     7
370
    15
100
AcDbLine
 10
121.3598184273
 20
36.4604647529
 30
0.0
 11
131.7598178968
 21
36.4604647529
 31
0.0
  0
LINE
  5
210
330
1F
100
AcDbEntity
  8
0
  6
Continuous
 62
     7
370
    15
100
AcDbLine
 10
131.7598178968
 20
36.4604647529
 30
0.0
 11
131.7598178968
 21
31.6604647112
 31
0.0
  0
CIRCLE
  5
211
330
1F
100
AcDbEntity
  8
0
  6
Continuous
 62
     7
370
    15
100
AcDbCircle
 10
106.7598185525
 20
58.2604649019
 30
0.0
 40
0.9000000000000057
  0
CIRCLE
  5
212
330
1F
100
AcDbEntity
  8
0
  6
Continuous
 62
     7
370
    15
100
AcDbCircle
 10
106.7598185525
 20
34.6604649019
 30
0.0
 40
0.8999999999999915
  0
CIRCLE
  5
213
330
1F
100
AcDbEntity
  8
0
  6
Continuous
 62
     7
370
    15
100
AcDbCircle
 10
128.7598185525
 20
34.6604649019
 30
0.0
 40
0.9000000000000057
  0
CIRCLE
  5
214
330
1F
100
AcDbEntity
  8
0
  6
Continuous
 62
     7
370
    15
100
AcDbCircle
 10
128.7598185525
 20
58.2604649019
 30
0.0
 40
0.9000000000000057
  0
ARC
  5
215
330
1F
100
AcDbEntity
  8
0
  6
Continuous
 62
     7
370
    15
100
AcDbCircle
 10
112.8598185525
 20
37.8904649019
 30
0.0
 40
1.0
100
AcDbArc
 50
270.0
 51
0.0
  0
LINE
  5
216
330
1F
100
AcDbEntity
  8
0
  6
Continuous
 62
     7
370
    15
100
AcDbLine
 10
112.8598185241
 20
36.8904645812
 30
0.0
 11
96.3598191723
 21
36.8904645812
 31
0.0
  0
ARC
  5
217
330
1F
100
AcDbEntity
  8
0
  6
Continuous
 62
     7
370
    15
100
AcDbCircle
 10
96.3598185525
 20
37.8904649019
 30
0.0
 40
1.0
100
AcDbArc
 50
180.0
 51
270.0
  0
LINE
  5
218
330
1F
100
AcDbEntity
  8
0
  6
Continuous
 62
     7
370
    15
100
AcDbLine
 10
95.3598186359
 20
37.8904651177
 30
0.0
 11
95.3598186359
 21
54.3904650283
 31
0.0
  0
ARC
  5
219
330
1F
100
AcDbEntity
  8
0
  6
Continuous
 62
     7
370
    15
100
AcDbCircle
 10
96.3598185525
 20
54.3904649019
 30
0.0
 40
1.0
100
AcDbArc
 50
90.0
 51
180.0
  0
LINE
  5
21A
330
1F
100
AcDbEntity
  8
0
  6
Continuous
 62
     7
370
    15
100
AcDbLine
 10
96.3598191723
 20
55.3904648197
 30
0.0
 11
112.8598185241
 21
55.3904648197
 31
0.0
  0
ARC
  5
21B
330
1F
100
AcDbEntity
  8
0
  6
Continuous
 62
     7
370
    15
100
AcDbCircle
 10
112.8598185525
 20
54.3904649019
 30
0.0
 40
1.0
100
AcDbArc
 50
0.0
 51
90.0
  0
LINE
  5
21C
330
1F
100
AcDbEntity
  8
0
  6
Continuous
 62
     7
370
    15
100
AcDbLine
 10
113.8598185018
 20
54.3904650283
 30
0.0
 11
113.8598185018
 21
37.8904651177
 31
0.0
  0
LINE
  5
21D
330
1F
100
AcDbEntity
  8
0
  6
Continuous
 62
     7
370
    15
100
AcDbLine
 10
94.4198191151
 20
39.5404647362
 30
0.0
 11
95.3598186359
 21
39.5404647362
 31
0.0
  0
LINE
  5
21E
330
1F
100
AcDbEntity
  8
0
  6
Continuous
 62
     7
370
    15
100
AcDbLine
 10
95.4230695948
 20
37.5404651534
 30
0.0
 11
94.4198191151
 21
37.5404651534
 31
0.0
  0
LINE
  5
21F
330
1F
100
AcDbEntity
  8
0
  6
Continuous
 62
     7
370
    15
100
AcDbLine
 10
94.4198191151
 20
37.5404651534
 30
0.0
 11
94.4198191151
 21
39.5404647362
 31
0.0
  0
LINE
  5
220
330
1F
100
AcDbEntity
  8
0
  6
Continuous
 62
     7
370
    15
100
AcDbLine
 10
95.3598186359
 20
54.1792149913
 30
0.0
 11
94.4198191151
 21
54.1792149913
 31
0.0
  0
LINE
  5
221
330
1F
100
AcDbEntity
  8
0
  6
Continuous
 62
     7
370
    15
100
AcDbLine
 10
94.4198191151
 20
39.5404647362
 30
0.0
 11
94.4198191151
 21
54.1792149913
 31
0.0
  0
LINE
  5
222
330
1F
100
AcDbEntity
  8
0
  6
Continuous
 62
     7
370
    15
100
AcDbLine
 10
94.4198191151
 20
55.7409527969
 30
0.0
 11
99.3598185465
 21
55.7409527969
 31
0.0
  0
LINE
  5
223
330
1F
100
AcDbEntity
  8
0
  6
Continuous
 62
     7
370
    15
100
AcDbLine
 10
99.3598185465
 20
55.7409527969
 30
0.0
 11
99.3598185465
 21
55.3904648197
 31
0.0
  0
LINE
  5
224
330
1F
100
AcDbEntity
  8
0
  6
Continuous
 62
     7
370
    15
100
AcDbLine
 10
94.4198191151
 20
54.1792149913
 30
0.0
 11
94.4198191151
 21
55.7409527969
 31
0.0
  0
LINE
  5
225
330
1F
100
AcDbEntity
  8
0
  6
Continuous
 62
     7
370
    15
100
AcDbLine
 10
96.3598191723
 20
31.944281168
 30
0.0
 11
99.3598185465
 21
31.944281168
 31
0.0
  0
LINE
  5
226
330
1F
100
AcDbEntity
  8
0
  6
Continuous
 62
     7
370
    15
100
AcDbLine
 10
107.6542457551
 20
34.760465033
 30
0.0
 11
105.8653913424
 21
34.760465033
 31
0.0
  0
LINE
  5
227
330
1F
100
AcDbEntity
  8
0
  6
Continuous
 62
     7
370
    15
100
AcDbLine
 10
103.7598185227
 20
34.760465033
 30
0.0
 11
96.3598191723
 21
34.760465033
 31
0.0
  0
LINE
  5
228
330
1F
100
AcDbEntity
  8
0
  6
Continuous
 62
     7
370
    15
100
AcDbLine
 10
107.1598187074
 20
31.4828443599
 30
0.0
 11
107.1598187074
 21
31.6604647112
 31
0.0
  0
LINE
  5
229
330
1F
100
AcDbEntity
  8
0
  6
Continuous
 62
     7
370
    15
100
AcDbLine
 10
99.3598185465
 20
31.4828443599
 30
0.0
 11
107.1598187074
 21
31.4828443599
 31
0.0
  0
LINE
  5
22A
330
1F
100
AcDbEntity
  8
0
  6
Continuous
 62
     7
370
    15
100
AcDbLine
 10
99.3598185465
 20
31.944281168
 30
0.0
 11
99.3598185465
 21
31.4828443599
 31
0.0
  0
LINE
  5
22B
330
1F
100
AcDbEntity
  8
0
  6
Continuous
 62
     7
370
    15
100
AcDbLine
 10
96.3598191723
 20
31.944281168
 30
0.0
 11
96.3598191723
 21
34.760465033
 31
0.0
  0
LINE
  5
22C
330
1F
100
AcDbEntity
  8
0
  6
Continuous
 62
     7
370
    15
100
AcDbLine
 10
96.3598191723
 20
36.1404645514
 30
0.0
 11
103.7598185227
 21
36.1404645514
 31
0.0
  0
LINE
  5
22D
330
1F
100
AcDbEntity
  8
0
  6
Continuous
 62
     7
370
    15
100
AcDbLine
 10
96.3598191723
 20
34.760465033
 30
0.0
 11
96.3598191723
 21
36.1404645514
 31
0.0
  0
LINE
  5
22E
330
1F
100
AcDbEntity
  8
0
  6
Continuous
 62
     7
370
    15
100
AcDbLine
 10
99.3598185465
 20
58.7022024465
 30
0.0
 11
94.4198191151
 21
58.7022024465
 31
0.0
  0
LINE
  5
22F
330
1F
100
AcDbEntity
  8
0
  6
Continuous
 62
     7
370
    15
100
AcDbLine
 10
99.3598185465
 20
55.7409527969
 30
0.0
 11
99.3598185465
 21
56.1004649174
 31
0.0
  0
LINE
  5
230
330
1F
100
AcDbEntity
  8
0
  6
Continuous
 62
     7
370
    15
100
AcDbLine
 10
94.4198191151
 20
55.7409527969
 30
0.0
 11
94.4198191151
 21
58.7022024465
 31
0.0
  0
LINE
  5
231
330
1F
100
AcDbEntity
  8
0
  6
Continuous
 62
     7
370
    15
100
AcDbLine
 10
91.8598189935
 20
33.6438837719
 30
0.0
 11
96.3598191723
 21
33.6438837719
 31
0.0
  0
LINE
  5
232
330
1F
100
AcDbEntity
  8
0
  6
Continuous
 62
     7
370
    15
100
AcDbLine
 10
91.8598189935
 20
33.6438837719
 30
0.0
 11
91.8598189935
 21
34.452174164
 31
0.0
  0
LINE
  5
233
330
1F
100
AcDbEntity
  8
0
  6
Continuous
 62
     7
370
    15
100
AcDbLine
 10
91.8598189935
 20
34.452174164
 30
0.0
 11
96.3598191723
 21
34.452174164
 31
0.0
  0
LINE
  5
234
330
1F
100
AcDbEntity
  8
0
  6
Continuous
 62
     7
370
    15
100
AcDbLine
 10
91.8598189935
 20
36.0687549484
 30
0.0
 11
96.3598191723
 21
36.0687549484
 31
0.0
  0
LINE
  5
235
330
1F
100
AcDbEntity
  8
0
  6
Continuous
 62
     7
370
    15
100
AcDbLine
 10
91.8598189935
 20
34.452174164
 30
0.0
 11
91.8598189935
 21
36.0687549484
 31
0.0
  0
LINE
  5
236
330
1F
100
AcDbEntity
  8
0
  6
Continuous
 62
     7
370
    15
100
AcDbLine
 10
91.8598189935
 20
36.8770453405
 30
0.0
 11
96.3598191723
 21
36.8770453405
 31
0.0
  0
LINE
  5
237
330
1F
100
AcDbEntity
  8
0
  6
Continuous
 62
     7
370
    15
100
AcDbLine
 10
96.3598191723
 20
36.1404645514
 30
0.0
 11
96.3598191723
 21
36.2419600856
 31
0.0
  0
LINE
  5
238
330
1F
100
AcDbEntity
  8
0
  6
Continuous
 62
     7
370
    15
100
AcDbLine
 10
91.8598189935
 20
36.0687549484
 30
0.0
 11
91.8598189935
 21
36.8770453405
 31
0.0
  0
LINE
  5
239
330
1F
100
AcDbEntity
  8
0
  6
Continuous
 62
     7
370
    15
100
AcDbLine
 10
110.7598185525
 20
36.4604647529
 30
0.0
 11
110.7598185525
 21
36.8904645812
 31
0.0
  0
LINE
  5
23A
330
1F
100
AcDbEntity
  8
0
  6
Continuous
 62
     7
370
    15
100
AcDbLine
 10
96.3598191723
 20
36.2419600856
 30
0.0
 11
96.3598191723
 21
36.8904645812
 31
0.0
  0
LINE
  5
23B
330
1F
100
AcDbEntity
  8
0
  6
Continuous
 62
     7
370
    15
100
AcDbLine
 10
99.3598185465
 20
56.1004649174
 30
0.0
 11
99.3598185465
 21
60.7604655695
 31
0.0
  0
LINE
  5
23C
330
1F
100
AcDbEntity
  8
0
  6
Continuous
 62
     7
370
    15
100
AcDbLine
 10
110.7598185525
 20
55.3904648197
 30
0.0
 11
110.7598185525
 21
56.4604650509
 31
0.0
  0
LINE
  5
23D
330
1F
100
AcDbEntity
  8
0
  6
Continuous
 62
     7
370
    15
100
AcDbLine
 10
99.3598185465
 20
61.9604650211
 30
0.0
 11
107.1598187074
 21
61.9604650211
 31
0.0
  0
LINE
  5
23E
330
1F
100
AcDbEntity
  8
0
  6
Continuous
 62
     7
370
    15
100
AcDbLine
 10
107.1598187074
 20
61.9604650211
 30
0.0
 11
107.1598187074
 21
61.2604650927
 31
0.0
  0
LINE
  5
23F
330
1F
100
AcDbEntity
  8
0
  6
Continuous
 62
     7
370
    15
100
AcDbLine
 10
99.3598185465
 20
60.7604655695
 30
0.0
 11
99.3598185465
 21
61.9604650211
 31
0.0
  0
LINE
  5
240
330
1F
100
AcDbEntity
  8
0
  6
Continuous
 62
     7
370
    15
100
AcDbLine
 10
96.3598191723
 20
31.4219015908
 30
0.0
 11
96.3598191723
 21
31.944281168
 31
0.0
  0
LINE
  5
241
330
1F
100
AcDbEntity
  8
0
  6
Continuous
 62
     7
370
    15
100
AcDbLine
 10
107.1598187074
 20
30.9604647827
 30
0.0
 11
99.3598185465
 21
30.9604647827
 31
0.0
  0
LINE
  5
242
330
1F
100
AcDbEntity
  8
0
  6
Continuous
 62
     7
370
    15
100
AcDbLine
 10
107.1598187074
 20
31.4828443599
 30
0.0
 11
107.1598187074
 21
30.9604647827
 31
0.0
  0
LINE
  5
243
330
1F
100
AcDbEntity
  8
0
  6
Continuous
 62
     7
370
    15
100
AcDbLine
 10
99.3598185465
 20
30.9604647827
 30
0.0
 11
99.3598185465
 21
31.4828443599
 31
0.0
  0
LINE
  5
244
330
1F
100
AcDbEntity
  8
0
  6
Continuous
 62
     7
370
    15
100
AcDbLine
 10
94.4198191151
 20
36.8770453405
 30
0.0
 11
94.4198191151
 21
37.5404651534
 31
0.0
  0
LINE
  5
245
330
1F
100
AcDbEntity
  8
0
  6
Continuous
 62
     7
370
    15
100
AcDbLine
 10
96.3598191723
 20
33.1404644322
 30
0.0
 11
94.4198191151
 21
33.1404644322
 31
0.0
  0
LINE
  5
246
330
1F
100
AcDbEntity
  8
0
  6
Continuous
 62
     7
370
    15
100
AcDbLine
 10
94.4198191151
 20
33.1404644322
 30
0.0
 11
94.4198191151
 21
33.6438837719
 31
0.0
  0
LINE
  5
247
330
1F
100
AcDbEntity
  8
0
  6
Continuous
 62
     7
370
    15
100
AcDbLine
 10
94.4198191151
 20
59.1404649687
 30
0.0
 11
99.3598185465
 21
59.1404649687
 31
0.0
  0
LINE
  5
248
330
1F
100
AcDbEntity
  8
0
  6
Continuous
 62
     7
370
    15
100
AcDbLine
 10
94.4198191151
 20
58.7022024465
 30
0.0
 11
94.4198191151
 21
59.1404649687
 31
0.0
  0
LINE
  5
249
330
1F
100
AcDbEntity
  8
0
  6
Continuous
 62
     7
370
    15
100
AcDbLine
 10
89.7237882003
 20
34.2604647648
 30
0.0
 11
89.7237882003
 21
38.2604646754
 31
0.0
  0
LINE
  5
24A
330
1F
100
AcDbEntity
  8
0
  6
Continuous
 62
     7
370
    15
100
AcDbLine
 10
89.3598183975
 20
39.2604652119
 30
0.0
 11
89.3598183975
 21
33.2604649734
 31
0.0
  0
LINE
  5
24B
330
1F
100
AcDbEntity
  8
0
  6
Continuous
 62
     7
370
    15
100
AcDbLine
 10
88.7598186717
 20
33.2604649734
 30
0.0
 11
88.7598186717
 21
39.2604652119
 31
0.0
  0
LINE
  5
24C
330
1F
100
AcDbEntity
  8
0
  6
Continuous
 62
     7
370
    15
100
AcDbLine
 10
94.4198191151
 20
59.1404649687
 30
0.0
 11
94.4198191151
 21
61.3404649568
 31
0.0
  0
LINE
  5
24D
330
1F
100
AcDbEntity
  8
0
  6
Continuous
 62
     7
370
    15
100
AcDbLine
 10
147.3598182187
 20
36.4404651594
 30
0.0
 11
131.7598178968
 21
36.4404651594
 31
0.0
  0
LINE
  5
24E
330
1F
100
AcDbEntity
  8
0
  6
Continuous
 62
     7
370
    15
100
AcDbLine
 10
121.3598184273
 20
55.8404649866
 30
0.0
 11
147.3598182187
 21
55.8404649866
 31
0.0
  0
LINE
  5
24F
330
1F
100
AcDbEntity
  8
0
  6
Continuous
 62
     7
370
    15
100
AcDbLine
 10
147.3598182187
 20
55.8404649866
 30
0.0
 11
147.3598182187
 21
36.4404651594
 31
0.0
  0
LINE
  5
250
330
1F
100
AcDbEntity
  8
0
  6
Continuous
 62
     7
370
    15
100
AcDbLine
 10
148.4998196349
 20
43.3404649866
 30
0.0
 11
147.3598182187
 21
43.3404649866
 31
0.0
  0
LINE
  5
251
330
1F
100
AcDbEntity
  8
0
  6
Continuous
 62
     7
370
    15
100
AcDbLine
 10
148.4998196349
 20
41.1404649985
 30
0.0
 11
147.3598182187
 21
41.1404649985
 31
0.0
  0
LINE
  5
252
330
1F
100
AcDbEntity
  8
0
  6
Continuous
 62
     7
370
    15
100
AcDbLine
 10
148.4998196349
 20
43.3404649866
 30
0.0
 11
148.4998196349
 21
41.1404649985
 31
0.0
  0
LINE
  5
253
330
1F
100
AcDbEntity
  8
0
  6
Continuous
 62
     7
370
    15
100
AcDbLine
 10
148.4998196349
 20
48.9404649731
 30
0.0
 11
147.3598182187
 21
48.9404649731
 31
0.0
  0
LINE
  5
254
330
1F
100
AcDbEntity
  8
0
  6
Continuous
 62
     7
370
    15
100
AcDbLine
 10
148.8998174653
 20
48.9404649731
 30
0.0
 11
148.4998196349
 21
48.9404649731
 31
0.0
  0
LINE
  5
255
330
1F
100
AcDbEntity
  8
0
  6
Continuous
 62
     7
370
    15
100
AcDbLine
 10
148.8998174653
 20
48.9404649731
 30
0.0
 11
148.8998174653
 21
43.3404649866
 31
0.0
  0
LINE
  5
256
330
1F
100
AcDbEntity
  8
0
  6
Continuous
 62
     7
370
    15
100
AcDbLine
 10
148.8998174653
 20
43.3404649866
 30
0.0
 11
148.4998196349
 21
43.3404649866
 31
0.0
  0
LINE
  5
257
330
1F
100
AcDbEntity
  8
0
  6
Continuous
 62
     7
370
    15
100
AcDbLine
 10
148.4998196349
 20
51.140464775
 30
0.0
 11
147.3598182187
 21
51.140464775
 31
0.0
  0
LINE
  5
258
330
1F
100
AcDbEntity
  8
0
  6
Continuous
 62
     7
370
    15
100
AcDbLine
 10
148.4998196349
 20
51.140464775
 30
0.0
 11
148.4998196349
 21
48.9404649731
 31
0.0
  0
LINE
  5
259
330
1F
100
AcDbEntity
  8
0
  6
Continuous
 62
     7
370
    15
100
AcDbLine
 10
132.5598180279
 20
56.540464915
 30
0.0
 11
146.959817408
 21
56.540464915
 31
0.0
  0
LINE
  5
25A
330
1F
100
AcDbEntity
  8
0
  6
Continuous
 62
     7
370
    15
100
AcDbLine
 10
146.959817408
 20
56.540464915
 30
0.0
 11
146.959817408
 21
55.8404649866
 31
0.0
  0
LINE
  5
25B
330
1F
100
AcDbEntity
  8
0
  6
Continuous
 62
     7
370
    15
100
AcDbLine
 10
132.5598180279
 20
56.540464915
 30
0.0
 11
132.5598180279
 21
55.8404649866
 31
0.0
  0
LINE
  5
25C
330
1F
100
AcDbEntity
  8
0
  6
Continuous
 62
     7
370
    15
100
AcDbLine
 10
134.9598184213
 20
57.5404647064
 30
0.0
 11
144.5598185048
 21
57.5404647064
 31
0.0
  0
LINE
  5
25D
330
1F
100
AcDbEntity
  8
0
  6
Continuous
 62
     7
370
    15
100
AcDbLine
 10
144.5598185048
 20
57.5404647064
 30
0.0
 11
144.5598185048
 21
56.540464915
 31
0.0
  0
LINE
  5
25E
330
1F
100
AcDbEntity
  8
0
  6
Continuous
 62
     7
370
    15
100
AcDbLine
 10
134.9598184213
 20
57.5404647064
 30
0.0
 11
134.9598184213
 21
56.540464915
 31
0.0
  0
LINE
  5
25F
330
1F
100
AcDbEntity
  8
0
  6
Continuous
 62
     7
370
    15
100
AcDbLine
 10
112.7598185078
 20
36.4604647529
 30
0.0
 11
112.7598185078
 21
36.8904645812
 31
0.0
  0
LINE
  5
260
330
1F
100
AcDbEntity
  8
0
  6
Continuous
 62
     7
370
    15
100
AcDbLine
 10
112.7598185078
 20
55.3904648197
 30
0.0
 11
112.7598185078
 21
56.4604650509
 31
0.0
  0
LINE
  5
261
330
1F
100
AcDbEntity
  8
0
  6
Continuous
 62
     7
370
    15
100
AcDbLine
 10
147.7598190293
 20
41.1434657198
 30
0.0
 11
147.7598190293
 21
34.2404651713
 31
0.0
  0
LINE
  5
262
330
1F
100
AcDbEntity
  8
0
  6
Continuous
 62
     7
370
    15
100
AcDbLine
 10
147.7598190293
 20
58.0404649746
 30
0.0
 11
147.7598190293
 21
51.1374640536
 31
0.0
  0
LINE
  5
263
330
1F
100
AcDbEntity
  8
0
  6
Continuous
 62
     7
370
    15
100
AcDbLine
 10
148.5598176703
 20
35.6404650283
 30
0.0
 11
148.5598176703
 21
43.3404649866
 31
0.0
  0
LINE
  5
264
330
1F
100
AcDbEntity
  8
0
  6
Continuous
 62
     7
370
    15
100
AcDbLine
 10
148.5598176703
 20
48.9404649731
 30
0.0
 11
148.5598176703
 21
56.6404651177
 31
0.0
  0
LINE
  5
265
330
1F
100
AcDbEntity
  8
0
  6
Continuous
 62
     7
370
    15
100
AcDbLine
 10
150.3598183379
 20
36.0404650938
 30
0.0
 11
150.3598183379
 21
56.2404650521
 31
0.0
  0
LINE
  5
266
330
1F
100
AcDbEntity
  8
0
  6
Continuous
 62
     7
370
    15
100
AcDbLine
 10
152.1598190055
 20
41.7404647243
 30
0.0
 11
152.1598190055
 21
50.5404650491
 31
0.0
  0
LINE
  5
267
330
1F
100
AcDbEntity
  8
0
  6
Continuous
 62
     7
370
    15
100
AcDbLine
 10
103.7598185227
 20
60.7604655695
 30
0.0
 11
99.3598185465
 21
60.7604655695
 31
0.0
  0
INSERT
  5
273
330
1F
100
AcDbEntity
  8
中心線
100
AcDbBlockReference
  2
SW_CENTERMARKSYMBOL_3
 10
106.7598185525
 20
58.2604649019
 30
0.0
  0
INSERT
  5
27F
330
1F
100
AcDbEntity
  8
中心線
100
AcDbBlockReference
  2
SW_CENTERMARKSYMBOL_4
 10
128.7598185525
 20
58.2604649019
 30
0.0
  0
INSERT
  5
28B
330
1F
100
AcDbEntity
  8
中心線
100
AcDbBlockReference
  2
SW_CENTERMARKSYMBOL_5
 10
128.7598185525
 20
34.6604649019
 30
0.0
  0
INSERT
  5
297
330
1F
100
AcDbEntity
  8
中心線
100
AcDbBlockReference
  2
SW_CENTERMARKSYMBOL_6
 10
106.7598185525
 20
34.6604649019
 30
0.0
  0
LINE
  5
298
330
1F
100
AcDbEntity
  8
0
  6
Continuous
 62
     7
370
    15
100
AcDbLine
 10
182.4846423574
 20
127.3737126727
 30
0.0
 11
182.4846423574
 21
127.9737109084
 31
0.0
  0
LINE
  5
299
330
1F
100
AcDbEntity
  8
0
  6
Continuous
 62
     7
370
    15
100
AcDbLine
 10
174.4846421637
 20
127.9737109084
 30
0.0
 11
174.4846421637
 21
127.3737126727
 31
0.0
  0
LINE
  5
29A
330
1F
100
AcDbEntity
  8
0
  6
Continuous
 62
     7
370
    15
100
AcDbLine
 10
174.4846421637
 20
127.3737126727
 30
0.0
 11
175.6846416153
 21
127.0521724362
 31
0.0
  0
LINE
  5
29B
330
1F
100
AcDbEntity
  8
0
  6
Continuous
 62
     7
370
    15
100
AcDbLine
 10
181.2846425332
 20
127.0521724362
 30
0.0
 11
182.4846423574
 21
127.3737126727
 31
0.0
  0
LINE
  5
29C
330
1F
100
AcDbEntity
  8
0
  6
Continuous
 62
     7
370
    15
100
AcDbLine
 10
181.2846425332
 20
125.5737120051
 30
0.0
 11
181.2846425332
 21
127.0521724362
 31
0.0
  0
LINE
  5
29D
330
1F
100
AcDbEntity
  8
0
  6
Continuous
 62
     7
370
    15
100
AcDbLine
 10
175.6846416153
 20
127.0521724362
 30
0.0
 11
175.6846416153
 21
125.5737120051
 31
0.0
  0
LINE
  5
29E
330
1F
100
AcDbEntity
  8
0
  6
Continuous
 62
     7
370
    15
100
AcDbLine
 10
178.4846420743
 20
127.3737126727
 30
0.0
 11
174.4846421637
 21
127.3737126727
 31
0.0
  0
LINE
  5
29F
330
1F
100
AcDbEntity
  8
0
  6
Continuous
 62
     7
370
    15
100
AcDbLine
 10
182.4846423574
 20
127.3737126727
 30
0.0
 11
178.4846420743
 21
127.3737126727
 31
0.0
  0
LINE
  5
2A0
330
1F
100
AcDbEntity
  8
0
  6
Continuous
 62
     7
370
    15
100
AcDbLine
 10
178.4846420743
 20
127.9737109084
 30
0.0
 11
174.4846421637
 21
127.9737109084
 31
0.0
  0
LINE
  5
2A1
330
1F
100
AcDbEntity
  8
0
  6
Continuous
 62
     7
370
    15
100
AcDbLine
 10
182.4846423574
 20
127.9737109084
 30
0.0
 11
178.4846420743
 21
127.9737109084
 31
0.0
  0
LINE
  5
2A2
330
1F
100
AcDbEntity
  8
0
  6
Continuous
 62
     7
370
    15
100
AcDbLine
 10
178.4846420743
 20
127.0521724362
 30
0.0
 11
175.6846416153
 21
127.0521724362
 31
0.0
  0
LINE
  5
2A3
330
1F
100
AcDbEntity
  8
0
  6
Continuous
 62
     7
370
    15
100
AcDbLine
 10
181.2846425332
 20
127.0521724362
 30
0.0
 11
178.4846420743
 21
127.0521724362
 31
0.0
  0
LINE
  5
2A4
330
1F
100
AcDbEntity
  8
0
  6
Continuous
 62
     7
370
    15
100
AcDbLine
 10
203.284642414
 20
100.5737120051
 30
0.0
 11
202.5846424855
 21
100.5737120051
 31
0.0
  0
LINE
  5
2A5
330
1F
100
AcDbEntity
  8
0
  6
Continuous
 62
     7
370
    15
100
AcDbLine
 10
203.284642414
 20
100.5737120051
 30
0.0
 11
203.284642414
 21
83.5737112675
 31
0.0
  0
LINE
  5
2A6
330
1F
100
AcDbEntity
  8
0
  6
Continuous
 62
     7
370
    15
100
AcDbLine
 10
203.284642414
 20
83.5737112675
 30
0.0
 11
202.5846424855
 21
83.5737112675
 31
0.0
  0
LINE
  5
2A7
330
1F
100
AcDbEntity
  8
0
  6
Continuous
 62
     7
370
    15
100
AcDbLine
 10
202.5846424855
 20
100.5737120051
 30
0.0
 11
202.5846424855
 21
83.5737112675
 31
0.0
  0
LINE
  5
2A8
330
1F
100
AcDbEntity
  8
0
  6
Continuous
 62
     7
370
    15
100
AcDbLine
 10
202.5846424855
 20
83.5737112675
 30
0.0
 11
202.5846424855
 21
83.2137112737
 31
0.0
  0
LINE
  5
2A9
330
1F
100
AcDbEntity
  8
0
  6
Continuous
 62
     7
370
    15
100
AcDbLine
 10
198.4846423723
 20
83.2137112737
 30
0.0
 11
198.4846423723
 21
82.5737112899
 31
0.0
  0
LINE
  5
2AA
330
1F
100
AcDbEntity
  8
0
  6
Continuous
 62
     7
370
    15
100
AcDbLine
 10
202.5846424855
 20
83.2137112737
 30
0.0
 11
198.4846423723
 21
83.2137112737
 31
0.0
  0
LINE
  5
2AB
330
1F
100
AcDbEntity
  8
0
  6
Continuous
 62
     7
370
    15
100
AcDbLine
 10
203.284642414
 20
83.5737112675
 30
0.0
 11
203.284642414
 21
82.5737112899
 31
0.0
  0
LINE
  5
2AC
330
1F
100
AcDbEntity
  8
0
  6
Continuous
 62
     7
370
    15
100
AcDbLine
 10
198.4846423723
 20
82.5737112899
 30
0.0
 11
203.284642414
 21
82.5737112899
 31
0.0
  0
LINE
  5
2AD
330
1F
100
AcDbEntity
  8
0
  6
Continuous
 62
     7
370
    15
100
AcDbLine
 10
173.6846420325
 20
82.5737112899
 30
0.0
 11
173.6846420325
 21
83.5737112675
 31
0.0
  0
LINE
  5
2AE
330
1F
100
AcDbEntity
  8
0
  6
Continuous
 62
     7
370
    15
100
AcDbLine
 10
173.6846420325
 20
83.5737112675
 30
0.0
 11
174.384641961
 21
83.5737112675
 31
0.0
  0
LINE
  5
2AF
330
1F
100
AcDbEntity
  8
0
  6
Continuous
 62
     7
370
    15
100
AcDbLine
 10
174.384641961
 20
83.2137112737
 30
0.0
 11
174.384641961
 21
83.5737112675
 31
0.0
  0
LINE
  5
2B0
330
1F
100
AcDbEntity
  8
0
  6
Continuous
 62
     7
370
    15
100
AcDbLine
 10
178.4846420743
 20
83.2137112737
 30
0.0
 11
178.4846420743
 21
82.5737112899
 31
0.0
  0
LINE
  5
2B1
330
1F
100
AcDbEntity
  8
0
  6
Continuous
 62
     7
370
    15
100
AcDbLine
 10
178.4846420743
 20
83.2137112737
 30
0.0
 11
174.384641961
 21
83.2137112737
 31
0.0
  0
LINE
  5
2B2
330
1F
100
AcDbEntity
  8
0
  6
Continuous
 62
     7
370
    15
100
AcDbLine
 10
173.6846420325
 20
82.5737112899
 30
0.0
 11
178.4846420743
 21
82.5737112899
 31
0.0
  0
LINE
  5
2B3
330
1F
100
AcDbEntity
  8
0
  6
Continuous
 62
     7
370
    15
100
AcDbLine
 10
173.6846420325
 20
83.5737112675
 30
0.0
 11
173.6846420325
 21
100.5737120051
 31
0.0
  0
LINE
  5
2B4
330
1F
100
AcDbEntity
  8
0
  6
Continuous
 62
     7
370
    15
100
AcDbLine
 10
173.6846420325
 20
100.5737120051
 30
0.0
 11
174.384641961
 21
100.5737120051
 31
0.0
  0
LINE
  5
2B5
330
1F
100
AcDbEntity
  8
0
  6
Continuous
 62
     7
370
    15
100
AcDbLine
 10
174.384641961
 20
83.5737112675
 30
0.0
 11
174.384641961
 21
100.5737120051
 31
0.0
  0
LINE
  5
2B6
330
1F
100
AcDbEntity
  8
0
  6
Continuous
 62
     7
370
    15
100
AcDbLine
 10
198.4846423723
 20
83.2137112737
 30
0.0
 11
178.4846420743
 21
83.2137112737
 31
0.0
  0
LINE
  5
2B7
330
1F
100
AcDbEntity
  8
0
  6
Continuous
 62
     7
370
    15
100
AcDbLine
 10
178.4846420743
 20
82.5737112899
 30
0.0
 11
198.4846423723
 21
82.5737112899
 31
0.0
  0
LINE
  5
2B8
330
1F
100
AcDbEntity
  8
0
  6
Continuous
 62
     7
370
    15
100
AcDbLine
 10
198.054642544
 20
86.3737111677
 30
0.0
 11
198.054642544
 21
83.6377112892
 31
0.0
  0
LINE
  5
2B9
330
1F
100
AcDbEntity
  8
0
  6
Continuous
 62
     7
370
    15
100
AcDbLine
 10
198.054642544
 20
83.6377112892
 30
0.0
 11
197.0546420075
 21
83.6377112892
 31
0.0
  0
LINE
  5
2BA
330
1F
100
AcDbEntity
  8
0
  6
Continuous
 62
     7
370
    15
100
AcDbLine
 10
180.5546420969
 20
83.6377112892
 30
0.0
 11
197.0546420075
 21
83.6377112892
 31
0.0
  0
LINE
  5
2BB
330
1F
100
AcDbEntity
  8
0
  6
Continuous
 62
     7
370
    15
100
AcDbLine
 10
179.5546423055
 20
83.6377112892
 30
0.0
 11
179.5546423055
 21
86.3737111677
 31
0.0
  0
LINE
  5
2BC
330
1F
100
AcDbEntity
  8
0
  6
Continuous
 62
     7
370
    15
100
AcDbLine
 10
180.5546420969
 20
83.6377112892
 30
0.0
 11
179.5546423055
 21
83.6377112892
 31
0.0
  0
LINE
  5
2BD
330
1F
100
AcDbEntity
  8
0
  6
Continuous
 62
     7
370
    15
100
AcDbLine
 10
179.1046421386
 20
89.9737113852
 30
0.0
 11
174.384641961
 21
89.9737113852
 31
0.0
  0
LINE
  5
2BE
330
1F
100
AcDbEntity
  8
0
  6
Continuous
 62
     7
370
    15
100
AcDbLine
 10
174.384641961
 20
100.5737120051
 30
0.0
 11
174.384641961
 21
101.3737106461
 31
0.0
  0
LINE
  5
2BF
330
1F
100
AcDbEntity
  8
0
  6
Continuous
 62
     7
370
    15
100
AcDbLine
 10
174.384641961
 20
101.3737106461
 30
0.0
 11
174.0846428432
 21
101.3737106461
 31
0.0
  0
LINE
  5
2C0
330
1F
100
AcDbEntity
  8
0
  6
Continuous
 62
     7
370
    15
100
AcDbLine
 10
174.0846428432
 20
101.3737106461
 30
0.0
 11
174.0846428432
 21
122.9737126965
 31
0.0
  0
ARC
  5
2C1
330
1F
100
AcDbEntity
  8
0
  6
Continuous
 62
     7
370
    15
100
AcDbCircle
 10
174.6846422233
 20
122.9737112899
 30
0.0
 40
0.5999999999999943
100
AcDbArc
 50
90.0
 51
180.0
  0
LINE
  5
2C2
330
1F
100
AcDbEntity
  8
0
  6
Continuous
 62
     7
370
    15
100
AcDbLine
 10
174.684642569
 20
123.5737109322
 30
0.0
 11
182.2846423246
 21
123.5737109322
 31
0.0
  0
LINE
  5
2C3
330
1F
100
AcDbEntity
  8
0
  6
Continuous
 62
     7
370
    15
100
AcDbLine
 10
182.2846423246
 20
123.5737109322
 30
0.0
 11
182.2846423246
 21
123.9737117429
 31
0.0
  0
ARC
  5
2C4
330
1F
100
AcDbEntity
  8
0
  6
Continuous
 62
     7
370
    15
100
AcDbCircle
 10
182.8846422233
 20
123.9737112899
 30
0.0
 40
0.5999999999999943
100
AcDbArc
 50
90.0
 51
180.0
  0
LINE
  5
2C5
330
1F
100
AcDbEntity
  8
0
  6
Continuous
 62
     7
370
    15
100
AcDbLine
 10
182.8846420504
 20
124.5737099786
 30
0.0
 11
194.7846423246
 21
124.5737099786
 31
0.0
  0
ARC
  5
2C6
330
1F
100
AcDbEntity
  8
0
  6
Continuous
 62
     7
370
    15
100
AcDbCircle
 10
194.7846422233
 20
123.9737112899
 30
0.0
 40
0.6000000000000227
100
AcDbArc
 50
0.0
 51
90.0
  0
LINE
  5
2C7
330
1F
100
AcDbEntity
  8
0
  6
Continuous
 62
     7
370
    15
100
AcDbLine
 10
195.3846420504
 20
123.9737117429
 30
0.0
 11
195.3846420504
 21
123.5737109322
 31
0.0
  0
LINE
  5
2C8
330
1F
100
AcDbEntity
  8
0
  6
Continuous
 62
     7
370
    15
100
AcDbLine
 10
195.3846420504
 20
123.5737109322
 30
0.0
 11
202.2846418776
 21
123.5737109322
 31
0.0
  0
LINE
  5
2C9
330
1F
100
AcDbEntity
  8
0
  6
Continuous
 62
     7
370
    15
100
AcDbLine
 10
202.8846416034
 20
122.9737126965
 30
0.0
 11
202.8846416034
 21
101.3737106461
 31
0.0
  0
LINE
  5
2CA
330
1F
100
AcDbEntity
  8
0
  6
Continuous
 62
     7
370
    15
100
AcDbLine
 10
202.5846424855
 20
101.3737106461
 30
0.0
 11
202.5846424855
 21
100.5737120051
 31
0.0
  0
LINE
  5
2CB
330
1F
100
AcDbEntity
  8
0
  6
Continuous
 62
     7
370
    15
100
AcDbLine
 10
200.1846420921
 20
88.9737115939
 30
0.0
 11
199.8046423651
 21
88.9737115939
 31
0.0
  0
LINE
  5
2CC
330
1F
100
AcDbEntity
  8
0
  6
Continuous
 62
     7
370
    15
100
AcDbLine
 10
199.8046423651
 20
89.9737113852
 30
0.0
 11
199.8046423651
 21
88.9737115939
 31
0.0
  0
LINE
  5
2CD
330
1F
100
AcDbEntity
  8
0
  6
Continuous
 62
     7
370
    15
100
AcDbLine
 10
199.8046423651
 20
89.9737113852
 30
0.0
 11
198.5046419658
 21
89.9737113852
 31
0.0
  0
ARC
  5
2CE
330
1F
100
AcDbEntity
  8
0
  6
Continuous
 62
     7
370
    15
100
AcDbCircle
 10
202.2846422233
 20
122.9737112899
 30
0.0
 40
0.5999999999999943
100
AcDbArc
 50
0.0
 51
90.0
  0
LINE
  5
2CF
330
1F
100
AcDbEntity
  8
0
  6
Continuous
 62
     7
370
    15
100
AcDbLine
 10
202.8846416034
 20
101.3737106461
 30
0.0
 11
202.5846424855
 21
101.3737106461
 31
0.0
  0
LINE
  5
2D0
330
1F
100
AcDbEntity
  8
0
  6
Continuous
 62
     7
370
    15
100
AcDbLine
 10
202.5846424855
 20
90.6158165772
 30
0.0
 11
200.1846420921
 21
88.9737115939
 31
0.0
  0
LINE
  5
2D1
330
1F
100
AcDbEntity
  8
0
  6
Continuous
 62
     7
370
    15
100
AcDbLine
 10
198.8046425738
 20
88.9737115939
 30
0.0
 11
198.8046425738
 21
89.9737113852
 31
0.0
  0
LINE
  5
2D2
330
1F
100
AcDbEntity
  8
0
  6
Continuous
 62
     7
370
    15
100
AcDbLine
 10
199.8046423651
 20
88.9737115939
 30
0.0
 11
198.8046425738
 21
88.9737115939
 31
0.0
  0
ARC
  5
2D3
330
1F
100
AcDbEntity
  8
0
  6
Continuous
 62
     7
370
    15
100
AcDbCircle
 10
174.1846422233
 20
91.1737112899
 30
0.0
 40
1.200000000000017
100
AcDbArc
 50
180.0
 51
245.3756816478
  0
LINE
  5
2D4
330
1F
100
AcDbEntity
  8
0
  6
Continuous
 62
     7
370
    15
100
AcDbLine
 10
172.9846421041
 20
124.3737125535
 30
0.0
 11
172.9846421041
 21
91.1737115819
 31
0.0
  0
ARC
  5
2D5
330
1F
100
AcDbEntity
  8
0
  6
Continuous
 62
     7
370
    15
100
AcDbCircle
 10
174.1846422233
 20
124.3737112899
 30
0.0
 40
1.200000000000017
100
AcDbArc
 50
90.0
 51
180.0
  0
LINE
  5
2D6
330
1F
100
AcDbEntity
  8
0
  6
Continuous
 62
     7
370
    15
100
AcDbLine
 10
174.1846415557
 20
125.5737120051
 30
0.0
 11
181.9966423668
 21
125.5737120051
 31
0.0
  0
LINE
  5
2D7
330
1F
100
AcDbEntity
  8
0
  6
Continuous
 62
     7
370
    15
100
AcDbLine
 10
181.9966423668
 20
125.5737120051
 30
0.0
 11
181.9966423668
 21
125.273709907
 31
0.0
  0
LINE
  5
2D8
330
1F
100
AcDbEntity
  8
0
  6
Continuous
 62
     7
370
    15
100
AcDbLine
 10
181.9966423668
 20
125.273709907
 30
0.0
 11
194.5846422918
 21
125.273709907
 31
0.0
  0
LINE
  5
2D9
330
1F
100
AcDbEntity
  8
0
  6
Continuous
 62
     7
370
    15
100
AcDbLine
 10
194.5846422918
 20
125.273709907
 30
0.0
 11
194.5846422918
 21
125.9737098355
 31
0.0
  0
LINE
  5
2DA
330
1F
100
AcDbEntity
  8
0
  6
Continuous
 62
     7
370
    15
100
AcDbLine
 10
202.7846428909
 20
125.9737098355
 30
0.0
 11
194.5846422918
 21
125.9737098355
 31
0.0
  0
ARC
  5
2DB
330
1F
100
AcDbEntity
  8
0
  6
Continuous
 62
     7
370
    15
100
AcDbCircle
 10
202.7846422233
 20
124.7737112899
 30
0.0
 40
1.200000000000017
100
AcDbArc
 50
0.0
 51
90.0
  0
LINE
  5
2DC
330
1F
100
AcDbEntity
  8
0
  6
Continuous
 62
     7
370
    15
100
AcDbLine
 10
203.9846423425
 20
92.2066623111
 30
0.0
 11
203.9846423425
 21
124.7737103839
 31
0.0
  0
ARC
  5
2DD
330
1F
100
AcDbEntity
  8
0
  6
Continuous
 62
     7
370
    15
100
AcDbCircle
 10
202.7846422233
 20
92.2066625867
 30
0.0
 40
1.2
100
AcDbArc
 50
304.3803447238
 51
0.0
  0
LINE
  5
2DE
330
1F
100
AcDbEntity
  8
0
  6
Continuous
 62
     7
370
    15
100
AcDbLine
 10
203.4622627653
 20
91.2162938852
 30
0.0
 11
203.284642414
 21
91.0947637398
 31
0.0
  0
LINE
  5
2DF
330
1F
100
AcDbEntity
  8
0
  6
Continuous
 62
     7
370
    15
100
AcDbLine
 10
179.1046421386
 20
89.6487110991
 30
0.0
 11
178.8446422078
 21
89.9737113852
 31
0.0
  0
LINE
  5
2E0
330
1F
100
AcDbEntity
  8
0
  6
Continuous
 62
     7
370
    15
100
AcDbLine
 10
198.8046425738
 20
89.7979156811
 30
0.0
 11
198.7031470396
 21
89.9737113852
 31
0.0
  0
CIRCLE
  5
2E1
330
1F
100
AcDbEntity
  8
0
  6
Continuous
 62
     7
370
    15
100
AcDbCircle
 10
188.8046422233
 20
109.3737112899
 30
0.0
 40
4.400000000000006
  0
CIRCLE
  5
2E2
330
1F
100
AcDbEntity
  8
0
  6
Continuous
 62
     7
370
    15
100
AcDbCircle
 10
188.8046422233
 20
109.3737112899
 30
0.0
 40
10.10000000000005
  0
LINE
  5
2E3
330
1F
100
AcDbEntity
  8
0
  6
Continuous
 62
     7
370
    15
100
AcDbLine
 10
191.6046421386
 20
92.273711576
 30
0.0
 11
186.0046421521
 21
92.273711576
 31
0.0
  0
LINE
  5
2E4
330
1F
100
AcDbEntity
  8
0
  6
Continuous
 62
     7
370
    15
100
AcDbLine
 10
186.0046421521
 20
87.8737112273
 30
0.0
 11
191.6046421386
 21
87.8737112273
 31
0.0
  0
LINE
  5
2E5
330
1F
100
AcDbEntity
  8
0
  6
Continuous
 62
     7
370
    15
100
AcDbLine
 10
186.0046421521
 20
92.273711576
 30
0.0
 11
186.0046421521
 21
87.8737112273
 31
0.0
  0
LINE
  5
2E6
330
1F
100
AcDbEntity
  8
0
  6
Continuous
 62
     7
370
    15
100
AcDbLine
 10
191.2346422084
 20
88.4437111903
 30
0.0
 11
191.2346422084
 21
90.7737115164
 31
0.0
  0
LINE
  5
2E7
330
1F
100
AcDbEntity
  8
0
  6
Continuous
 62
     7
370
    15
100
AcDbLine
 10
190.3046422981
 20
91.7037116129
 30
0.0
 11
187.3046421789
 21
91.7037116129
 31
0.0
  0
LINE
  5
2E8
330
1F
100
AcDbEntity
  8
0
  6
Continuous
 62
     7
370
    15
100
AcDbLine
 10
187.3046421789
 20
91.7037116129
 30
0.0
 11
186.3746422686
 21
90.7737115164
 31
0.0
  0
LINE
  5
2E9
330
1F
100
AcDbEntity
  8
0
  6
Continuous
 62
     7
370
    15
100
AcDbLine
 10
186.3746422686
 20
90.7737115164
 30
0.0
 11
186.3746422686
 21
88.4437111903
 31
0.0
  0
LINE
  5
2EA
330
1F
100
AcDbEntity
  8
0
  6
Continuous
 62
     7
370
    15
100
AcDbLine
 10
191.6046421386
 20
87.8737112273
 30
0.0
 11
191.6046421386
 21
92.273711576
 31
0.0
  0
LINE
  5
2EB
330
1F
100
AcDbEntity
  8
0
  6
Continuous
 62
     7
370
    15
100
AcDbLine
 10
191.2346422084
 20
90.7737115164
 30
0.0
 11
190.3046422981
 21
91.7037116129
 31
0.0
  0
LINE
  5
2EC
330
1F
100
AcDbEntity
  8
0
  6
Continuous
 62
     7
370
    15
100
AcDbLine
 10
186.3746422686
 20
88.4437111903
 30
0.0
 11
191.2346422084
 21
88.4437111903
 31
0.0
  0
CIRCLE
  5
2ED
330
1F
100
AcDbEntity
  8
0
  6
Continuous
 62
     7
370
    15
100
AcDbCircle
 10
188.8046422233
 20
109.3737112899
 30
0.0
 40
10.50000000000003
  0
LINE
  5
2EE
330
1F
100
AcDbEntity
  8
0
  6
Continuous
 62
     7
370
    15
100
AcDbLine
 10
193.8046421267
 20
90.0737115879
 30
0.0
 11
191.6046421386
 21
92.273711576
 31
0.0
  0
LINE
  5
2EF
330
1F
100
AcDbEntity
  8
0
  6
Continuous
 62
     7
370
    15
100
AcDbLine
 10
191.6046421386
 20
87.8737112273
 30
0.0
 11
193.8046421267
 21
90.0737115879
 31
0.0
  0
LINE
  5
2F0
330
1F
100
AcDbEntity
  8
0
  6
Continuous
 62
     7
370
    15
100
AcDbLine
 10
183.8046423502
 20
90.0737115879
 30
0.0
 11
186.0046421521
 21
87.8737112273
 31
0.0
  0
LINE
  5
2F1
330
1F
100
AcDbEntity
  8
0
  6
Continuous
 62
     7
370
    15
100
AcDbLine
 10
186.0046421521
 20
92.273711576
 30
0.0
 11
183.8046423502
 21
90.0737115879
 31
0.0
  0
ARC
  5
2F2
330
1F
100
AcDbEntity
  8
0
  6
Continuous
 62
     7
370
    15
100
AcDbCircle
 10
188.8046422233
 20
109.3737112899
 30
0.0
 40
11.90000000000001
100
AcDbArc
 50
294.8292774336
 51
245.1707225664
  0
LINE
  5
2F3
330
1F
100
AcDbEntity
  8
0
  6
Continuous
 62
     7
370
    15
100
AcDbLine
 10
193.8016414054
 20
98.5737109322
 30
0.0
 11
183.8076430716
 21
98.5737109322
 31
0.0
  0
LINE
  5
2F4
330
1F
100
AcDbEntity
  8
0
  6
Continuous
 62
     7
370
    15
100
AcDbLine
 10
183.8076430716
 20
98.5737109322
 30
0.0
 11
179.1046421386
 21
98.5737109322
 31
0.0
  0
LINE
  5
2F5
330
1F
100
AcDbEntity
  8
0
  6
Continuous
 62
     7
370
    15
100
AcDbLine
 10
198.5046419658
 20
98.5737109322
 30
0.0
 11
193.8016414054
 21
98.5737109322
 31
0.0
  0
LINE
  5
2F6
330
1F
100
AcDbEntity
  8
0
  6
Continuous
 62
     7
370
    15
100
AcDbLine
 10
179.1046421386
 20
86.3737111677
 30
0.0
 11
198.5046419658
 21
86.3737111677
 31
0.0
  0
LINE
  5
2F7
330
1F
100
AcDbEntity
  8
0
  6
Continuous
 62
     7
370
    15
100
AcDbLine
 10
179.1046421386
 20
86.3737111677
 30
0.0
 11
179.1046421386
 21
98.5737109322
 31
0.0
  0
LINE
  5
2F8
330
1F
100
AcDbEntity
  8
0
  6
Continuous
 62
     7
370
    15
100
AcDbLine
 10
198.5046419658
 20
86.3737111677
 30
0.0
 11
198.5046419658
 21
98.5737109322
 31
0.0
  0
LINE
  5
2F9
330
1F
100
AcDbEntity
  8
0
  6
Continuous
 62
     7
370
    15
100
AcDbLine
 10
178.4046422102
 20
91.5737116475
 30
0.0
 11
179.1046421386
 21
91.5737116475
 31
0.0
  0
LINE
  5
2FA
330
1F
100
AcDbEntity
  8
0
  6
Continuous
 62
     7
370
    15
100
AcDbLine
 10
178.4046422102
 20
91.5737116475
 30
0.0
 11
178.4046422102
 21
97.5737118859
 31
0.0
  0
LINE
  5
2FB
330
1F
100
AcDbEntity
  8
0
  6
Continuous
 62
     7
370
    15
100
AcDbLine
 10
178.4046422102
 20
97.5737118859
 30
0.0
 11
179.1046421386
 21
97.5737118859
 31
0.0
  0
LINE
  5
2FC
330
1F
100
AcDbEntity
  8
0
  6
Continuous
 62
     7
370
    15
100
AcDbLine
 10
177.4046424188
 20
92.1737113733
 30
0.0
 11
178.4046422102
 21
92.1737113733
 31
0.0
  0
LINE
  5
2FD
330
1F
100
AcDbEntity
  8
0
  6
Continuous
 62
     7
370
    15
100
AcDbLine
 10
177.4046424188
 20
92.1737113733
 30
0.0
 11
177.4046424188
 21
96.97371067
 31
0.0
  0
LINE
  5
2FE
330
1F
100
AcDbEntity
  8
0
  6
Continuous
 62
     7
370
    15
100
AcDbLine
 10
177.4046424188
 20
96.97371067
 30
0.0
 11
178.4046422102
 21
96.97371067
 31
0.0
  0
ARC
  5
2FF
330
1F
100
AcDbEntity
  8
0
  6
Continuous
 62
     7
370
    15
100
AcDbCircle
 10
188.8046422233
 20
109.3737112899
 30
0.0
 40
12.89999999999999
100
AcDbArc
 50
303.1534084156
 51
180.0
  0
ARC
  5
300
330
1F
100
AcDbEntity
  8
0
  6
Continuous
 62
     7
370
    15
100
AcDbCircle
 10
188.8046422233
 20
109.3737112899
 30
0.0
 40
12.89999999999999
100
AcDbArc
 50
180.0
 51
236.8465915844
  0
LINE
  5
301
330
1F
100
AcDbEntity
  8
0
  6
Continuous
 62
     7
370
    15
100
AcDbLine
 10
202.8046417393
 20
116.4793425937
 30
0.0
 11
202.8046417393
 21
102.2680798311
 31
0.0
  0
ARC
  5
302
330
1F
100
AcDbEntity
  8
0
  6
Continuous
 62
     7
370
    15
100
AcDbCircle
 10
188.8046422233
 20
109.3737112899
 30
0.0
 40
15.70000000000002
100
AcDbArc
 50
308.1581624079
 51
333.0901511492
  0
ARC
  5
303
330
1F
100
AcDbEntity
  8
0
  6
Continuous
 62
     7
370
    15
100
AcDbCircle
 10
188.8046422233
 20
109.3737112899
 30
0.0
 40
15.7
100
AcDbArc
 50
206.9098488508
 51
228.7285016397
  0
LINE
  5
304
330
1F
100
AcDbEntity
  8
0
  6
Continuous
 62
     7
370
    15
100
AcDbLine
 10
174.8046416201
 20
102.2680798311
 30
0.0
 11
174.8046416201
 21
116.4793425937
 31
0.0
  0
ARC
  5
305
330
1F
100
AcDbEntity
  8
0
  6
Continuous
 62
     7
370
    15
100
AcDbCircle
 10
188.8046422233
 20
109.3737112899
 30
0.0
 40
15.69999999999999
100
AcDbArc
 50
146.2857457296
 51
153.0901511492
  0
ARC
  5
306
330
1F
100
AcDbEntity
  8
0
  6
Continuous
 62
     7
370
    15
100
AcDbCircle
 10
175.2460404453
 20
118.4210488997
 30
0.0
 40
0.6000000000000051
100
AcDbArc
 50
326.2857457297
 51
44.8906227748
  0
ARC
  5
307
330
1F
100
AcDbEntity
  8
0
  6
Continuous
 62
     7
370
    15
100
AcDbCircle
 10
176.8046422233
 20
119.9737112899
 30
0.0
 40
1.600000000000003
100
AcDbArc
 50
52.1989101363
 51
224.8906227748
  0
ARC
  5
308
330
1F
100
AcDbEntity
  8
0
  6
Continuous
 62
     7
370
    15
100
AcDbCircle
 10
178.1530708073
 20
121.712026668
 30
0.0
 40
0.6000000000000197
100
AcDbArc
 50
232.1989101363
 51
310.8037871815
  0
ARC
  5
309
330
1F
100
AcDbEntity
  8
0
  6
Continuous
 62
     7
370
    15
100
AcDbCircle
 10
188.8046422233
 20
109.3737112899
 30
0.0
 40
15.70000000000001
100
AcDbArc
 50
116.9098488508
 51
130.8037871815
  0
LINE
  5
30A
330
1F
100
AcDbEntity
  8
0
  6
Continuous
 62
     7
370
    15
100
AcDbLine
 10
181.6990102984
 20
123.3737105269
 30
0.0
 11
195.910273806
 21
123.3737105269
 31
0.0
  0
ARC
  5
30B
330
1F
100
AcDbEntity
  8
0
  6
Continuous
 62
     7
370
    15
100
AcDbCircle
 10
188.8046422233
 20
109.3737112899
 30
0.0
 40
15.70000000000002
100
AcDbArc
 50
49.1962128185
 51
63.0901511492
  0
ARC
  5
30C
330
1F
100
AcDbEntity
  8
0
  6
Continuous
 62
     7
370
    15
100
AcDbCircle
 10
199.4562136393
 20
121.712026668
 30
0.0
 40
0.6000000000000142
100
AcDbArc
 50
229.1962128185
 51
307.8010898637
  0
ARC
  5
30D
330
1F
100
AcDbEntity
  8
0
  6
Continuous
 62
     7
370
    15
100
AcDbCircle
 10
200.8046422233
 20
119.9737112899
 30
0.0
 40
1.599999999999991
100
AcDbArc
 50
315.1093772252
 51
127.8010898637
  0
ARC
  5
30E
330
1F
100
AcDbEntity
  8
0
  6
Continuous
 62
     7
370
    15
100
AcDbCircle
 10
202.3632440012
 20
118.4210488997
 30
0.0
 40
0.6000000000000051
100
AcDbArc
 50
135.1093772252
 51
213.7142542704
  0
ARC
  5
30F
330
1F
100
AcDbEntity
  8
0
  6
Continuous
 62
     7
370
    15
100
AcDbCircle
 10
188.8046422233
 20
109.3737112899
 30
0.0
 40
15.70000000000003
100
AcDbArc
 50
26.9098488508
 51
33.7142542704
  0
CIRCLE
  5
310
330
1F
100
AcDbEntity
  8
0
  6
Continuous
 62
     7
370
    15
100
AcDbCircle
 10
200.8046422233
 20
119.9737112899
 30
0.0
 40
0.6799999999999784
  0
CIRCLE
  5
311
330
1F
100
AcDbEntity
  8
0
  6
Continuous
 62
     7
370
    15
100
AcDbCircle
 10
176.8046422233
 20
119.9737112899
 30
0.0
 40
0.6799999999999784
  0
LINE
  5
312
330
1F
100
AcDbEntity
  8
0
  6
Continuous
 62
     7
370
    15
100
AcDbLine
 10
197.0546420075
 20
83.6377112892
 30
0.0
 11
197.0546420075
 21
86.3737111677
 31
0.0
  0
LINE
  5
313
330
1F
100
AcDbEntity
  8
0
  6
Continuous
 62
     7
370
    15
100
AcDbLine
 10
180.5546420969
 20
86.3737111677
 30
0.0
 11
180.5546420969
 21
83.6377112892
 31
0.0
  0
ENDSEC
  0
SECTION
  2
OBJECTS
  0
DICTIONARY
  5
C
330
0
100
AcDbDictionary
281
     1
  3
ACAD_GROUP
350
D
  3
ACAD_LAYOUT
350
1A
  3
ACAD_MLINESTYLE
350
17
  3
ACAD_PLOTSETTINGS
350
19
  3
ACAD_PLOTSTYLENAME
350
E
  0
DICTIONARY
  5
D
102
{ACAD_REACTORS
330
C
102
}
330
C
100
AcDbDictionary
281
     1
  0
DICTIONARY
  5
1A
102
{ACAD_REACTORS
330
C
102
}
330
C
100
AcDbDictionary
281
     1
  3
Layout1
350
1E
  3
Layout2
350
26
  3
Model
350
22
  0
DICTIONARY
  5
17
102
{ACAD_REACTORS
330
C
102
}
330
C
100
AcDbDictionary
281
     1
  3
Standard
350
18
  0
DICTIONARY
  5
19
102
{ACAD_REACTORS
330
C
102
}
330
C
100
AcDbDictionary
281
     1
  0
ACDBDICTIONARYWDFLT
  5
E
102
{ACAD_REACTORS
330
C
102
}
330
C
100
AcDbDictionary
281
     1
  3
Normal
350
F
100
AcDbDictionaryWithDefault
340
F
  0
LAYOUT
  5
1E
102
{ACAD_REACTORS
330
1A
102
}
330
1A
100
AcDbPlotSettings
  1

  2
none_device
  4

  6

 40
0.0
 41
0.0
 42
0.0
 43
0.0
 44
0.0
 45
0.0
 46
0.0
 47
0.0
 48
0.0
 49
0.0
140
0.0
141
0.0
142
1.0
143
1.0
 70
   688
 72
     0
 73
     0
 74
     5
  7

 75
    16
147
1.0
148
0.0
149
0.0
100
AcDbLayout
  1
Layout1
 70
     1
 71
     1
 10
0.0
 20
0.0
 11
420.0
 21
297.0
 12
0.0
 22
0.0
 32
0.0
 14
1.0000000000E+20
 24
1.0000000000E+20
 34
1.0000000000E+20
 15
-1.0000000000E+20
 25
-1.0000000000E+20
 35
-1.0000000000E+20
146
0.0
 13
0.0
 23
0.0
 33
0.0
 16
1.0
 26
0.0
 36
0.0
 17
0.0
 27
1.0
 37
0.0
 76
     0
330
1B
  0
LAYOUT
  5
26
102
{ACAD_REACTORS
330
1A
102
}
330
1A
100
AcDbPlotSettings
  1

  2
none_device
  4

  6

 40
0.0
 41
0.0
 42
0.0
 43
0.0
 44
0.0
 45
0.0
 46
0.0
 47
0.0
 48
0.0
 49
0.0
140
0.0
141
0.0
142
1.0
143
1.0
 70
   688
 72
     0
 73
     0
 74
     5
  7

 75
    16
147
1.0
148
0.0
149
0.0
100
AcDbLayout
  1
Layout2
 70
     1
 71
     2
 10
0.0
 20
0.0
 11
0.0
 21
0.0
 12
0.0
 22
0.0
 32
0.0
 14
0.0
 24
0.0
 34
0.0
 15
0.0
 25
0.0
 35
0.0
146
0.0
 13
0.0
 23
0.0
 33
0.0
 16
1.0
 26
0.0
 36
0.0
 17
0.0
 27
1.0
 37
0.0
 76
     0
330
23
  0
LAYOUT
  5
22
102
{ACAD_REACTORS
330
1A
102
}
330
1A
100
AcDbPlotSettings
  1

  2
none_device
  4

  6

 40
0.0
 41
0.0
 42
0.0
 43
0.0
 44
0.0
 45
0.0
 46
0.0
 47
0.0
 48
0.0
 49
0.0
140
0.0
141
0.0
142
1.0
143
1.0
 70
  1712
 72
     0
 73
     0
 74
     0
  7

 75
     0
147
1.0
148
0.0
149
0.0
100
AcDbLayout
  1
Model
 70
     1
 71
     0
 10
0.0
 20
0.0
 11
0.0
 21
0.0
 12
0.0
 22
0.0
 32
0.0
 14
0.0
 24
0.0
 34
0.0
 15
297.0
 25
210.0
 35
0.0
146
0.0
 13
0.0
 23
0.0
 33
0.0
 16
1.0
 26
0.0
 36
0.0
 17
0.0
 27
1.0
 37
0.0
 76
     0
330
1F
  0
MLINESTYLE
  5
18
102
{ACAD_REACTORS
330
17
102
}
330
17
100
AcDbMlineStyle
  2
Standard
 70
     0
  3

 62
   256
 51
90.0
 52
90.0
 71
     2
 49
0.5
 62
   256
  6
BYLAYER
 49
-0.5
 62
   256
  6
BYLAYER
  0
ACDBPLACEHOLDER
  5
F
102
{ACAD_REACTORS
330
E
102
}
330
E
  0
ENDSEC
  0
EOF
