  0
SECTION
  2
HEADER
  9
$ACADVER
  1
AC1015
  9
$ACADMAINTVER
 70
     6
  9
$DWGCODEPAGE
  3
DOS932
  9
$INSBASE
 10
0.0
 20
0.0
 30
0.0
  9
$EXTMIN
 10
0.0
 20
0.0
 30
0.0
  9
$EXTMAX
 10
297.0
 20
210.0
 30
0.0
  9
$LIMMIN
 10
0.0
 20
0.0
  9
$LIMMAX
 10
297.0
 20
210.0
  9
$ORTHOMODE
 70
     0
  9
$REGENMODE
 70
     1
  9
$FILLMODE
 70
     1
  9
$QTEXTMODE
 70
     0
  9
$MIRRTEXT
 70
     1
  9
$LTSCALE
 40
1.0
  9
$ATTMODE
 70
     1
  9
$TEXTSIZE
 40
3.8805555556
  9
$TRACEWID
 40
1.0
  9
$TEXTSTYLE
  7
Standard
  9
$CLAYER
  8
0
  9
$CELTYPE
  6
ByLayer
  9
$CECOLOR
 62
   256
  9
$CELTSCALE
 40
1.0
  9
$DISPSILH
 70
     0
  9
$DIMSCALE
 40
1.0
  9
$DIMASZ
 40
3.0
  9
$DIMEXO
 40
1.0
  9
$DIMDLI
 40
3.75
  9
$DIMRND
 40
0.0
  9
$DIMDLE
 40
0.0
  9
$DIMEXE
 40
1.0
  9
$DIMTP
 40
0.0
  9
$DIMTM
 40
0.0
  9
$DIMTXT
 40
3.8805555556
  9
$DIMCEN
 40
2.5
  9
$DIMTSZ
 40
0.0
  9
$DIMTOL
 70
     0
  9
$DIMLIM
 70
     0
  9
$DIMTIH
 70
     1
  9
$DIMTOH
 70
     1
  9
$DIMSE1
 70
     0
  9
$DIMSE2
 70
     0
  9
$DIMTAD
 70
     1
  9
$DIMZIN
 70
     0
  9
$DIMBLK
  1

  9
$DIMASO
 70
     1
  9
$DIMSHO
 70
     1
  9
$DIMPOST
  1

  9
$DIMAPOST
  1

  9
$DIMALT
 70
     0
  9
$DIMALTD
 70
     3
  9
$DIMALTF
 40
0.0393700787
  9
$DIMLFAC
 40
10.0
  9
$DIMTOFL
 70
     1
  9
$DIMTVP
 40
0.0
  9
$DIMTIX
 70
     0
  9
$DIMSOXD
 70
     0
  9
$DIMSAH
 70
     0
  9
$DIMBLK1
  1

  9
$DIMBLK2
  1

  9
$DIMSTYLE
  2
ISO-25
  9
$DIMCLRD
 70
     0
  9
$DIMCLRE
 70
     0
  9
$DIMCLRT
 70
     0
  9
$DIMTFAC
 40
1.0
  9
$DIMGAP
 40
1.524
  9
$DIMJUST
 70
     0
  9
$DIMSD1
 70
     0
  9
$DIMSD2
 70
     0
  9
$DIMTOLJ
 70
     0
  9
$DIMTZIN
 70
     0
  9
$DIMALTZ
 70
     0
  9
$DIMALTTZ
 70
     0
  9
$DIMUPT
 70
     0
  9
$DIMDEC
 70
     2
  9
$DIMTDEC
 70
     2
  9
$DIMALTU
 70
     2
  9
$DIMALTTD
 70
     3
  9
$DIMTXSTY
  7
Standard
  9
$DIMAUNIT
 70
     0
  9
$DIMADEC
 70
     2
  9
$DIMALTRND
 40
0.0
  9
$DIMAZIN
 70
     0
  9
$DIMDSEP
 70
    44
  9
$DIMATFIT
 70
     3
  9
$DIMFRAC
 70
     0
  9
$DIMLDRBLK
  1

  9
$DIMLUNIT
 70
     2
  9
$DIMLWD
 70
    -2
  9
$DIMLWE
 70
    -2
  9
$DIMTMOVE
 70
     0
  9
$LUNITS
 70
     2
  9
$LUPREC
 70
     2
  9
$SKETCHINC
 40
1.0
  9
$FILLETRAD
 40
10.0
  9
$AUNITS
 70
     0
  9
$AUPREC
 70
     2
  9
$MENU
  1
.
  9
$ELEVATION
 40
0.0
  9
$PELEVATION
 40
0.0
  9
$THICKNESS
 40
0.0
  9
$LIMCHECK
 70
     0
  9
$CHAMFERA
 40
0.0
  9
$CHAMFERB
 40
0.0
  9
$CHAMFERC
 40
0.0
  9
$CHAMFERD
 40
0.0
  9
$SKPOLY
 70
     0
  9
$TDCREATE
 40
2459558.499417141
  9
$TDUCREATE
 40
2459558.124417141
  9
$TDUPDATE
 40
2459558.499418218
  9
$TDUUPDATE
 40
2459558.124418218
  9
$TDINDWG
 40
0.0000000116
  9
$TDUSRTIMER
 40
0.0000000116
  9
$USRTIMER
 70
     1
  9
$ANGBASE
 50
0.0
  9
$ANGDIR
 70
     0
  9
$PDMODE
 70
     0
  9
$PDSIZE
 40
-1.0
  9
$PLINEWID
 40
0.0
  9
$SPLFRAME
 70
     0
  9
$SPLINETYPE
 70
     6
  9
$SPLINESEGS
 70
     8
  9
$HANDSEED
  5
4F4
  9
$SURFTAB1
 70
     6
  9
$SURFTAB2
 70
     6
  9
$SURFTYPE
 70
     6
  9
$SURFU
 70
     6
  9
$SURFV
 70
     6
  9
$UCSBASE
  2

  9
$UCSNAME
  2

  9
$UCSORG
 10
0.0
 20
0.0
 30
0.0
  9
$UCSXDIR
 10
1.0
 20
0.0
 30
0.0
  9
$UCSYDIR
 10
0.0
 20
1.0
 30
0.0
  9
$UCSORTHOREF
  2

  9
$UCSORTHOVIEW
 70
     0
  9
$UCSORGTOP
 10
0.0
 20
0.0
 30
0.0
  9
$UCSORGBOTTOM
 10
0.0
 20
0.0
 30
0.0
  9
$UCSORGLEFT
 10
0.0
 20
0.0
 30
0.0
  9
$UCSORGRIGHT
 10
0.0
 20
0.0
 30
0.0
  9
$UCSORGFRONT
 10
0.0
 20
0.0
 30
0.0
  9
$UCSORGBACK
 10
0.0
 20
0.0
 30
0.0
  9
$PUCSBASE
  2

  9
$PUCSNAME
  2

  9
$PUCSORG
 10
0.0
 20
0.0
 30
0.0
  9
$PUCSXDIR
 10
1.0
 20
0.0
 30
0.0
  9
$PUCSYDIR
 10
0.0
 20
1.0
 30
0.0
  9
$PUCSORTHOREF
  2

  9
$PUCSORTHOVIEW
 70
     0
  9
$PUCSORGTOP
 10
0.0
 20
0.0
 30
0.0
  9
$PUCSORGBOTTOM
 10
0.0
 20
0.0
 30
0.0
  9
$PUCSORGLEFT
 10
0.0
 20
0.0
 30
0.0
  9
$PUCSORGRIGHT
 10
0.0
 20
0.0
 30
0.0
  9
$PUCSORGFRONT
 10
0.0
 20
0.0
 30
0.0
  9
$PUCSORGBACK
 10
0.0
 20
0.0
 30
0.0
  9
$USERI1
 70
     0
  9
$USERI2
 70
     0
  9
$USERI3
 70
     0
  9
$USERI4
 70
     0
  9
$USERI5
 70
     0
  9
$USERR1
 40
0.0
  9
$USERR2
 40
0.0
  9
$USERR3
 40
0.0
  9
$USERR4
 40
0.0
  9
$USERR5
 40
0.0
  9
$WORLDVIEW
 70
     1
  9
$SHADEDGE
 70
     3
  9
$SHADEDIF
 70
    70
  9
$TILEMODE
 70
     1
  9
$MAXACTVP
 70
    64
  9
$PINSBASE
 10
0.0
 20
0.0
 30
0.0
  9
$PLIMCHECK
 70
     0
  9
$PEXTMIN
 10
1.0000000000E+20
 20
1.0000000000E+20
 30
1.0000000000E+20
  9
$PEXTMAX
 10
-1.0000000000E+20
 20
-1.0000000000E+20
 30
-1.0000000000E+20
  9
$PLIMMIN
 10
0.0
 20
0.0
  9
$PLIMMAX
 10
420.0
 20
297.0
  9
$UNITMODE
 70
     0
  9
$VISRETAIN
 70
     1
  9
$PLINEGEN
 70
     0
  9
$PSLTSCALE
 70
     1
  9
$TREEDEPTH
 70
  3020
  9
$CMLSTYLE
  2
Standard
  9
$CMLJUST
 70
     0
  9
$CMLSCALE
 40
20.0
  9
$PROXYGRAPHICS
 70
     1
  9
$MEASUREMENT
 70
     1
  9
$CELWEIGHT
370
    -1
  9
$ENDCAPS
280
     0
  9
$JOINSTYLE
280
     0
  9
$LWDISPLAY
290
     1
  9
$INSUNITS
 70
     4
  9
$HYPERLINKBASE
  1

  9
$STYLESHEET
  1

  9
$XEDIT
290
     1
  9
$CEPSNTYPE
380
     0
  9
$PSTYLEMODE
290
     1
  9
$FINGERPRINTGUID
  2
{1894c7b0-ef43-41ff-b673-897c39fe1699}
  9
$VERSIONGUID
  2
{FAEB1C32-E019-11D5-929B-00C0DF256EC4}
  9
$EXTNAMES
290
     1
  9
$PSVPSCALE
 40
0.0
  9
$OLESTARTUP
290
     0
  0
ENDSEC
  0
SECTION
  2
CLASSES
  0
CLASS
  1
ACDBDICTIONARYWDFLT
  2
AcDbDictionaryWithDefault
  3
ObjectDBX Classes
 90
        0
280
     0
281
     0
  0
CLASS
  1
VISUALSTYLE
  2
AcDbVisualStyle
  3
ObjectDBX Classes
 90
     4095
280
     0
281
     0
  0
CLASS
  1
MATERIAL
  2
AcDbMaterial
  3
ObjectDBX Classes
 90
     1153
280
     0
281
     0
  0
CLASS
  1
SCALE
  2
AcDbScale
  3
ObjectDBX Classes
 90
     1153
280
     0
281
     0
  0
CLASS
  1
TABLESTYLE
  2
AcDbTableStyle
  3
ObjectDBX Classes
 90
     4095
280
     0
281
     0
  0
CLASS
  1
MLEADERSTYLE
  2
AcDbMLeaderStyle
  3
ACDB_MLEADERSTYLE_CLASS
 90
     4095
280
     0
281
     0
  0
CLASS
  1
SUN
  2
AcDbSun
  3
SCENEOE
 90
     1153
280
     0
281
     0
  0
CLASS
  1
ACDBPLACEHOLDER
  2
AcDbPlaceHolder
  3
ObjectDBX Classes
 90
        0
280
     0
281
     0
  0
CLASS
  1
LAYOUT
  2
AcDbLayout
  3
ObjectDBX Classes
 90
        0
280
     0
281
     0
  0
ENDSEC
  0
SECTION
  2
TABLES
  0
TABLE
  2
VPORT
  5
8
330
0
100
AcDbSymbolTable
 70
     1
  0
VPORT
  5
29
330
8
100
AcDbSymbolTableRecord
100
AcDbViewportTableRecord
  2
*Active
 70
     0
 10
0.0
 20
0.0
 11
1.0
 21
1.0
 12
148.5
 22
105.0
 13
0.0
 23
0.0
 14
10.0
 24
10.0
 15
10.0
 25
10.0
 16
0.0
 26
0.0
 36
1.0
 17
0.0
 27
0.0
 37
0.0
 40
210.0
 41
1.4142857143
 42
50.0
 43
0.0
 44
0.0
 50
0.0
 51
0.0
 71
     0
 72
  2000
 73
     1
 74
     3
 75
     0
 76
     0
 77
     0
 78
     0
281
     0
 65
     1
110
0.0
120
0.0
130
0.0
111
1.0
121
0.0
131
0.0
112
0.0
122
1.0
132
0.0
 79
     0
146
0.0
  0
ENDTAB
  0
TABLE
  2
LTYPE
  5
5
330
0
100
AcDbSymbolTable
 70
     6
  0
LTYPE
  5
14
330
5
100
AcDbSymbolTableRecord
100
AcDbLinetypeTableRecord
  2
ByBlock
 70
     0
  3

 72
    65
 73
     0
 40
0.0
  0
LTYPE
  5
15
330
5
100
AcDbSymbolTableRecord
100
AcDbLinetypeTableRecord
  2
ByLayer
 70
     0
  3

 72
    65
 73
     0
 40
0.0
  0
LTYPE
  5
16
330
5
100
AcDbSymbolTableRecord
100
AcDbLinetypeTableRecord
  2
Continuous
 70
     0
  3
Solid line
 72
    65
 73
     0
 40
0.0
  0
LTYPE
  5
6E
330
5
100
AcDbSymbolTableRecord
100
AcDbLinetypeTableRecord
  2
HIDDEN
 70
     0
  3
Hidden __ __ __ __ __ __ __ __ __ __ __ __ __ __
 72
    65
 73
     2
 40
1.905
 49
1.27
 74
     0
 49
-0.635
 74
     0
  0
LTYPE
  5
6F
330
5
100
AcDbSymbolTableRecord
100
AcDbLinetypeTableRecord
  2
PHANTOM
 70
     0
  3
Phantom ______  __  __  ______  __  __  ______
 72
    65
 73
     6
 40
12.7
 49
6.35
 74
     0
 49
-1.27
 74
     0
 49
1.27
 74
     0
 49
-1.27
 74
     0
 49
1.27
 74
     0
 49
-1.27
 74
     0
  0
LTYPE
  5
70
330
5
100
AcDbSymbolTableRecord
100
AcDbLinetypeTableRecord
  2
CENTER
 70
     0
  3
Center ____ _ ____ _ ____ _ ____ _ ____ _ ____
 72
    65
 73
     4
 40
10.16
 49
6.35
 74
     0
 49
-1.27
 74
     0
 49
1.27
 74
     0
 49
-1.27
 74
     0
  0
LTYPE
  5
71
330
5
100
AcDbSymbolTableRecord
100
AcDbLinetypeTableRecord
  2
CENTERX2
 70
     0
  3
Center (2x) ________  __  ________  __  _____
 72
    65
 73
     4
 40
20.32
 49
12.7
 74
     0
 49
-2.54
 74
     0
 49
2.54
 74
     0
 49
-2.54
 74
     0
  0
LTYPE
  5
72
330
5
100
AcDbSymbolTableRecord
100
AcDbLinetypeTableRecord
  2
DOT2
 70
     0
  3
Dot (.5x) ........................................
 72
    65
 73
     2
 40
0.635
 49
0.0
 74
     0
 49
-0.635
 74
     0
  0
ENDTAB
  0
TABLE
  2
LAYER
  5
2
330
0
100
AcDbSymbolTable
 70
     4
  0
LAYER
  5
10
330
2
100
AcDbSymbolTableRecord
100
AcDbLayerTableRecord
  2
0
 70
     0
 62
     7
  6
Continuous
370
    -3
390
F
  0
LAYER
  5
73
330
2
100
AcDbSymbolTableRecord
100
AcDbLayerTableRecord
  2
SLD-0_0
 70
     0
 62
   179
  6
Continuous
370
    -3
390
F
  0
LAYER
  5
74
330
2
100
AcDbSymbolTableRecord
100
AcDbLayerTableRecord
  2
SLD-0
 70
     0
 62
   179
  6
Continuous
370
    -3
390
F
  0
LAYER
  5
75
330
2
100
AcDbSymbolTableRecord
100
AcDbLayerTableRecord
  2
1
 70
     0
 62
   179
  6
Continuous
370
    -3
390
F
  0
ENDTAB
  0
TABLE
  2
STYLE
  5
3
330
0
100
AcDbSymbolTable
 70
     1
  0
STYLE
  5
11
330
3
100
AcDbSymbolTableRecord
100
AcDbTextStyleTableRecord
  2
Standard
 70
     0
 40
0.0
 41
1.0
 50
0.0
 71
     0
 42
3.8805555556
  3
txt
  4
bigfont
  0
ENDTAB
  0
TABLE
  2
VIEW
  5
6
330
0
100
AcDbSymbolTable
 70
     0
  0
ENDTAB
  0
TABLE
  2
UCS
  5
7
330
0
100
AcDbSymbolTable
 70
     0
  0
ENDTAB
  0
TABLE
  2
APPID
  5
9
330
0
100
AcDbSymbolTable
 70
     1
  0
APPID
  5
12
330
9
100
AcDbSymbolTableRecord
100
AcDbRegAppTableRecord
  2
ACAD
 70
     0
  0
ENDTAB
  0
TABLE
  2
DIMSTYLE
  5
A
330
0
100
AcDbSymbolTable
 70
     1
100
AcDbDimStyleTable
  0
DIMSTYLE
105
27
330
A
100
AcDbSymbolTableRecord
100
AcDbDimStyleTableRecord
  2
ISO-25
 70
     0
 41
2.5
 42
0.625
 43
3.75
 44
1.25
 73
     0
 74
     0
 77
     1
 78
     8
140
2.5
141
2.5
143
0.0393700787
147
0.625
171
     3
172
     1
178
     0
271
     2
272
     2
274
     3
278
    44
283
     0
284
     8
340
11
  0
ENDTAB
  0
TABLE
  2
BLOCK_RECORD
  5
1
330
0
100
AcDbSymbolTable
 70
     8
  0
BLOCK_RECORD
  5
1F
330
1
100
AcDbSymbolTableRecord
100
AcDbBlockTableRecord
  2
*Model_Space
340
22
  0
BLOCK_RECORD
  5
1B
330
1
100
AcDbSymbolTableRecord
100
AcDbBlockTableRecord
  2
*Paper_Space
340
1E
  0
BLOCK_RECORD
  5
23
330
1
100
AcDbSymbolTableRecord
100
AcDbBlockTableRecord
  2
*Paper_Space0
340
26
  0
BLOCK_RECORD
  5
184
330
1
100
AcDbSymbolTableRecord
100
AcDbBlockTableRecord
  2
SW_CENTERMARKSYMBOL_0
340
0
102
{BLKREFS
331
18F
102
}
  0
BLOCK_RECORD
  5
190
330
1
100
AcDbSymbolTableRecord
100
AcDbBlockTableRecord
  2
SW_CENTERMARKSYMBOL_1
340
0
102
{BLKREFS
331
19B
102
}
  0
BLOCK_RECORD
  5
237
330
1
100
AcDbSymbolTableRecord
100
AcDbBlockTableRecord
  2
SW_CENTERMARKSYMBOL_2
340
0
102
{BLKREFS
331
242
102
}
  0
BLOCK_RECORD
  5
2C9
330
1
100
AcDbSymbolTableRecord
100
AcDbBlockTableRecord
  2
SW_CENTERMARKSYMBOL_3
340
0
102
{BLKREFS
331
2D4
102
}
  0
BLOCK_RECORD
  5
2D5
330
1
100
AcDbSymbolTableRecord
100
AcDbBlockTableRecord
  2
SW_CENTERMARKSYMBOL_4
340
0
102
{BLKREFS
331
2E0
102
}
  0
BLOCK_RECORD
  5
2E1
330
1
100
AcDbSymbolTableRecord
100
AcDbBlockTableRecord
  2
SW_CENTERMARKSYMBOL_5
340
0
102
{BLKREFS
331
2EC
102
}
  0
BLOCK_RECORD
  5
2ED
330
1
100
AcDbSymbolTableRecord
100
AcDbBlockTableRecord
  2
SW_CENTERMARKSYMBOL_6
340
0
102
{BLKREFS
331
2F8
102
}
  0
ENDTAB
  0
ENDSEC
  0
SECTION
  2
BLOCKS
  0
BLOCK
  5
20
330
1F
100
AcDbEntity
  8
0
100
AcDbBlockBegin
  2
*Model_Space
 70
     0
 10
0.0
 20
0.0
 30
0.0
  3
*Model_Space
  1

  0
ENDBLK
  5
21
330
1F
100
AcDbEntity
  8
0
100
AcDbBlockEnd
  0
BLOCK
  5
1C
330
1B
100
AcDbEntity
 67
     1
  8
0
100
AcDbBlockBegin
  2
*Paper_Space
 70
     0
 10
0.0
 20
0.0
 30
0.0
  3
*Paper_Space
  1

  0
ENDBLK
  5
1D
330
1B
100
AcDbEntity
 67
     1
  8
0
100
AcDbBlockEnd
  0
BLOCK
  5
24
330
23
100
AcDbEntity
  8
0
100
AcDbBlockBegin
  2
*Paper_Space0
 70
     0
 10
0.0
 20
0.0
 30
0.0
  3
*Paper_Space0
  1

  0
ENDBLK
  5
25
330
23
100
AcDbEntity
  8
0
100
AcDbBlockEnd
  0
BLOCK
  5
185
330
184
100
AcDbEntity
  8
0
100
AcDbBlockBegin
  2
SW_CENTERMARKSYMBOL_0
 70
     0
 10
0.0
 20
0.0
 30
0.0
  3
SW_CENTERMARKSYMBOL_0
  1

  0
LINE
  5
187
330
184
100
AcDbEntity
  8
0
  6
Continuous
 62
     0
370
    18
100
AcDbLine
 10
0.0
 20
0.0
 30
0.0
 11
0.0
 21
0.25
 31
0.0
  0
LINE
  5
188
330
184
100
AcDbEntity
  8
0
  6
Continuous
 62
     0
370
    18
100
AcDbLine
 10
0.0
 20
0.0
 30
0.0
 11
-0.25
 21
0.0
 31
0.0
  0
LINE
  5
189
330
184
100
AcDbEntity
  8
0
  6
Continuous
 62
     0
370
    18
100
AcDbLine
 10
0.0
 20
0.0
 30
0.0
 11
0.0
 21
-0.25
 31
0.0
  0
LINE
  5
18A
330
184
100
AcDbEntity
  8
0
  6
Continuous
 62
     0
370
    18
100
AcDbLine
 10
0.0
 20
0.0
 30
0.0
 11
0.25
 21
0.0
 31
0.0
  0
LINE
  5
18B
330
184
100
AcDbEntity
  8
0
  6
Continuous
 62
     0
370
    18
100
AcDbLine
 10
0.0
 20
0.5
 30
0.0
 11
0.0
 21
14.0408269764
 31
0.0
  0
LINE
  5
18C
330
184
100
AcDbEntity
  8
0
  6
Continuous
 62
     0
370
    18
100
AcDbLine
 10
-0.5
 20
0.0
 30
0.0
 11
-3.3120278133
 21
0.0
 31
0.0
  0
LINE
  5
18D
330
184
100
AcDbEntity
  8
0
  6
Continuous
 62
     0
370
    18
100
AcDbLine
 10
0.0
 20
-0.5
 30
0.0
 11
0.0
 21
-3.3148649667
 31
0.0
  0
LINE
  5
18E
330
184
100
AcDbEntity
  8
0
  6
Continuous
 62
     0
370
    18
100
AcDbLine
 10
0.5
 20
0.0
 30
0.0
 11
3.0548700462
 21
0.0
 31
0.0
  0
ENDBLK
  5
186
330
184
100
AcDbEntity
  8
0
100
AcDbBlockEnd
  0
BLOCK
  5
191
330
190
100
AcDbEntity
  8
0
100
AcDbBlockBegin
  2
SW_CENTERMARKSYMBOL_1
 70
     0
 10
0.0
 20
0.0
 30
0.0
  3
SW_CENTERMARKSYMBOL_1
  1

  0
LINE
  5
193
330
190
100
AcDbEntity
  8
0
  6
Continuous
 62
     0
370
    18
100
AcDbLine
 10
0.0
 20
0.0
 30
0.0
 11
0.0
 21
0.25
 31
0.0
  0
LINE
  5
194
330
190
100
AcDbEntity
  8
0
  6
Continuous
 62
     0
370
    18
100
AcDbLine
 10
0.0
 20
0.0
 30
0.0
 11
-0.25
 21
0.0
 31
0.0
  0
LINE
  5
195
330
190
100
AcDbEntity
  8
0
  6
Continuous
 62
     0
370
    18
100
AcDbLine
 10
0.0
 20
0.0
 30
0.0
 11
0.0
 21
-0.25
 31
0.0
  0
LINE
  5
196
330
190
100
AcDbEntity
  8
0
  6
Continuous
 62
     0
370
    18
100
AcDbLine
 10
0.0
 20
0.0
 30
0.0
 11
0.25
 21
0.0
 31
0.0
  0
LINE
  5
197
330
190
100
AcDbEntity
  8
0
  6
Continuous
 62
     0
370
    18
100
AcDbLine
 10
0.0
 20
0.5
 30
0.0
 11
0.0
 21
3.061023638
 31
0.0
  0
LINE
  5
198
330
190
100
AcDbEntity
  8
0
  6
Continuous
 62
     0
370
    18
100
AcDbLine
 10
-0.5
 20
0.0
 30
0.0
 11
-2.9654698147
 21
0.0
 31
0.0
  0
LINE
  5
199
330
190
100
AcDbEntity
  8
0
  6
Continuous
 62
     0
370
    18
100
AcDbLine
 10
0.0
 20
-0.5
 30
0.0
 11
0.0
 21
-2.8342521579
 31
0.0
  0
LINE
  5
19A
330
190
100
AcDbEntity
  8
0
  6
Continuous
 62
     0
370
    18
100
AcDbLine
 10
0.5
 20
0.0
 30
0.0
 11
3.0140242068
 21
0.0
 31
0.0
  0
ENDBLK
  5
192
330
190
100
AcDbEntity
  8
0
100
AcDbBlockEnd
  0
BLOCK
  5
238
330
237
100
AcDbEntity
  8
0
100
AcDbBlockBegin
  2
SW_CENTERMARKSYMBOL_2
 70
     0
 10
0.0
 20
0.0
 30
0.0
  3
SW_CENTERMARKSYMBOL_2
  1

  0
LINE
  5
23A
330
237
100
AcDbEntity
  8
0
  6
Continuous
 62
     0
370
    18
100
AcDbLine
 10
0.0
 20
0.0
 30
0.0
 11
0.0
 21
0.25
 31
0.0
  0
LINE
  5
23B
330
237
100
AcDbEntity
  8
0
  6
Continuous
 62
     0
370
    18
100
AcDbLine
 10
0.0
 20
0.0
 30
0.0
 11
-0.25
 21
0.0
 31
0.0
  0
LINE
  5
23C
330
237
100
AcDbEntity
  8
0
  6
Continuous
 62
     0
370
    18
100
AcDbLine
 10
0.0
 20
0.0
 30
0.0
 11
0.0
 21
-0.25
 31
0.0
  0
LINE
  5
23D
330
237
100
AcDbEntity
  8
0
  6
Continuous
 62
     0
370
    18
100
AcDbLine
 10
0.0
 20
0.0
 30
0.0
 11
0.25
 21
0.0
 31
0.0
  0
LINE
  5
23E
330
237
100
AcDbEntity
  8
0
  6
Continuous
 62
     0
370
    18
100
AcDbLine
 10
0.0
 20
0.5
 30
0.0
 11
0.0
 21
19.9748018663
 31
0.0
  0
LINE
  5
23F
330
237
100
AcDbEntity
  8
0
  6
Continuous
 62
     0
370
    18
100
AcDbLine
 10
-0.5
 20
0.0
 30
0.0
 11
-17.5224216068
 21
0.0
 31
0.0
  0
LINE
  5
240
330
237
100
AcDbEntity
  8
0
  6
Continuous
 62
     0
370
    18
100
AcDbLine
 10
0.0
 20
-0.5
 30
0.0
 11
0.0
 21
-17.3190124498
 31
0.0
  0
LINE
  5
241
330
237
100
AcDbEntity
  8
0
  6
Continuous
 62
     0
370
    18
100
AcDbLine
 10
0.5
 20
0.0
 30
0.0
 11
17.3953736709
 21
0.0
 31
0.0
  0
ENDBLK
  5
239
330
237
100
AcDbEntity
  8
0
100
AcDbBlockEnd
  0
BLOCK
  5
2CA
330
2C9
100
AcDbEntity
  8
0
100
AcDbBlockBegin
  2
SW_CENTERMARKSYMBOL_3
 70
     0
 10
0.0
 20
0.0
 30
0.0
  3
SW_CENTERMARKSYMBOL_3
  1

  0
LINE
  5
2CC
330
2C9
100
AcDbEntity
  8
0
  6
Continuous
 62
     0
370
    18
100
AcDbLine
 10
0.0
 20
0.0
 30
0.0
 11
0.0
 21
0.25
 31
0.0
  0
LINE
  5
2CD
330
2C9
100
AcDbEntity
  8
0
  6
Continuous
 62
     0
370
    18
100
AcDbLine
 10
0.0
 20
0.0
 30
0.0
 11
-0.25
 21
0.0
 31
0.0
  0
LINE
  5
2CE
330
2C9
100
AcDbEntity
  8
0
  6
Continuous
 62
     0
370
    18
100
AcDbLine
 10
0.0
 20
0.0
 30
0.0
 11
0.0
 21
-0.25
 31
0.0
  0
LINE
  5
2CF
330
2C9
100
AcDbEntity
  8
0
  6
Continuous
 62
     0
370
    18
100
AcDbLine
 10
0.0
 20
0.0
 30
0.0
 11
0.25
 21
0.0
 31
0.0
  0
LINE
  5
2D0
330
2C9
100
AcDbEntity
  8
0
  6
Continuous
 62
     0
370
    18
100
AcDbLine
 10
0.0
 20
0.5
 30
0.0
 11
0.0
 21
0.75
 31
0.0
  0
LINE
  5
2D1
330
2C9
100
AcDbEntity
  8
0
  6
Continuous
 62
     0
370
    18
100
AcDbLine
 10
-0.5
 20
0.0
 30
0.0
 11
-0.75
 21
0.0
 31
0.0
  0
LINE
  5
2D2
330
2C9
100
AcDbEntity
  8
0
  6
Continuous
 62
     0
370
    18
100
AcDbLine
 10
0.0
 20
-0.5
 30
0.0
 11
0.0
 21
-0.75
 31
0.0
  0
LINE
  5
2D3
330
2C9
100
AcDbEntity
  8
0
  6
Continuous
 62
     0
370
    18
100
AcDbLine
 10
0.5
 20
0.0
 30
0.0
 11
0.75
 21
0.0
 31
0.0
  0
ENDBLK
  5
2CB
330
2C9
100
AcDbEntity
  8
0
100
AcDbBlockEnd
  0
BLOCK
  5
2D6
330
2D5
100
AcDbEntity
  8
0
100
AcDbBlockBegin
  2
SW_CENTERMARKSYMBOL_4
 70
     0
 10
0.0
 20
0.0
 30
0.0
  3
SW_CENTERMARKSYMBOL_4
  1

  0
LINE
  5
2D8
330
2D5
100
AcDbEntity
  8
0
  6
Continuous
 62
     0
370
    18
100
AcDbLine
 10
0.0
 20
0.0
 30
0.0
 11
0.0
 21
0.25
 31
0.0
  0
LINE
  5
2D9
330
2D5
100
AcDbEntity
  8
0
  6
Continuous
 62
     0
370
    18
100
AcDbLine
 10
0.0
 20
0.0
 30
0.0
 11
-0.25
 21
0.0
 31
0.0
  0
LINE
  5
2DA
330
2D5
100
AcDbEntity
  8
0
  6
Continuous
 62
     0
370
    18
100
AcDbLine
 10
0.0
 20
0.0
 30
0.0
 11
0.0
 21
-0.25
 31
0.0
  0
LINE
  5
2DB
330
2D5
100
AcDbEntity
  8
0
  6
Continuous
 62
     0
370
    18
100
AcDbLine
 10
0.0
 20
0.0
 30
0.0
 11
0.25
 21
0.0
 31
0.0
  0
LINE
  5
2DC
330
2D5
100
AcDbEntity
  8
0
  6
Continuous
 62
     0
370
    18
100
AcDbLine
 10
0.0
 20
0.5
 30
0.0
 11
0.0
 21
0.75
 31
0.0
  0
LINE
  5
2DD
330
2D5
100
AcDbEntity
  8
0
  6
Continuous
 62
     0
370
    18
100
AcDbLine
 10
-0.5
 20
0.0
 30
0.0
 11
-0.75
 21
0.0
 31
0.0
  0
LINE
  5
2DE
330
2D5
100
AcDbEntity
  8
0
  6
Continuous
 62
     0
370
    18
100
AcDbLine
 10
0.0
 20
-0.5
 30
0.0
 11
0.0
 21
-0.75
 31
0.0
  0
LINE
  5
2DF
330
2D5
100
AcDbEntity
  8
0
  6
Continuous
 62
     0
370
    18
100
AcDbLine
 10
0.5
 20
0.0
 30
0.0
 11
0.75
 21
0.0
 31
0.0
  0
ENDBLK
  5
2D7
330
2D5
100
AcDbEntity
  8
0
100
AcDbBlockEnd
  0
BLOCK
  5
2E2
330
2E1
100
AcDbEntity
  8
0
100
AcDbBlockBegin
  2
SW_CENTERMARKSYMBOL_5
 70
     0
 10
0.0
 20
0.0
 30
0.0
  3
SW_CENTERMARKSYMBOL_5
  1

  0
LINE
  5
2E4
330
2E1
100
AcDbEntity
  8
0
  6
Continuous
 62
     0
370
    18
100
AcDbLine
 10
0.0
 20
0.0
 30
0.0
 11
0.0
 21
0.25
 31
0.0
  0
LINE
  5
2E5
330
2E1
100
AcDbEntity
  8
0
  6
Continuous
 62
     0
370
    18
100
AcDbLine
 10
0.0
 20
0.0
 30
0.0
 11
-0.25
 21
0.0
 31
0.0
  0
LINE
  5
2E6
330
2E1
100
AcDbEntity
  8
0
  6
Continuous
 62
     0
370
    18
100
AcDbLine
 10
0.0
 20
0.0
 30
0.0
 11
0.0
 21
-0.25
 31
0.0
  0
LINE
  5
2E7
330
2E1
100
AcDbEntity
  8
0
  6
Continuous
 62
     0
370
    18
100
AcDbLine
 10
0.0
 20
0.0
 30
0.0
 11
0.25
 21
0.0
 31
0.0
  0
LINE
  5
2E8
330
2E1
100
AcDbEntity
  8
0
  6
Continuous
 62
     0
370
    18
100
AcDbLine
 10
0.0
 20
0.5
 30
0.0
 11
0.0
 21
0.75
 31
0.0
  0
LINE
  5
2E9
330
2E1
100
AcDbEntity
  8
0
  6
Continuous
 62
     0
370
    18
100
AcDbLine
 10
-0.5
 20
0.0
 30
0.0
 11
-0.75
 21
0.0
 31
0.0
  0
LINE
  5
2EA
330
2E1
100
AcDbEntity
  8
0
  6
Continuous
 62
     0
370
    18
100
AcDbLine
 10
0.0
 20
-0.5
 30
0.0
 11
0.0
 21
-0.75
 31
0.0
  0
LINE
  5
2EB
330
2E1
100
AcDbEntity
  8
0
  6
Continuous
 62
     0
370
    18
100
AcDbLine
 10
0.5
 20
0.0
 30
0.0
 11
0.75
 21
0.0
 31
0.0
  0
ENDBLK
  5
2E3
330
2E1
100
AcDbEntity
  8
0
100
AcDbBlockEnd
  0
BLOCK
  5
2EE
330
2ED
100
AcDbEntity
  8
0
100
AcDbBlockBegin
  2
SW_CENTERMARKSYMBOL_6
 70
     0
 10
0.0
 20
0.0
 30
0.0
  3
SW_CENTERMARKSYMBOL_6
  1

  0
LINE
  5
2F0
330
2ED
100
AcDbEntity
  8
0
  6
Continuous
 62
     0
370
    18
100
AcDbLine
 10
0.0
 20
0.0
 30
0.0
 11
0.0
 21
0.25
 31
0.0
  0
LINE
  5
2F1
330
2ED
100
AcDbEntity
  8
0
  6
Continuous
 62
     0
370
    18
100
AcDbLine
 10
0.0
 20
0.0
 30
0.0
 11
-0.25
 21
0.0
 31
0.0
  0
LINE
  5
2F2
330
2ED
100
AcDbEntity
  8
0
  6
Continuous
 62
     0
370
    18
100
AcDbLine
 10
0.0
 20
0.0
 30
0.0
 11
0.0
 21
-0.25
 31
0.0
  0
LINE
  5
2F3
330
2ED
100
AcDbEntity
  8
0
  6
Continuous
 62
     0
370
    18
100
AcDbLine
 10
0.0
 20
0.0
 30
0.0
 11
0.25
 21
0.0
 31
0.0
  0
LINE
  5
2F4
330
2ED
100
AcDbEntity
  8
0
  6
Continuous
 62
     0
370
    18
100
AcDbLine
 10
0.0
 20
0.5
 30
0.0
 11
0.0
 21
0.75
 31
0.0
  0
LINE
  5
2F5
330
2ED
100
AcDbEntity
  8
0
  6
Continuous
 62
     0
370
    18
100
AcDbLine
 10
-0.5
 20
0.0
 30
0.0
 11
-0.75
 21
0.0
 31
0.0
  0
LINE
  5
2F6
330
2ED
100
AcDbEntity
  8
0
  6
Continuous
 62
     0
370
    18
100
AcDbLine
 10
0.0
 20
-0.5
 30
0.0
 11
0.0
 21
-0.75
 31
0.0
  0
LINE
  5
2F7
330
2ED
100
AcDbEntity
  8
0
  6
Continuous
 62
     0
370
    18
100
AcDbLine
 10
0.5
 20
0.0
 30
0.0
 11
0.75
 21
0.0
 31
0.0
  0
ENDBLK
  5
2EF
330
2ED
100
AcDbEntity
  8
0
100
AcDbBlockEnd
  0
ENDSEC
  0
SECTION
  2
ENTITIES
  0
LINE
  5
76
330
1F
100
AcDbEntity
  8
0
  6
Continuous
 62
     7
370
    25
100
AcDbLine
 10
154.8071607206
 20
93.3654518083
 30
0.0
 11
154.8071607206
 21
93.2654516057
 31
0.0
  0
LINE
  5
77
330
1F
100
AcDbEntity
  8
0
  6
Continuous
 62
     7
370
    25
100
AcDbLine
 10
154.8071607206
 20
92.8154529289
 30
0.0
 11
154.8071607206
 21
92.7154527262
 31
0.0
  0
LINE
  5
78
330
1F
100
AcDbEntity
  8
0
  6
Continuous
 62
     7
370
    25
100
AcDbLine
 10
155.807161257
 20
92.7154527262
 30
0.0
 11
155.807161257
 21
92.8154529289
 31
0.0
  0
LINE
  5
79
330
1F
100
AcDbEntity
  8
0
  6
Continuous
 62
     7
370
    25
100
AcDbLine
 10
155.807161257
 20
93.2654516057
 30
0.0
 11
155.807161257
 21
93.3654518083
 31
0.0
  0
LINE
  5
7A
330
1F
100
AcDbEntity
  8
0
  6
Continuous
 62
     7
370
    25
100
AcDbLine
 10
126.8071606014
 20
93.3654518083
 30
0.0
 11
126.8071606014
 21
93.2654516057
 31
0.0
  0
LINE
  5
7B
330
1F
100
AcDbEntity
  8
0
  6
Continuous
 62
     7
370
    25
100
AcDbLine
 10
126.8071606014
 20
92.8154529289
 30
0.0
 11
126.8071606014
 21
92.7154527262
 31
0.0
  0
LINE
  5
7C
330
1F
100
AcDbEntity
  8
0
  6
Continuous
 62
     7
370
    25
100
AcDbLine
 10
127.8071611378
 20
92.7154527262
 30
0.0
 11
127.8071611378
 21
92.8154529289
 31
0.0
  0
LINE
  5
7D
330
1F
100
AcDbEntity
  8
0
  6
Continuous
 62
     7
370
    25
100
AcDbLine
 10
127.8071611378
 20
93.2654516057
 30
0.0
 11
127.8071611378
 21
93.3654518083
 31
0.0
  0
LINE
  5
7E
330
1F
100
AcDbEntity
  8
0
  6
Continuous
 62
     7
370
    25
100
AcDbLine
 10
128.8071609292
 20
98.8154516772
 30
0.0
 11
132.1784406159
 21
98.8154516772
 31
0.0
  0
LINE
  5
7F
330
1F
100
AcDbEntity
  8
0
  6
Continuous
 62
     7
370
    25
100
AcDbLine
 10
126.4671608064
 20
98.9380867437
 30
0.0
 11
128.8071609292
 21
98.8154516772
 31
0.0
  0
LINE
  5
80
330
1F
100
AcDbEntity
  8
0
  6
Continuous
 62
     7
370
    25
100
AcDbLine
 10
123.9671602104
 20
130.6154520467
 30
0.0
 11
123.1671600792
 21
130.6154520467
 31
0.0
  0
LINE
  5
81
330
1F
100
AcDbEntity
  8
0
  6
Continuous
 62
     7
370
    25
100
AcDbLine
 10
123.1671600792
 20
101.4154524759
 30
0.0
 11
123.9671602104
 21
101.4154524759
 31
0.0
  0
LINE
  5
82
330
1F
100
AcDbEntity
  8
0
  6
Continuous
 62
     7
370
    25
100
AcDbLine
 10
125.3571613881
 20
132.807280238
 30
0.0
 11
123.9671602104
 21
132.7344329313
 31
0.0
  0
LINE
  5
83
330
1F
100
AcDbEntity
  8
0
  6
Continuous
 62
     7
370
    25
100
AcDbLine
 10
123.9671602104
 20
99.2964715913
 30
0.0
 11
126.4671608064
 21
99.1654516414
 31
0.0
  0
LINE
  5
84
330
1F
100
AcDbEntity
  8
0
  6
Continuous
 62
     7
370
    25
100
AcDbLine
 10
123.1671600792
 20
129.8154519156
 30
0.0
 11
118.307161257
 21
129.6881885484
 31
0.0
  0
LINE
  5
85
330
1F
100
AcDbEntity
  8
0
  6
Continuous
 62
     7
370
    25
100
AcDbLine
 10
118.307161257
 20
102.3427159742
 30
0.0
 11
123.1671600792
 21
102.215452607
 31
0.0
  0
LINE
  5
86
330
1F
100
AcDbEntity
  8
0
  6
Continuous
 62
     7
370
    25
100
AcDbLine
 10
139.3157764411
 20
132.3287398771
 30
0.0
 11
137.8571608294
 21
132.405182834
 31
0.0
  0
LINE
  5
87
330
1F
100
AcDbEntity
  8
0
  6
Continuous
 62
     7
370
    25
100
AcDbLine
 10
129.3071604524
 20
134.2154518918
 30
0.0
 11
125.3571613881
 21
134.2154518918
 31
0.0
  0
LINE
  5
88
330
1F
100
AcDbEntity
  8
0
  6
Continuous
 62
     7
370
    25
100
AcDbLine
 10
137.8571608294
 20
134.2154518918
 30
0.0
 11
133.9071608338
 21
134.2154518918
 31
0.0
  0
LINE
  5
89
330
1F
100
AcDbEntity
  8
0
  6
Continuous
 62
     7
370
    25
100
AcDbLine
 10
145.5071608726
 20
129.3229402259
 30
0.0
 11
143.3071608845
 21
129.3613420084
 31
0.0
  0
LINE
  5
8A
330
1F
100
AcDbEntity
  8
0
  6
Continuous
 62
     7
370
    25
100
AcDbLine
 10
148.1931037459
 20
104.5196556703
 30
0.0
 11
149.7071608159
 21
105.5409000472
 31
0.0
  0
LINE
  5
8B
330
1F
100
AcDbEntity
  8
0
  6
Continuous
 62
     7
370
    25
100
AcDbLine
 10
149.7071608159
 20
126.4900044755
 30
0.0
 11
145.5071608726
 21
129.3229402259
 31
0.0
  0
LINE
  5
8C
330
1F
100
AcDbEntity
  8
0
  6
Continuous
 62
     7
370
    25
100
AcDbLine
 10
149.7071608159
 20
105.5409000472
 30
0.0
 11
149.9071604762
 21
105.5409000472
 31
0.0
  0
LINE
  5
8D
330
1F
100
AcDbEntity
  8
0
  6
Continuous
 62
     7
370
    25
100
AcDbLine
 10
149.9071604762
 20
126.4900044755
 30
0.0
 11
149.7071608159
 21
126.4900044755
 31
0.0
  0
LINE
  5
8E
330
1F
100
AcDbEntity
  8
0
  6
Continuous
 62
     7
370
    25
100
AcDbLine
 10
170.3571616862
 20
106.6654519394
 30
0.0
 11
173.1571614001
 21
106.6654519394
 31
0.0
  0
LINE
  5
8F
330
1F
100
AcDbEntity
  8
0
  6
Continuous
 62
     7
370
    25
100
AcDbLine
 10
173.1571614001
 20
125.3654525832
 30
0.0
 11
170.3571616862
 21
125.3654525832
 31
0.0
  0
LINE
  5
90
330
1F
100
AcDbEntity
  8
0
  6
Continuous
 62
     7
370
    25
100
AcDbLine
 10
170.3571616862
 20
126.1204519526
 30
0.0
 11
149.9071604762
 21
126.1204519526
 31
0.0
  0
LINE
  5
91
330
1F
100
AcDbEntity
  8
0
  6
Continuous
 62
     7
370
    25
100
AcDbLine
 10
149.9071604762
 20
105.9104525701
 30
0.0
 11
170.3571616862
 21
105.9104525701
 31
0.0
  0
LINE
  5
92
330
1F
100
AcDbEntity
  8
0
  6
Continuous
 62
     7
370
    25
100
AcDbLine
 10
142.3071607206
 20
130.7154522494
 30
0.0
 11
142.3071607206
 21
131.0290114239
 31
0.0
  0
LINE
  5
93
330
1F
100
AcDbEntity
  8
0
  6
Continuous
 62
     7
370
    25
100
AcDbLine
 10
140.3071607653
 20
131.0290114239
 30
0.0
 11
140.3071607653
 21
130.7154522494
 31
0.0
  0
CIRCLE
  5
94
330
1F
100
AcDbEntity
  8
0
  6
Continuous
 62
     7
370
    25
100
AcDbCircle
 10
141.307160804
 20
132.8154522613
 30
0.0
 40
1.250000000000028
  0
ARC
  5
95
330
1F
100
AcDbEntity
  8
0
  6
Continuous
 62
     7
370
    25
100
AcDbCircle
 10
141.307160804
 20
132.8154522613
 30
0.0
 40
2.050000000000047
100
AcDbArc
 50
299.1973324212
 51
193.7343382028
  0
ARC
  5
96
330
1F
100
AcDbEntity
  8
0
  6
Continuous
 62
     7
370
    25
100
AcDbCircle
 10
141.307160804
 20
132.8154522613
 30
0.0
 40
2.050000000000034
100
AcDbArc
 50
202.0541703145
 51
240.7993317657
  0
LINE
  5
97
330
1F
100
AcDbEntity
  8
0
  6
Continuous
 62
     7
370
    25
100
AcDbLine
 10
154.3256654594
 20
94.0654517368
 30
0.0
 11
154.3256654594
 21
93.3654518083
 31
0.0
  0
LINE
  5
98
330
1F
100
AcDbEntity
  8
0
  6
Continuous
 62
     7
370
    25
100
AcDbLine
 10
154.3256654594
 20
94.0654517368
 30
0.0
 11
154.8164128516
 21
94.0654517368
 31
0.0
  0
LINE
  5
99
330
1F
100
AcDbEntity
  8
0
  6
Continuous
 62
     7
370
    25
100
AcDbLine
 10
154.8164128516
 20
94.0654517368
 30
0.0
 11
154.8164128516
 21
93.3654518083
 31
0.0
  0
LINE
  5
9A
330
1F
100
AcDbEntity
  8
0
  6
Continuous
 62
     7
370
    25
100
AcDbLine
 10
154.3256654594
 20
93.3654518083
 30
0.0
 11
154.8164128516
 21
93.3654518083
 31
0.0
  0
LINE
  5
9B
330
1F
100
AcDbEntity
  8
0
  6
Continuous
 62
     7
370
    25
100
AcDbLine
 10
155.797909126
 20
94.0654517368
 30
0.0
 11
155.797909126
 21
93.3654518083
 31
0.0
  0
LINE
  5
9C
330
1F
100
AcDbEntity
  8
0
  6
Continuous
 62
     7
370
    25
100
AcDbLine
 10
154.8164128516
 20
94.0654517368
 30
0.0
 11
155.797909126
 21
94.0654517368
 31
0.0
  0
LINE
  5
9D
330
1F
100
AcDbEntity
  8
0
  6
Continuous
 62
     7
370
    25
100
AcDbLine
 10
154.8164128516
 20
93.3654518083
 30
0.0
 11
155.797909126
 21
93.3654518083
 31
0.0
  0
LINE
  5
9E
330
1F
100
AcDbEntity
  8
0
  6
Continuous
 62
     7
370
    25
100
AcDbLine
 10
156.2886565182
 20
94.0654517368
 30
0.0
 11
156.2886565182
 21
93.3654518083
 31
0.0
  0
LINE
  5
9F
330
1F
100
AcDbEntity
  8
0
  6
Continuous
 62
     7
370
    25
100
AcDbLine
 10
155.797909126
 20
94.0654517368
 30
0.0
 11
156.2886565182
 21
94.0654517368
 31
0.0
  0
LINE
  5
A0
330
1F
100
AcDbEntity
  8
0
  6
Continuous
 62
     7
370
    25
100
AcDbLine
 10
155.797909126
 20
93.3654518083
 30
0.0
 11
156.2886565182
 21
93.3654518083
 31
0.0
  0
LINE
  5
A1
330
1F
100
AcDbEntity
  8
0
  6
Continuous
 62
     7
370
    25
100
AcDbLine
 10
155.807161257
 20
92.7154527262
 30
0.0
 11
154.8071607206
 21
92.7154527262
 31
0.0
  0
LINE
  5
A2
330
1F
100
AcDbEntity
  8
0
  6
Continuous
 62
     7
370
    25
100
AcDbLine
 10
126.3256653402
 20
94.0654517368
 30
0.0
 11
126.3256653402
 21
93.3654518083
 31
0.0
  0
LINE
  5
A3
330
1F
100
AcDbEntity
  8
0
  6
Continuous
 62
     7
370
    25
100
AcDbLine
 10
126.3256653402
 20
94.0654517368
 30
0.0
 11
126.8164127323
 21
94.0654517368
 31
0.0
  0
LINE
  5
A4
330
1F
100
AcDbEntity
  8
0
  6
Continuous
 62
     7
370
    25
100
AcDbLine
 10
126.8164127323
 20
94.0654517368
 30
0.0
 11
126.8164127323
 21
93.3654518083
 31
0.0
  0
LINE
  5
A5
330
1F
100
AcDbEntity
  8
0
  6
Continuous
 62
     7
370
    25
100
AcDbLine
 10
126.3256653402
 20
93.3654518083
 30
0.0
 11
126.8164127323
 21
93.3654518083
 31
0.0
  0
LINE
  5
A6
330
1F
100
AcDbEntity
  8
0
  6
Continuous
 62
     7
370
    25
100
AcDbLine
 10
127.7979082618
 20
94.0654517368
 30
0.0
 11
127.7979082618
 21
93.3654518083
 31
0.0
  0
LINE
  5
A7
330
1F
100
AcDbEntity
  8
0
  6
Continuous
 62
     7
370
    25
100
AcDbLine
 10
126.8164127323
 20
94.0654517368
 30
0.0
 11
127.7979082618
 21
94.0654517368
 31
0.0
  0
LINE
  5
A8
330
1F
100
AcDbEntity
  8
0
  6
Continuous
 62
     7
370
    25
100
AcDbLine
 10
126.8164127323
 20
93.3654518083
 30
0.0
 11
127.7979082618
 21
93.3654518083
 31
0.0
  0
LINE
  5
A9
330
1F
100
AcDbEntity
  8
0
  6
Continuous
 62
     7
370
    25
100
AcDbLine
 10
128.288656399
 20
94.0654517368
 30
0.0
 11
128.288656399
 21
93.3654518083
 31
0.0
  0
LINE
  5
AA
330
1F
100
AcDbEntity
  8
0
  6
Continuous
 62
     7
370
    25
100
AcDbLine
 10
127.7979082618
 20
94.0654517368
 30
0.0
 11
128.288656399
 21
94.0654517368
 31
0.0
  0
LINE
  5
AB
330
1F
100
AcDbEntity
  8
0
  6
Continuous
 62
     7
370
    25
100
AcDbLine
 10
127.7979082618
 20
93.3654518083
 30
0.0
 11
128.288656399
 21
93.3654518083
 31
0.0
  0
LINE
  5
AC
330
1F
100
AcDbEntity
  8
0
  6
Continuous
 62
     7
370
    25
100
AcDbLine
 10
127.8071611378
 20
92.7154527262
 30
0.0
 11
126.8071606014
 21
92.7154527262
 31
0.0
  0
LINE
  5
AD
330
1F
100
AcDbEntity
  8
0
  6
Continuous
 62
     7
370
    25
100
AcDbLine
 10
158.3571612093
 20
92.8154529289
 30
0.0
 11
158.3571612093
 21
93.2654516057
 31
0.0
  0
LINE
  5
AE
330
1F
100
AcDbEntity
  8
0
  6
Continuous
 62
     7
370
    25
100
AcDbLine
 10
158.3571612093
 20
92.8154529289
 30
0.0
 11
124.257160649
 21
92.8154529289
 31
0.0
  0
LINE
  5
AF
330
1F
100
AcDbEntity
  8
0
  6
Continuous
 62
     7
370
    25
100
AcDbLine
 10
124.257160649
 20
92.8154529289
 30
0.0
 11
124.257160649
 21
93.2654516057
 31
0.0
  0
LINE
  5
B0
330
1F
100
AcDbEntity
  8
0
  6
Continuous
 62
     7
370
    25
100
AcDbLine
 10
158.3571612093
 20
93.2654516057
 30
0.0
 11
124.257160649
 21
93.2654516057
 31
0.0
  0
LINE
  5
B1
330
1F
100
AcDbEntity
  8
0
  6
Continuous
 62
     7
370
    25
100
AcDbLine
 10
158.3571612093
 20
93.2654516057
 30
0.0
 11
158.3571612093
 21
93.2754517749
 31
0.0
  0
LINE
  5
B2
330
1F
100
AcDbEntity
  8
0
  6
Continuous
 62
     7
370
    25
100
AcDbLine
 10
124.257160649
 20
93.2754517749
 30
0.0
 11
124.257160649
 21
93.2654516057
 31
0.0
  0
SPLINE
  5
B3
330
1F
100
AcDbEntity
  8
0
  6
Continuous
 62
     7
370
    25
100
AcDbSpline
210
0.0
220
0.0
230
1.0
 70
     8
 71
     3
 72
    11
 73
     7
 74
     0
 42
0.000000001
 43
0.00000001
 40
0.0
 40
0.0
 40
0.0
 40
0.0
 40
0.2702616401845311
 40
0.5624289544687194
 40
0.7897347710095828
 40
0.9999999999999999
 40
0.9999999999999999
 40
0.9999999999999999
 40
0.9999999999999999
 10
158.3571612093317
 20
96.81539696011718
 30
0.0
 10
158.4223424974796
 20
96.80729179790974
 30
0.0
 10
158.5579882506798
 20
96.7904245210627
 30
0.0
 10
158.7122793425026
 20
96.66601127721131
 30
0.0
 10
158.8020896637081
 20
96.51128131646936
 30
0.0
 10
158.812269734405
 20
96.40602863859493
 30
0.0
 10
158.8171615455019
 20
96.3554517582434
 30
0.0
  0
LINE
  5
B4
330
1F
100
AcDbEntity
  8
0
  6
Continuous
 62
     7
370
    25
100
AcDbLine
 10
158.8171615455
 20
96.3554517582
 30
0.0
 11
158.3571612093
 21
96.3554517582
 31
0.0
  0
SPLINE
  5
B5
330
1F
100
AcDbEntity
  8
0
  6
Continuous
 62
     7
370
    25
100
AcDbSpline
210
0.0
220
0.0
230
1.0
 70
    24
 71
     3
 72
    11
 73
     7
 74
     0
 42
0.000000001
 43
0.00000001
 40
0.0
 40
0.0
 40
0.0
 40
0.0
 40
0.2500002676834591
 40
0.49999934046327
 40
0.7500001704822581
 40
1.0
 40
1.0
 40
1.0
 40
1.0
 10
158.3571612093317
 20
96.81539696011718
 30
0.0
 10
158.3571612093317
 20
96.80848651891077
 30
0.0
 10
158.3571612093317
 20
96.79466566952715
 30
0.0
 10
158.3571612093317
 20
96.68830561610058
 30
0.0
 10
158.3571612093317
 20
96.536270778327
 30
0.0
 10
158.3571612093317
 20
96.41572468453369
 30
0.0
 10
158.3571612093317
 20
96.35545175824339
 30
0.0
  0
LINE
  5
B6
330
1F
100
AcDbEntity
  8
0
  6
Continuous
 62
     7
370
    25
100
AcDbLine
 10
124.2671608183
 20
96.8154520944
 30
0.0
 11
158.3471610401
 21
96.8154520944
 31
0.0
  0
LINE
  5
B7
330
1F
100
AcDbEntity
  8
0
  6
Continuous
 62
     7
370
    25
100
AcDbLine
 10
158.3571612093
 20
96.8154520944
 30
0.0
 11
158.3471610401
 21
96.8154520944
 31
0.0
  0
LINE
  5
B8
330
1F
100
AcDbEntity
  8
0
  6
Continuous
 62
     7
370
    25
100
AcDbLine
 10
158.3571612093
 20
96.3554517582
 30
0.0
 11
124.257160649
 21
96.3554517582
 31
0.0
  0
SPLINE
  5
B9
330
1F
100
AcDbEntity
  8
0
  6
Continuous
 62
     7
370
    25
100
AcDbSpline
210
0.0
220
0.0
230
1.0
 70
    24
 71
     3
 72
    11
 73
     7
 74
     0
 42
0.000000001
 43
0.00000001
 40
0.0
 40
0.0
 40
0.0
 40
0.0
 40
0.2499984431012995
 40
0.4999989821570125
 40
0.7499995212127254
 40
0.9999999999999999
 40
0.9999999999999999
 40
0.9999999999999999
 40
0.9999999999999999
 10
124.257160649048
 20
96.8154520944136
 30
0.0
 10
124.257160649048
 20
96.80853777370613
 30
0.0
 10
124.257160649048
 20
96.79470907432247
 30
0.0
 10
124.257160649048
 20
96.68833443998533
 30
0.0
 10
124.257160649048
 20
96.53628341285919
 30
0.0
 10
124.257160649048
 20
96.41572897160492
 30
0.0
 10
124.257160649048
 20
96.3554517582434
 30
0.0
  0
LINE
  5
BA
330
1F
100
AcDbEntity
  8
0
  6
Continuous
 62
     7
370
    25
100
AcDbLine
 10
124.2571621392
 20
96.8153433159
 30
0.0
 11
124.2671608183
 21
96.8154520944
 31
0.0
  0
LINE
  5
BB
330
1F
100
AcDbEntity
  8
0
  6
Continuous
 62
     7
370
    25
100
AcDbLine
 10
158.3571612093
 20
96.3554517582
 30
0.0
 11
158.3571612093
 21
93.2754517749
 31
0.0
  0
LINE
  5
BC
330
1F
100
AcDbEntity
  8
0
  6
Continuous
 62
     7
370
    25
100
AcDbLine
 10
124.257160649
 20
93.2754517749
 30
0.0
 11
124.257160649
 21
96.3554517582
 31
0.0
  0
LINE
  5
BD
330
1F
100
AcDbEntity
  8
0
  6
Continuous
 62
     7
370
    25
100
AcDbLine
 10
158.8171615455
 20
93.2754517749
 30
0.0
 11
158.3571612093
 21
93.2754517749
 31
0.0
  0
LINE
  5
BE
330
1F
100
AcDbEntity
  8
0
  6
Continuous
 62
     7
370
    25
100
AcDbLine
 10
158.8171615455
 20
96.3554517582
 30
0.0
 11
158.8171615455
 21
93.2754517749
 31
0.0
  0
LINE
  5
BF
330
1F
100
AcDbEntity
  8
0
  6
Continuous
 62
     7
370
    25
100
AcDbLine
 10
123.7971603129
 20
96.3554517582
 30
0.0
 11
124.257160649
 21
96.3554517582
 31
0.0
  0
SPLINE
  5
C0
330
1F
100
AcDbEntity
  8
0
  6
Continuous
 62
     7
370
    25
100
AcDbSpline
210
0.0
220
0.0
230
1.0
 70
     8
 71
     3
 72
    11
 73
     7
 74
     0
 42
0.000000001
 43
0.00000001
 40
0.0
 40
0.0
 40
0.0
 40
0.0
 40
0.2702616401845311
 40
0.5624289544687194
 40
0.7897347710095828
 40
0.9999999999999999
 40
0.9999999999999999
 40
0.9999999999999999
 40
0.9999999999999999
 10
124.257160649048
 20
96.81539696011718
 30
0.0
 10
124.1919793609001
 20
96.80729179790974
 30
0.0
 10
124.0563336076999
 20
96.7904245210627
 30
0.0
 10
123.9020425158771
 20
96.66601127721131
 30
0.0
 10
123.8122321946717
 20
96.51128131646936
 30
0.0
 10
123.8020521239747
 20
96.40602863859493
 30
0.0
 10
123.7971603128778
 20
96.3554517582434
 30
0.0
  0
LINE
  5
C1
330
1F
100
AcDbEntity
  8
0
  6
Continuous
 62
     7
370
    25
100
AcDbLine
 10
123.7971603129
 20
93.2754517749
 30
0.0
 11
124.257160649
 21
93.2754517749
 31
0.0
  0
LINE
  5
C2
330
1F
100
AcDbEntity
  8
0
  6
Continuous
 62
     7
370
    25
100
AcDbLine
 10
123.7971603129
 20
96.3554517582
 30
0.0
 11
123.7971603129
 21
93.2754517749
 31
0.0
  0
LINE
  5
C3
330
1F
100
AcDbEntity
  8
0
  6
Continuous
 62
     7
370
    25
100
AcDbLine
 10
158.8071613762
 20
92.9154516414
 30
0.0
 11
158.3571612093
 21
92.9154516414
 31
0.0
  0
LINE
  5
C4
330
1F
100
AcDbEntity
  8
0
  6
Continuous
 62
     7
370
    25
100
AcDbLine
 10
158.8071613762
 20
92.9154516414
 30
0.0
 11
158.8071613762
 21
93.2754517749
 31
0.0
  0
LINE
  5
C5
330
1F
100
AcDbEntity
  8
0
  6
Continuous
 62
     7
370
    25
100
AcDbLine
 10
123.8071604822
 20
92.9154516414
 30
0.0
 11
124.257160649
 21
92.9154516414
 31
0.0
  0
LINE
  5
C6
330
1F
100
AcDbEntity
  8
0
  6
Continuous
 62
     7
370
    25
100
AcDbLine
 10
123.8071604822
 20
93.2754517749
 30
0.0
 11
123.8071604822
 21
92.9154516414
 31
0.0
  0
SPLINE
  5
C7
330
1F
100
AcDbEntity
  8
0
  6
Continuous
 62
     7
370
    25
100
AcDbSpline
210
0.0
220
0.0
230
1.0
 70
     8
 71
     3
 72
     9
 73
     5
 74
     0
 42
0.000000001
 43
0.00000001
 40
0.0
 40
0.0
 40
0.0
 40
0.0
 40
0.4999999489410422
 40
1.0
 40
1.0
 40
1.0
 40
1.0
 10
150.7642678174841
 20
112.1654522821682
 30
0.0
 10
150.7377845414826
 20
112.1681827967579
 30
0.0
 10
150.6848179840709
 20
112.173643826495
 30
0.0
 10
150.6435034040964
 20
112.2072352623518
 30
0.0
 10
150.6228461119997
 20
112.2240309819954
 30
0.0
  0
LINE
  5
C8
330
1F
100
AcDbEntity
  8
0
  6
Continuous
 62
     7
370
    25
100
AcDbLine
 10
149.8657397184
 20
112.9811377481
 30
0.0
 11
150.622846112
 21
112.224030982
 31
0.0
  0
SPLINE
  5
C9
330
1F
100
AcDbEntity
  8
0
  6
Continuous
 62
     7
370
    25
100
AcDbSpline
210
0.0
220
0.0
230
1.0
 70
     8
 71
     3
 72
     9
 73
     5
 74
     0
 42
0.000000001
 43
0.00000001
 40
0.0
 40
0.0
 40
0.0
 40
0.0
 40
0.500001036034645
 40
1.0
 40
1.0
 40
1.0
 40
1.0
 10
149.865739718424
 20
112.9811377481001
 30
0.0
 10
149.8489438128962
 20
113.0017949510669
 30
0.0
 10
149.815352071445
 20
113.0431092713942
 30
0.0
 10
149.8098913657745
 20
113.0960758477518
 30
0.0
 10
149.8071610185968
 20
113.1225590810555
 30
0.0
  0
LINE
  5
CA
330
1F
100
AcDbEntity
  8
0
  6
Continuous
 62
     7
370
    25
100
AcDbLine
 10
149.8071610186
 20
118.5083455623
 30
0.0
 11
149.8071610186
 21
113.1225590811
 31
0.0
  0
SPLINE
  5
CB
330
1F
100
AcDbEntity
  8
0
  6
Continuous
 62
     7
370
    25
100
AcDbSpline
210
0.0
220
0.0
230
1.0
 70
     8
 71
     3
 72
     9
 73
     5
 74
     0
 42
0.000000001
 43
0.00000001
 40
0.0
 40
0.0
 40
0.0
 40
0.0
 40
0.499998963965355
 40
1.0
 40
1.0
 40
1.0
 40
1.0
 10
149.8071610185968
 20
118.5083455622571
 30
0.0
 10
149.8098913657745
 20
118.5348287955608
 30
0.0
 10
149.815352071445
 20
118.5877953719185
 30
0.0
 10
149.8489438128962
 20
118.6291096922458
 30
0.0
 10
149.865739718424
 20
118.6497668952125
 30
0.0
  0
LINE
  5
CC
330
1F
100
AcDbEntity
  8
0
  6
Continuous
 62
     7
370
    25
100
AcDbLine
 10
150.622846112
 20
119.4068734751
 30
0.0
 11
149.8657397184
 21
118.6497668952
 31
0.0
  0
SPLINE
  5
CD
330
1F
100
AcDbEntity
  8
0
  6
Continuous
 62
     7
370
    25
100
AcDbSpline
210
0.0
220
0.0
230
1.0
 70
     8
 71
     3
 72
     9
 73
     5
 74
     0
 42
0.000000001
 43
0.00000001
 40
0.0
 40
0.0
 40
0.0
 40
0.0
 40
0.5000000510589578
 40
1.0
 40
1.0
 40
1.0
 40
1.0
 10
150.6228461119997
 20
119.4068734750527
 30
0.0
 10
150.6435034040964
 20
119.4236691946963
 30
0.0
 10
150.6848179840709
 20
119.4572606305531
 30
0.0
 10
150.7377845414826
 20
119.4627216602902
 30
0.0
 10
150.7642678174841
 20
119.4654521748799
 30
0.0
  0
LINE
  5
CE
330
1F
100
AcDbEntity
  8
0
  6
Continuous
 62
     7
370
    25
100
AcDbLine
 10
155.2500545237
 20
119.4654521749
 30
0.0
 11
150.7642678175
 21
119.4654521749
 31
0.0
  0
SPLINE
  5
CF
330
1F
100
AcDbEntity
  8
0
  6
Continuous
 62
     7
370
    25
100
AcDbSpline
210
0.0
220
0.0
230
1.0
 70
     8
 71
     3
 72
     9
 73
     5
 74
     0
 42
0.000000001
 43
0.00000001
 40
0.0
 40
0.0
 40
0.0
 40
0.0
 40
0.5000019335785434
 40
1.0
 40
1.0
 40
1.0
 40
1.0
 10
155.2500545236933
 20
119.4654521748799
 30
0.0
 10
155.2765378227131
 20
119.4627216982762
 30
0.0
 10
155.3295042159235
 20
119.4572607661871
 30
0.0
 10
155.3708184479771
 20
119.4236691954629
 30
0.0
 10
155.3914754841196
 20
119.4068734750527
 30
0.0
  0
LINE
  5
D0
330
1F
100
AcDbEntity
  8
0
  6
Continuous
 62
     7
370
    25
100
AcDbLine
 10
156.1485826228
 20
118.6497668952
 30
0.0
 11
155.3914754841
 21
119.4068734751
 31
0.0
  0
SPLINE
  5
D1
330
1F
100
AcDbEntity
  8
0
  6
Continuous
 62
     7
370
    25
100
AcDbSpline
210
0.0
220
0.0
230
1.0
 70
     8
 71
     3
 72
     9
 73
     5
 74
     0
 42
0.000000001
 43
0.00000001
 40
0.0
 40
0.0
 40
0.0
 40
0.0
 40
0.4999979181986273
 40
1.0
 40
1.0
 40
1.0
 40
1.0
 10
156.1485826227533
 20
118.6497668952125
 30
0.0
 10
156.1653778465162
 20
118.6291096066484
 30
0.0
 10
156.1989684338997
 20
118.587794857502
 30
0.0
 10
156.2044298554018
 20
118.534828734182
 30
0.0
 10
156.2071605775224
 20
118.5083455622571
 30
0.0
  0
LINE
  5
D2
330
1F
100
AcDbEntity
  8
0
  6
Continuous
 62
     7
370
    25
100
AcDbLine
 10
156.2071605775
 20
113.1225590811
 30
0.0
 11
156.2071605775
 21
118.5083455623
 31
0.0
  0
SPLINE
  5
D3
330
1F
100
AcDbEntity
  8
0
  6
Continuous
 62
     7
370
    25
100
AcDbSpline
210
0.0
220
0.0
230
1.0
 70
     8
 71
     3
 72
     9
 73
     5
 74
     0
 42
0.000000001
 43
0.00000001
 40
0.0
 40
0.0
 40
0.0
 40
0.0
 40
0.5000020818013727
 40
1.0
 40
1.0
 40
1.0
 40
1.0
 10
156.2071605775224
 20
113.1225590810555
 30
0.0
 10
156.2044298554018
 20
113.0960759091306
 30
0.0
 10
156.1989684338997
 20
113.0431097858107
 30
0.0
 10
156.1653778465162
 20
113.0017950366642
 30
0.0
 10
156.1485826227533
 20
112.9811377481001
 30
0.0
  0
LINE
  5
D4
330
1F
100
AcDbEntity
  8
0
  6
Continuous
 62
     7
370
    25
100
AcDbLine
 10
155.3914754841
 20
112.224030982
 30
0.0
 11
156.1485826228
 21
112.9811377481
 31
0.0
  0
SPLINE
  5
D5
330
1F
100
AcDbEntity
  8
0
  6
Continuous
 62
     7
370
    25
100
AcDbSpline
210
0.0
220
0.0
230
1.0
 70
     8
 71
     3
 72
     9
 73
     5
 74
     0
 42
0.000000001
 43
0.00000001
 40
0.0
 40
0.0
 40
0.0
 40
0.0
 40
0.4999980664214566
 40
1.0
 40
1.0
 40
1.0
 40
1.0
 10
155.3914754841196
 20
112.2240309819954
 30
0.0
 10
155.3708184479771
 20
112.2072352615852
 30
0.0
 10
155.3295042159234
 20
112.173643690861
 30
0.0
 10
155.2765378227131
 20
112.1681827587719
 30
0.0
 10
155.2500545236933
 20
112.1654522821682
 30
0.0
  0
LINE
  5
D6
330
1F
100
AcDbEntity
  8
0
  6
Continuous
 62
     7
370
    25
100
AcDbLine
 10
150.7642678175
 20
112.1654522822
 30
0.0
 11
155.2500545237
 21
112.1654522822
 31
0.0
  0
LWPOLYLINE
  5
D7
330
1F
100
AcDbEntity
  8
0
  6
Continuous
 62
     7
370
    25
100
AcDbPolyline
 90
        9
 70
   128
 43
0.0
 10
149.8657397184
 20
118.6497668952
 10
149.8243547234
 20
118.6911517039
 10
149.7845596824
 20
118.7309461862
 10
149.7478849444
 20
118.7676211104
 10
149.7157394144
 20
118.7997668267
 10
149.6893583987
 20
118.826148215
 10
149.6697551761
 20
118.8457512513
 10
149.6576837454
 20
118.8578228683
 10
149.6536075327
 20
118.8618988946
  0
LINE
  5
D8
330
1F
100
AcDbEntity
  8
0
  6
Continuous
 62
     7
370
    25
100
AcDbLine
 10
150.4107139263
 20
119.6190056608
 30
0.0
 11
149.6536075327
 21
118.8618988946
 31
0.0
  0
LWPOLYLINE
  5
D9
330
1F
100
AcDbEntity
  8
0
  6
Continuous
 62
     7
370
    25
100
AcDbPolyline
 90
        9
 70
   128
 43
0.0
 10
150.4107139263
 20
119.6190056608
 10
150.4147901389
 20
119.6149294481
 10
150.4268615696
 20
119.6028580174
 10
150.4464647922
 20
119.5832547948
 10
150.4728465531
 20
119.556873779
 10
150.5049920831
 20
119.5247278765
 10
150.541666821
 20
119.4880531386
 10
150.581461117
 20
119.44825847
 10
150.622846112
 20
119.4068734751
  0
LWPOLYLINE
  5
DA
330
1F
100
AcDbEntity
  8
0
  6
Continuous
 62
     7
370
    25
100
AcDbPolyline
 90
        9
 70
   128
 43
0.0
 10
155.3914754841
 20
119.4068734751
 10
155.4328604791
 20
119.44825847
 10
155.4726555202
 20
119.4880531386
 10
155.5093302581
 20
119.5247278765
 10
155.541475043
 20
119.556873779
 10
155.5678560588
 20
119.5832547948
 10
155.5874600265
 20
119.6028580174
 10
155.5995314572
 20
119.6149294481
 10
155.6036069248
 20
119.6190056608
  0
LINE
  5
DB
330
1F
100
AcDbEntity
  8
0
  6
Continuous
 62
     7
370
    25
100
AcDbLine
 10
156.3607140634
 20
118.8618988946
 30
0.0
 11
155.6036069248
 21
119.6190056608
 31
0.0
  0
LWPOLYLINE
  5
DC
330
1F
100
AcDbEntity
  8
0
  6
Continuous
 62
     7
370
    25
100
AcDbPolyline
 90
        9
 70
   128
 43
0.0
 10
156.3607140634
 20
118.8618988946
 10
156.3566385958
 20
118.8578228683
 10
156.3445671651
 20
118.8457512513
 10
156.3249631975
 20
118.826148215
 10
156.2985821817
 20
118.7997668267
 10
156.2664359066
 20
118.7676211104
 10
156.2297611687
 20
118.7309461862
 10
156.1899676177
 20
118.6911517039
 10
156.1485826228
 20
118.6497668952
  0
LWPOLYLINE
  5
DD
330
1F
100
AcDbEntity
  8
0
  6
Continuous
 62
     7
370
    25
100
AcDbPolyline
 90
        9
 70
   128
 43
0.0
 10
149.6536075327
 20
112.7690055624
 10
149.6576837454
 20
112.773081775
 10
149.6697551761
 20
112.7851532057
 10
149.6893583987
 20
112.8047564283
 10
149.7157394144
 20
112.8311378166
 10
149.7478849444
 20
112.8632833466
 10
149.7845596824
 20
112.8999582708
 10
149.8243547234
 20
112.9397527531
 10
149.8657397184
 20
112.9811377481
  0
LWPOLYLINE
  5
DE
330
1F
100
AcDbEntity
  8
0
  6
Continuous
 62
     7
370
    25
100
AcDbPolyline
 90
        9
 70
   128
 43
0.0
 10
150.622846112
 20
112.224030982
 10
150.581461117
 20
112.182645987
 10
150.541666821
 20
112.1428513185
 10
150.5049920831
 20
112.1061765805
 10
150.4728465531
 20
112.0740310505
 10
150.4464647922
 20
112.0476496622
 10
150.4268615696
 20
112.0280464396
 10
150.4147901389
 20
112.0159750089
 10
150.4107139263
 20
112.0118987963
  0
LINE
  5
DF
330
1F
100
AcDbEntity
  8
0
  6
Continuous
 62
     7
370
    25
100
AcDbLine
 10
149.6536075327
 20
112.7690055624
 30
0.0
 11
150.4107139263
 21
112.0118987963
 31
0.0
  0
LWPOLYLINE
  5
E0
330
1F
100
AcDbEntity
  8
0
  6
Continuous
 62
     7
370
    25
100
AcDbPolyline
 90
        9
 70
   128
 43
0.0
 10
155.6036069248
 20
112.0118987963
 10
155.5995314572
 20
112.0159750089
 10
155.5874600265
 20
112.0280464396
 10
155.5678560588
 20
112.0476496622
 10
155.541475043
 20
112.0740310505
 10
155.5093302581
 20
112.1061765805
 10
155.4726555202
 20
112.1428513185
 10
155.4328604791
 20
112.182645987
 10
155.3914754841
 20
112.224030982
  0
LWPOLYLINE
  5
E1
330
1F
100
AcDbEntity
  8
0
  6
Continuous
 62
     7
370
    25
100
AcDbPolyline
 90
        9
 70
   128
 43
0.0
 10
156.1485826228
 20
112.9811377481
 10
156.1899676177
 20
112.9397527531
 10
156.2297611687
 20
112.8999582708
 10
156.2664359066
 20
112.8632833466
 10
156.2985821817
 20
112.8311378166
 10
156.3249631975
 20
112.8047564283
 10
156.3445671651
 20
112.7851532057
 10
156.3566385958
 20
112.773081775
 10
156.3607140634
 20
112.7690055624
  0
LINE
  5
E2
330
1F
100
AcDbEntity
  8
0
  6
Continuous
 62
     7
370
    25
100
AcDbLine
 10
155.6036069248
 20
112.0118987963
 30
0.0
 11
156.3607140634
 21
112.7690055624
 31
0.0
  0
LINE
  5
E3
330
1F
100
AcDbEntity
  8
0
  6
Continuous
 62
     7
370
    25
100
AcDbLine
 10
150.7642678175
 20
119.4654521749
 30
0.0
 11
150.7642678175
 21
119.7654524103
 31
0.0
  0
LINE
  5
E4
330
1F
100
AcDbEntity
  8
0
  6
Continuous
 62
     7
370
    25
100
AcDbLine
 10
155.2500545237
 20
119.7654524103
 30
0.0
 11
150.7642678175
 21
119.7654524103
 31
0.0
  0
LINE
  5
E5
330
1F
100
AcDbEntity
  8
0
  6
Continuous
 62
     7
370
    25
100
AcDbLine
 10
155.2500545237
 20
119.7654524103
 30
0.0
 11
155.2500545237
 21
119.4654521749
 31
0.0
  0
LINE
  5
E6
330
1F
100
AcDbEntity
  8
0
  6
Continuous
 62
     7
370
    25
100
AcDbLine
 10
150.7642678175
 20
111.8654524193
 30
0.0
 11
150.7642678175
 21
112.1654522822
 31
0.0
  0
LINE
  5
E7
330
1F
100
AcDbEntity
  8
0
  6
Continuous
 62
     7
370
    25
100
AcDbLine
 10
155.2500545237
 20
112.1654522822
 30
0.0
 11
155.2500545237
 21
111.8654524193
 31
0.0
  0
LINE
  5
E8
330
1F
100
AcDbEntity
  8
0
  6
Continuous
 62
     7
370
    25
100
AcDbLine
 10
150.7642678175
 20
111.8654524193
 30
0.0
 11
155.2500545237
 21
111.8654524193
 31
0.0
  0
LINE
  5
E9
330
1F
100
AcDbEntity
  8
0
  6
Continuous
 62
     7
370
    25
100
AcDbLine
 10
156.2071605775
 20
118.5083455623
 30
0.0
 11
156.5071611855
 21
118.5083455623
 31
0.0
  0
LINE
  5
EA
330
1F
100
AcDbEntity
  8
0
  6
Continuous
 62
     7
370
    25
100
AcDbLine
 10
156.5071611855
 20
113.1225590811
 30
0.0
 11
156.5071611855
 21
118.5083455623
 31
0.0
  0
LINE
  5
EB
330
1F
100
AcDbEntity
  8
0
  6
Continuous
 62
     7
370
    25
100
AcDbLine
 10
156.5071611855
 20
113.1225590811
 30
0.0
 11
156.2071605775
 21
113.1225590811
 31
0.0
  0
LINE
  5
EC
330
1F
100
AcDbEntity
  8
0
  6
Continuous
 62
     7
370
    25
100
AcDbLine
 10
149.5071611557
 20
118.5083455623
 30
0.0
 11
149.8071610186
 21
118.5083455623
 31
0.0
  0
LINE
  5
ED
330
1F
100
AcDbEntity
  8
0
  6
Continuous
 62
     7
370
    25
100
AcDbLine
 10
149.8071610186
 20
113.1225590811
 30
0.0
 11
149.5071611557
 21
113.1225590811
 31
0.0
  0
LINE
  5
EE
330
1F
100
AcDbEntity
  8
0
  6
Continuous
 62
     7
370
    25
100
AcDbLine
 10
149.5071611557
 20
118.5083455623
 30
0.0
 11
149.5071611557
 21
113.1225590811
 31
0.0
  0
ARC
  5
EF
330
1F
100
AcDbEntity
  8
0
  6
Continuous
 62
     7
370
    25
100
AcDbCircle
 10
150.007160804
 20
118.5083454801
 30
0.0
 40
0.5
100
AcDbArc
 50
135.0
 51
180.000000022
  0
ARC
  5
F0
330
1F
100
AcDbEntity
  8
0
  6
Continuous
 62
     7
370
    25
100
AcDbCircle
 10
156.007160804
 20
118.5083454801
 30
0.0
 40
0.5
100
AcDbArc
 50
359.9999999882
 51
45.0000000228
  0
ARC
  5
F1
330
1F
100
AcDbEntity
  8
0
  6
Continuous
 62
     7
370
    25
100
AcDbCircle
 10
150.007160804
 20
113.1225590425
 30
0.0
 40
0.5
100
AcDbArc
 50
180.000000022
 51
224.9999999993
  0
ARC
  5
F2
330
1F
100
AcDbEntity
  8
0
  6
Continuous
 62
     7
370
    25
100
AcDbCircle
 10
156.007160804
 20
113.1225590425
 30
0.0
 40
0.5000000000000141
100
AcDbArc
 50
315.000000011
 51
359.9999999882
  0
ARC
  5
F3
330
1F
100
AcDbEntity
  8
0
  6
Continuous
 62
     7
370
    25
100
AcDbCircle
 10
150.7642675852
 20
112.3654522613
 30
0.0
 40
0.5
100
AcDbArc
 50
224.9999999993
 51
269.9999999765
  0
ARC
  5
F4
330
1F
100
AcDbEntity
  8
0
  6
Continuous
 62
     7
370
    25
100
AcDbCircle
 10
155.2500540228
 20
119.2654522613
 30
0.0
 40
0.500000000000004
100
AcDbArc
 50
45.0000000228
 51
90.0
  0
ARC
  5
F5
330
1F
100
AcDbEntity
  8
0
  6
Continuous
 62
     7
370
    25
100
AcDbCircle
 10
155.2500540228
 20
112.3654522613
 30
0.0
 40
0.500000000000004
100
AcDbArc
 50
269.9999999765
 51
315.000000011
  0
ARC
  5
F6
330
1F
100
AcDbEntity
  8
0
  6
Continuous
 62
     7
370
    25
100
AcDbCircle
 10
150.7642675852
 20
119.2654522613
 30
0.0
 40
0.5
100
AcDbArc
 50
90.0000000103
 51
134.9999999875
  0
LINE
  5
F7
330
1F
100
AcDbEntity
  8
0
  6
Continuous
 62
     7
370
    25
100
AcDbLine
 10
156.907160506
 20
120.6194472716
 30
0.0
 11
149.1071610901
 21
120.6194472716
 31
0.0
  0
ARC
  5
F8
330
1F
100
AcDbEntity
  8
0
  6
Continuous
 62
     7
370
    25
100
AcDbCircle
 10
156.9287885697
 20
120.1409719703
 30
0.0
 40
0.4789638682260528
100
AcDbArc
 50
2.8463924318
 51
92.5881248522
  0
LINE
  5
F9
330
1F
100
AcDbEntity
  8
0
  6
Continuous
 62
     7
370
    25
100
AcDbLine
 10
157.4071615193
 20
111.8821111724
 30
0.0
 11
157.4071615193
 21
120.1647565917
 31
0.0
  0
ARC
  5
FA
330
1F
100
AcDbEntity
  8
0
  6
Continuous
 62
     7
370
    25
100
AcDbCircle
 10
156.9287885697
 20
111.9058957938
 30
0.0
 40
0.478963868226067
100
AcDbArc
 50
267.4118751478
 51
357.1536075682
  0
LINE
  5
FB
330
1F
100
AcDbEntity
  8
0
  6
Continuous
 62
     7
370
    25
100
AcDbLine
 10
149.1071610901
 20
111.4274204925
 30
0.0
 11
156.907160506
 21
111.4274204925
 31
0.0
  0
ARC
  5
FC
330
1F
100
AcDbEntity
  8
0
  6
Continuous
 62
     7
370
    25
100
AcDbCircle
 10
149.0855327317
 20
111.9058946858
 30
0.0
 40
0.4789627747173011
100
AcDbArc
 50
182.8462662341
 51
272.5881660563
  0
LINE
  5
FD
330
1F
100
AcDbEntity
  8
0
  6
Continuous
 62
     7
370
    25
100
AcDbLine
 10
148.6071608219
 20
111.8821111724
 30
0.0
 11
148.6071608219
 21
120.1647565917
 31
0.0
  0
ARC
  5
FE
330
1F
100
AcDbEntity
  8
0
  6
Continuous
 62
     7
370
    25
100
AcDbCircle
 10
149.0855327317
 20
120.1409730782
 30
0.0
 40
0.4789627747173154
100
AcDbArc
 50
87.4118339437
 51
177.1537337659
  0
LINE
  5
FF
330
1F
100
AcDbEntity
  8
0
  6
Continuous
 62
     7
370
    25
100
AcDbLine
 10
157.4071615193
 20
111.6741297052
 30
0.0
 11
157.4071615193
 21
111.8821111724
 31
0.0
  0
ARC
  5
100
330
1F
100
AcDbEntity
  8
0
  6
Continuous
 62
     7
370
    25
100
AcDbCircle
 10
156.9287889397
 20
111.6979139196
 30
0.0
 40
0.4789634784661382
100
AcDbArc
 50
267.4118287327
 51
357.1536539834
  0
LINE
  5
101
330
1F
100
AcDbEntity
  8
0
  6
Continuous
 62
     7
370
    25
100
AcDbLine
 10
156.907160506
 20
111.2194390253
 30
0.0
 11
156.907160506
 21
111.4274204925
 31
0.0
  0
LINE
  5
102
330
1F
100
AcDbEntity
  8
0
  6
Continuous
 62
     7
370
    25
100
AcDbLine
 10
149.1071610901
 20
111.2194390253
 30
0.0
 11
156.907160506
 21
111.2194390253
 31
0.0
  0
LINE
  5
103
330
1F
100
AcDbEntity
  8
0
  6
Continuous
 62
     7
370
    25
100
AcDbLine
 10
149.1071610901
 20
111.2194390253
 30
0.0
 11
149.1071610901
 21
111.4274204925
 31
0.0
  0
ARC
  5
104
330
1F
100
AcDbEntity
  8
0
  6
Continuous
 62
     7
370
    25
100
AcDbCircle
 10
149.0855323617
 20
111.6979128117
 30
0.0
 40
0.4789623849620231
100
AcDbArc
 50
182.8462198193
 51
272.5882124712
  0
LINE
  5
105
330
1F
100
AcDbEntity
  8
0
  6
Continuous
 62
     7
370
    25
100
AcDbLine
 10
148.6071608219
 20
111.6741297052
 30
0.0
 11
148.6071608219
 21
111.8821111724
 31
0.0
  0
CIRCLE
  5
106
330
1F
100
AcDbEntity
  8
0
  6
Continuous
 62
     7
370
    25
100
AcDbCircle
 10
131.607160804
 20
121.2154522613
 30
0.0
 40
2.75
  0
CIRCLE
  5
107
330
1F
100
AcDbEntity
  8
0
  6
Continuous
 62
     7
370
    25
100
AcDbCircle
 10
131.607160804
 20
121.2154522613
 30
0.0
 40
2.060000000000002
  0
CIRCLE
  5
108
330
1F
100
AcDbEntity
  8
0
  6
Continuous
 62
     7
370
    25
100
AcDbCircle
 10
131.607160804
 20
109.0154522613
 30
0.0
 40
2.75
  0
CIRCLE
  5
109
330
1F
100
AcDbEntity
  8
0
  6
Continuous
 62
     7
370
    25
100
AcDbCircle
 10
131.607160804
 20
109.0154522613
 30
0.0
 40
2.060000000000002
  0
LINE
  5
10A
330
1F
100
AcDbEntity
  8
0
  6
Continuous
 62
     7
370
    25
100
AcDbLine
 10
134.3571606282
 20
106.2654526189
 30
0.0
 11
134.3571606282
 21
111.7654522166
 31
0.0
  0
LINE
  5
10B
330
1F
100
AcDbEntity
  8
0
  6
Continuous
 62
     7
370
    25
100
AcDbLine
 10
128.8571610305
 20
106.2654526189
 30
0.0
 11
134.3571606282
 21
106.2654526189
 31
0.0
  0
LINE
  5
10C
330
1F
100
AcDbEntity
  8
0
  6
Continuous
 62
     7
370
    25
100
AcDbLine
 10
128.8571610305
 20
111.7654522166
 30
0.0
 11
128.8571610305
 21
106.2654526189
 31
0.0
  0
LINE
  5
10D
330
1F
100
AcDbEntity
  8
0
  6
Continuous
 62
     7
370
    25
100
AcDbLine
 10
134.3571606282
 20
111.7654522166
 30
0.0
 11
128.8571610305
 21
111.7654522166
 31
0.0
  0
LINE
  5
10E
330
1F
100
AcDbEntity
  8
0
  6
Continuous
 62
     7
370
    25
100
AcDbLine
 10
134.3571606282
 20
123.9654519812
 30
0.0
 11
128.8571610305
 21
123.9654519812
 31
0.0
  0
LINE
  5
10F
330
1F
100
AcDbEntity
  8
0
  6
Continuous
 62
     7
370
    25
100
AcDbLine
 10
128.8571610305
 20
123.9654519812
 30
0.0
 11
128.8571610305
 21
118.4654521972
 31
0.0
  0
LINE
  5
110
330
1F
100
AcDbEntity
  8
0
  6
Continuous
 62
     7
370
    25
100
AcDbLine
 10
134.3571606282
 20
118.4654521972
 30
0.0
 11
134.3571606282
 21
123.9654519812
 31
0.0
  0
LINE
  5
111
330
1F
100
AcDbEntity
  8
0
  6
Continuous
 62
     7
370
    25
100
AcDbLine
 10
128.8571610305
 20
118.4654521972
 30
0.0
 11
134.3571606282
 21
118.4654521972
 31
0.0
  0
LINE
  5
112
330
1F
100
AcDbEntity
  8
0
  6
Continuous
 62
     7
370
    25
100
AcDbLine
 10
128.3571607623
 20
105.815452452
 30
0.0
 11
128.3571607623
 21
124.8154522136
 31
0.0
  0
LINE
  5
113
330
1F
100
AcDbEntity
  8
0
  6
Continuous
 62
     7
370
    25
100
AcDbLine
 10
128.3571607623
 20
124.8154522136
 30
0.0
 11
134.4071607295
 21
124.8154522136
 31
0.0
  0
LINE
  5
114
330
1F
100
AcDbEntity
  8
0
  6
Continuous
 62
     7
370
    25
100
AcDbLine
 10
134.4071607295
 20
105.815452452
 30
0.0
 11
134.4071607295
 21
124.8154522136
 31
0.0
  0
LINE
  5
115
330
1F
100
AcDbEntity
  8
0
  6
Continuous
 62
     7
370
    25
100
AcDbLine
 10
128.3571607623
 20
105.815452452
 30
0.0
 11
134.4071607295
 21
105.815452452
 31
0.0
  0
LINE
  5
116
330
1F
100
AcDbEntity
  8
0
  6
Continuous
 62
     7
370
    25
100
AcDbLine
 10
128.3571607623
 20
107.0154519037
 30
0.0
 11
123.9671602104
 21
107.0154519037
 31
0.0
  0
LINE
  5
117
330
1F
100
AcDbEntity
  8
0
  6
Continuous
 62
     7
370
    25
100
AcDbLine
 10
128.3571607623
 20
110.815452154
 30
0.0
 11
123.9671602104
 21
110.815452154
 31
0.0
  0
LINE
  5
118
330
1F
100
AcDbEntity
  8
0
  6
Continuous
 62
     7
370
    25
100
AcDbLine
 10
123.9671602104
 20
107.0154519037
 30
0.0
 11
123.9671602104
 21
110.815452154
 31
0.0
  0
LINE
  5
119
330
1F
100
AcDbEntity
  8
0
  6
Continuous
 62
     7
370
    25
100
AcDbLine
 10
139.407160804
 20
110.815452154
 30
0.0
 11
134.4071607295
 21
110.815452154
 31
0.0
  0
LINE
  5
11A
330
1F
100
AcDbEntity
  8
0
  6
Continuous
 62
     7
370
    25
100
AcDbLine
 10
139.407160804
 20
107.0154519037
 30
0.0
 11
139.407160804
 21
110.815452154
 31
0.0
  0
LINE
  5
11B
330
1F
100
AcDbEntity
  8
0
  6
Continuous
 62
     7
370
    25
100
AcDbLine
 10
139.407160804
 20
107.0154519037
 30
0.0
 11
134.4071607295
 21
107.0154519037
 31
0.0
  0
LINE
  5
11C
330
1F
100
AcDbEntity
  8
0
  6
Continuous
 62
     7
370
    25
100
AcDbLine
 10
128.8071609292
 20
124.8154522136
 30
0.0
 11
128.8071609292
 21
126.2807646051
 31
0.0
  0
LINE
  5
11D
330
1F
100
AcDbEntity
  8
0
  6
Continuous
 62
     7
370
    25
100
AcDbLine
 10
136.707160734
 20
126.2807646051
 30
0.0
 11
128.8071609292
 21
126.2807646051
 31
0.0
  0
LINE
  5
11E
330
1F
100
AcDbEntity
  8
0
  6
Continuous
 62
     7
370
    25
100
AcDbLine
 10
136.707160734
 20
110.815452154
 30
0.0
 11
136.707160734
 21
126.2807646051
 31
0.0
  0
LINE
  5
11F
330
1F
100
AcDbEntity
  8
0
  6
Continuous
 62
     7
370
    25
100
AcDbLine
 10
126.4671608064
 20
110.815452154
 30
0.0
 11
126.4671608064
 21
126.1931115047
 31
0.0
  0
LINE
  5
120
330
1F
100
AcDbEntity
  8
0
  6
Continuous
 62
     7
370
    25
100
AcDbLine
 10
126.4671608064
 20
126.1931115047
 30
0.0
 11
128.8071609292
 21
126.2807646051
 31
0.0
  0
LINE
  5
121
330
1F
100
AcDbEntity
  8
0
  6
Continuous
 62
     7
370
    25
100
AcDbLine
 10
123.9671602104
 20
125.9368748621
 30
0.0
 11
126.4671608064
 21
126.030565168
 31
0.0
  0
LINE
  5
122
330
1F
100
AcDbEntity
  8
0
  6
Continuous
 62
     7
370
    25
100
AcDbLine
 10
123.9671602104
 20
110.815452154
 30
0.0
 11
123.9671602104
 21
125.9368748621
 31
0.0
  0
LINE
  5
123
330
1F
100
AcDbEntity
  8
0
  6
Continuous
 62
     7
370
    25
100
AcDbLine
 10
136.707160734
 20
125.7444785193
 30
0.0
 11
139.407160804
 21
125.6432355598
 31
0.0
  0
LINE
  5
124
330
1F
100
AcDbEntity
  8
0
  6
Continuous
 62
     7
370
    25
100
AcDbLine
 10
139.407160804
 20
125.6432355598
 30
0.0
 11
139.407160804
 21
110.815452154
 31
0.0
  0
LINE
  5
125
330
1F
100
AcDbEntity
  8
0
  6
Continuous
 62
     7
370
    25
100
AcDbLine
 10
130.9071607146
 20
129.3827013329
 30
0.0
 11
130.9071607146
 21
128.8111538843
 31
0.0
  0
LINE
  5
126
330
1F
100
AcDbEntity
  8
0
  6
Continuous
 62
     7
370
    25
100
AcDbLine
 10
131.6071606431
 20
129.6684758023
 30
0.0
 11
130.9071607146
 21
129.3827013329
 31
0.0
  0
LINE
  5
127
330
1F
100
AcDbEntity
  8
0
  6
Continuous
 62
     7
370
    25
100
AcDbLine
 10
132.3071605716
 20
129.3827013329
 30
0.0
 11
131.6071606431
 21
129.6684758023
 31
0.0
  0
LINE
  5
128
330
1F
100
AcDbEntity
  8
0
  6
Continuous
 62
     7
370
    25
100
AcDbLine
 10
132.3071605716
 20
128.8111538843
 30
0.0
 11
132.3071605716
 21
129.3827013329
 31
0.0
  0
LINE
  5
129
330
1F
100
AcDbEntity
  8
0
  6
Continuous
 62
     7
370
    25
100
AcDbLine
 10
131.6071606431
 20
128.5253794149
 30
0.0
 11
132.3071605716
 21
128.8111538843
 31
0.0
  0
LINE
  5
12A
330
1F
100
AcDbEntity
  8
0
  6
Continuous
 62
     7
370
    25
100
AcDbLine
 10
130.9071607146
 20
128.8111538843
 30
0.0
 11
131.6071606431
 21
128.5253794149
 31
0.0
  0
LINE
  5
12B
330
1F
100
AcDbEntity
  8
0
  6
Continuous
 62
     7
370
    25
100
AcDbLine
 10
130.9071607146
 20
128.8111538843
 30
0.0
 11
130.9071607146
 21
127.4322957948
 31
0.0
  0
LINE
  5
12C
330
1F
100
AcDbEntity
  8
0
  6
Continuous
 62
     7
370
    25
100
AcDbLine
 10
131.6071606431
 20
128.5253794149
 30
0.0
 11
131.6071606431
 21
127.1465220705
 31
0.0
  0
LINE
  5
12D
330
1F
100
AcDbEntity
  8
0
  6
Continuous
 62
     7
370
    25
100
AcDbLine
 10
130.9071607146
 20
127.4322957948
 30
0.0
 11
131.6071606431
 21
127.1465220705
 31
0.0
  0
LINE
  5
12E
330
1F
100
AcDbEntity
  8
0
  6
Continuous
 62
     7
370
    25
100
AcDbLine
 10
132.3071605716
 20
128.8111538843
 30
0.0
 11
132.3071605716
 21
127.4322957948
 31
0.0
  0
LINE
  5
12F
330
1F
100
AcDbEntity
  8
0
  6
Continuous
 62
     7
370
    25
100
AcDbLine
 10
131.6071606431
 20
127.1465220705
 30
0.0
 11
132.3071605716
 21
127.4322957948
 31
0.0
  0
LINE
  5
130
330
1F
100
AcDbEntity
  8
0
  6
Continuous
 62
     7
370
    25
100
AcDbLine
 10
128.8071609292
 20
98.8154516772
 30
0.0
 11
128.8071609292
 21
105.815452452
 31
0.0
  0
LINE
  5
131
330
1F
100
AcDbEntity
  8
0
  6
Continuous
 62
     7
370
    25
100
AcDbLine
 10
136.707160734
 20
104.2125710503
 30
0.0
 11
136.707160734
 21
107.0154519037
 31
0.0
  0
LINE
  5
132
330
1F
100
AcDbEntity
  8
0
  6
Continuous
 62
     7
370
    25
100
AcDbLine
 10
126.4671608064
 20
98.9380867437
 30
0.0
 11
126.4671608064
 21
107.0154519037
 31
0.0
  0
LINE
  5
133
330
1F
100
AcDbEntity
  8
0
  6
Continuous
 62
     7
370
    25
100
AcDbLine
 10
123.1671600792
 20
101.4154524759
 30
0.0
 11
123.1671600792
 21
130.6154520467
 31
0.0
  0
LINE
  5
134
330
1F
100
AcDbEntity
  8
0
  6
Continuous
 62
     7
370
    25
100
AcDbLine
 10
125.3571613881
 20
132.1538881615
 30
0.0
 11
126.4671608064
 21
132.210087891
 31
0.0
  0
LINE
  5
135
330
1F
100
AcDbEntity
  8
0
  6
Continuous
 62
     7
370
    25
100
AcDbLine
 10
123.9671602104
 20
128.7787289575
 30
0.0
 11
123.9671602104
 21
132.7344329313
 31
0.0
  0
LINE
  5
136
330
1F
100
AcDbEntity
  8
0
  6
Continuous
 62
     7
370
    25
100
AcDbLine
 10
123.9671602104
 20
99.2964715913
 30
0.0
 11
123.9671602104
 21
107.0154519037
 31
0.0
  0
LINE
  5
137
330
1F
100
AcDbEntity
  8
0
  6
Continuous
 62
     7
370
    25
100
AcDbLine
 10
123.9671602104
 20
126.6574093357
 30
0.0
 11
139.407160804
 21
126.6574093357
 31
0.0
  0
LINE
  5
138
330
1F
100
AcDbEntity
  8
0
  6
Continuous
 62
     7
370
    25
100
AcDbLine
 10
139.407160804
 20
125.6432355598
 30
0.0
 11
139.407160804
 21
126.6574093357
 31
0.0
  0
LINE
  5
139
330
1F
100
AcDbEntity
  8
0
  6
Continuous
 62
     7
370
    25
100
AcDbLine
 10
123.9671602104
 20
125.9368748621
 30
0.0
 11
123.9671602104
 21
126.6574093357
 31
0.0
  0
LINE
  5
13A
330
1F
100
AcDbEntity
  8
0
  6
Continuous
 62
     7
370
    25
100
AcDbLine
 10
123.9671602104
 20
128.7787289575
 30
0.0
 11
130.9071607146
 21
128.7787289575
 31
0.0
  0
LINE
  5
13B
330
1F
100
AcDbEntity
  8
0
  6
Continuous
 62
     7
370
    25
100
AcDbLine
 10
132.3071605716
 20
128.7787289575
 30
0.0
 11
139.407160804
 21
128.7787289575
 31
0.0
  0
LINE
  5
13C
330
1F
100
AcDbEntity
  8
0
  6
Continuous
 62
     7
370
    25
100
AcDbLine
 10
139.407160804
 20
126.6574093357
 30
0.0
 11
139.407160804
 21
128.7787289575
 31
0.0
  0
LINE
  5
13D
330
1F
100
AcDbEntity
  8
0
  6
Continuous
 62
     7
370
    25
100
AcDbLine
 10
123.9671602104
 20
126.6574093357
 30
0.0
 11
123.9671602104
 21
128.7787289575
 31
0.0
  0
LINE
  5
13E
330
1F
100
AcDbEntity
  8
0
  6
Continuous
 62
     7
370
    25
100
AcDbLine
 10
118.307161257
 20
102.3427159742
 30
0.0
 11
118.307161257
 21
129.6881885484
 31
0.0
  0
LINE
  5
13F
330
1F
100
AcDbEntity
  8
0
  6
Continuous
 62
     7
370
    25
100
AcDbLine
 10
136.707160734
 20
131.8236530975
 30
0.0
 11
137.8571608294
 21
131.7654283002
 31
0.0
  0
LINE
  5
140
330
1F
100
AcDbEntity
  8
0
  6
Continuous
 62
     7
370
    25
100
AcDbLine
 10
139.407160804
 20
107.0154519037
 30
0.0
 11
139.407160804
 21
105.5408575789
 31
0.0
  0
LINE
  5
141
330
1F
100
AcDbEntity
  8
0
  6
Continuous
 62
     7
370
    25
100
AcDbLine
 10
139.407160804
 20
132.3220492557
 30
0.0
 11
139.407160804
 21
128.7787289575
 31
0.0
  0
LINE
  5
142
330
1F
100
AcDbEntity
  8
0
  6
Continuous
 62
     7
370
    25
100
AcDbLine
 10
128.8071609292
 20
128.7787289575
 30
0.0
 11
128.8071609292
 21
132.54821461
 31
0.0
  0
LINE
  5
143
330
1F
100
AcDbEntity
  8
0
  6
Continuous
 62
     7
370
    25
100
AcDbLine
 10
126.4671608064
 20
128.7787289575
 30
0.0
 11
126.4671608064
 21
132.4297414378
 31
0.0
  0
LINE
  5
144
330
1F
100
AcDbEntity
  8
0
  6
Continuous
 62
     7
370
    25
100
AcDbLine
 10
126.4671608064
 20
132.4297414378
 30
0.0
 11
128.8071609292
 21
132.54821461
 31
0.0
  0
LINE
  5
145
330
1F
100
AcDbEntity
  8
0
  6
Continuous
 62
     7
370
    25
100
AcDbLine
 10
129.3071604524
 20
132.54821461
 30
0.0
 11
128.8071609292
 21
132.54821461
 31
0.0
  0
LINE
  5
146
330
1F
100
AcDbEntity
  8
0
  6
Continuous
 62
     7
370
    25
100
AcDbLine
 10
133.9071608338
 20
132.4482173875
 30
0.0
 11
129.3071604524
 21
132.4482173875
 31
0.0
  0
LINE
  5
147
330
1F
100
AcDbEntity
  8
0
  6
Continuous
 62
     7
370
    25
100
AcDbLine
 10
136.707160734
 20
132.54821461
 30
0.0
 11
133.9071608338
 21
132.54821461
 31
0.0
  0
LINE
  5
148
330
1F
100
AcDbEntity
  8
0
  6
Continuous
 62
     7
370
    25
100
AcDbLine
 10
136.707160734
 20
128.7787289575
 30
0.0
 11
136.707160734
 21
132.54821461
 31
0.0
  0
LINE
  5
149
330
1F
100
AcDbEntity
  8
0
  6
Continuous
 62
     7
370
    25
100
AcDbLine
 10
129.3071604524
 20
134.1097102717
 30
0.0
 11
133.9071608338
 21
134.1097102717
 31
0.0
  0
LINE
  5
14A
330
1F
100
AcDbEntity
  8
0
  6
Continuous
 62
     7
370
    25
100
AcDbLine
 10
129.3071604524
 20
134.1097102717
 30
0.0
 11
129.3071604524
 21
134.640433009
 31
0.0
  0
LINE
  5
14B
330
1F
100
AcDbEntity
  8
0
  6
Continuous
 62
     7
370
    25
100
AcDbLine
 10
129.3071604524
 20
134.640433009
 30
0.0
 11
133.9071608338
 21
134.640433009
 31
0.0
  0
LINE
  5
14C
330
1F
100
AcDbEntity
  8
0
  6
Continuous
 62
     7
370
    25
100
AcDbLine
 10
133.9071608338
 20
134.1097102717
 30
0.0
 11
133.9071608338
 21
134.640433009
 31
0.0
  0
LINE
  5
14D
330
1F
100
AcDbEntity
  8
0
  6
Continuous
 62
     7
370
    25
100
AcDbLine
 10
129.3071604524
 20
132.4482173875
 30
0.0
 11
129.3071604524
 21
134.1097102717
 31
0.0
  0
LINE
  5
14E
330
1F
100
AcDbEntity
  8
0
  6
Continuous
 62
     7
370
    25
100
AcDbLine
 10
133.9071608338
 20
132.4482173875
 30
0.0
 11
133.9071608338
 21
134.1097102717
 31
0.0
  0
LINE
  5
14F
330
1F
100
AcDbEntity
  8
0
  6
Continuous
 62
     7
370
    25
100
AcDbLine
 10
125.3571613881
 20
133.8378058032
 30
0.0
 11
129.3071604524
 21
133.8378058032
 31
0.0
  0
LINE
  5
150
330
1F
100
AcDbEntity
  8
0
  6
Continuous
 62
     7
370
    25
100
AcDbLine
 10
125.3571613881
 20
133.8378058032
 30
0.0
 11
125.3571613881
 21
134.2154518918
 31
0.0
  0
LINE
  5
151
330
1F
100
AcDbEntity
  8
0
  6
Continuous
 62
     7
370
    25
100
AcDbLine
 10
133.9071608338
 20
133.8378058032
 30
0.0
 11
137.8571608294
 21
133.8378058032
 31
0.0
  0
LINE
  5
152
330
1F
100
AcDbEntity
  8
0
  6
Continuous
 62
     7
370
    25
100
AcDbLine
 10
137.8571608294
 20
133.8378058032
 30
0.0
 11
137.8571608294
 21
134.2154518918
 31
0.0
  0
LINE
  5
153
330
1F
100
AcDbEntity
  8
0
  6
Continuous
 62
     7
370
    25
100
AcDbLine
 10
137.8571608294
 20
131.7654283002
 30
0.0
 11
137.8571608294
 21
133.8378058032
 31
0.0
  0
LINE
  5
154
330
1F
100
AcDbEntity
  8
0
  6
Continuous
 62
     7
370
    25
100
AcDbLine
 10
125.3571613881
 20
132.1538881615
 30
0.0
 11
125.3571613881
 21
133.8378058032
 31
0.0
  0
LINE
  5
155
330
1F
100
AcDbEntity
  8
0
  6
Continuous
 62
     7
370
    25
100
AcDbLine
 10
139.7071608066
 20
108.2798206464
 30
0.0
 11
140.207160842
 21
108.2798206464
 31
0.0
  0
LINE
  5
156
330
1F
100
AcDbEntity
  8
0
  6
Continuous
 62
     7
370
    25
100
AcDbLine
 10
140.207160842
 20
130.6486339525
 30
0.0
 11
139.407160804
 21
130.6486339525
 31
0.0
  0
LINE
  5
157
330
1F
100
AcDbEntity
  8
0
  6
Continuous
 62
     7
370
    25
100
AcDbLine
 10
140.207160842
 20
108.2798206464
 30
0.0
 11
140.207160842
 21
130.6486339525
 31
0.0
  0
SPLINE
  5
158
330
1F
100
AcDbEntity
  8
0
  6
Continuous
 62
     7
370
    25
100
AcDbSpline
210
0.0
220
0.0
230
1.0
 70
     8
 71
     3
 72
     8
 73
     4
 74
     0
 42
0.000000001
 43
0.00000001
 40
0.0
 40
0.0
 40
0.0
 40
0.0
 40
1.0
 40
1.0
 40
1.0
 40
1.0
 10
144.6829697874113
 20
111.408681242077
 30
0.0
 10
143.1911191834541
 20
111.3333776810824
 30
0.0
 10
141.6991776608287
 20
111.2596909629978
 30
0.0
 10
140.2071608040175
 20
111.1874091794772
 30
0.0
  0
LWPOLYLINE
  5
159
330
1F
100
AcDbEntity
  8
0
  6
Continuous
 62
     7
370
    25
100
AcDbPolyline
 90
        3
 70
   128
 43
0.0
 10
140.207160842
 20
129.3421165303
 10
141.7848290134
 20
129.3144271925
 10
143.3071608845
 20
129.2877079204
  0
LINE
  5
15A
330
1F
100
AcDbEntity
  8
0
  6
Continuous
 62
     7
370
    25
100
AcDbLine
 10
145.5071608726
 20
129.3229402259
 30
0.0
 11
145.5071608726
 21
109.7911154136
 31
0.0
  0
LINE
  5
15B
330
1F
100
AcDbEntity
  8
0
  6
Continuous
 62
     7
370
    25
100
AcDbLine
 10
149.7071608159
 20
126.4900044755
 30
0.0
 11
149.7071608159
 21
120.6194472716
 31
0.0
  0
LINE
  5
15C
330
1F
100
AcDbEntity
  8
0
  6
Continuous
 62
     7
370
    25
100
AcDbLine
 10
149.7071608159
 20
111.2194390253
 30
0.0
 11
149.7071608159
 21
105.5409000472
 31
0.0
  0
LINE
  5
15D
330
1F
100
AcDbEntity
  8
0
  6
Continuous
 62
     7
370
    25
100
AcDbLine
 10
140.0571608174
 20
98.7654523209
 30
0.0
 11
147.2571610663
 21
98.7654523209
 31
0.0
  0
LINE
  5
15E
330
1F
100
AcDbEntity
  8
0
  6
Continuous
 62
     7
370
    25
100
AcDbLine
 10
147.2571610663
 20
101.8654526428
 30
0.0
 11
140.0571608174
 21
101.8654526428
 31
0.0
  0
LINE
  5
15F
330
1F
100
AcDbEntity
  8
0
  6
Continuous
 62
     7
370
    25
100
AcDbLine
 10
147.2571610663
 20
98.7654523209
 30
0.0
 11
147.2571610663
 21
101.8654526428
 31
0.0
  0
LINE
  5
160
330
1F
100
AcDbEntity
  8
0
  6
Continuous
 62
     7
370
    25
100
AcDbLine
 10
140.0571608174
 20
101.8654526428
 30
0.0
 11
140.0571608174
 21
98.7654523209
 31
0.0
  0
LINE
  5
161
330
1F
100
AcDbEntity
  8
0
  6
Continuous
 62
     7
370
    25
100
AcDbLine
 10
151.5071607385
 20
98.0154515461
 30
0.0
 11
144.6829698238
 21
111.4086811647
 31
0.0
  0
LINE
  5
162
330
1F
100
AcDbEntity
  8
0
  6
Continuous
 62
     7
370
    25
100
AcDbLine
 10
151.5071607385
 20
96.8154520944
 30
0.0
 11
151.5071607385
 21
98.0154515461
 31
0.0
  0
LINE
  5
163
330
1F
100
AcDbEntity
  8
0
  6
Continuous
 62
     7
370
    25
100
AcDbLine
 10
131.5071604404
 20
96.8154520944
 30
0.0
 11
131.5071604404
 21
98.0154515461
 31
0.0
  0
LINE
  5
164
330
1F
100
AcDbEntity
  8
0
  6
Continuous
 62
     7
370
    25
100
AcDbLine
 10
139.7071608066
 20
107.7878319875
 30
0.0
 11
139.407160804
 21
107.4303054467
 31
0.0
  0
LINE
  5
165
330
1F
100
AcDbEntity
  8
0
  6
Continuous
 62
     7
370
    25
100
AcDbLine
 10
137.7056761834
 20
105.4025554315
 30
0.0
 11
136.707160734
 21
104.2125710503
 31
0.0
  0
LINE
  5
166
330
1F
100
AcDbEntity
  8
0
  6
Continuous
 62
     7
370
    25
100
AcDbLine
 10
136.6971421245
 20
104.2006307498
 30
0.0
 11
131.5071604404
 21
98.0154515461
 31
0.0
  0
LINE
  5
167
330
1F
100
AcDbEntity
  8
0
  6
Continuous
 62
     7
370
    25
100
AcDbLine
 10
139.7071608066
 20
108.2798206464
 30
0.0
 11
139.7071608066
 21
107.7878319875
 31
0.0
  0
LINE
  5
168
330
1F
100
AcDbEntity
  8
0
  6
Continuous
 62
     7
370
    25
100
AcDbLine
 10
149.9071604762
 20
107.6098741249
 30
0.0
 11
149.9071604762
 21
111.2194390253
 31
0.0
  0
LINE
  5
169
330
1F
100
AcDbEntity
  8
0
  6
Continuous
 62
     7
370
    25
100
AcDbLine
 10
149.9071604762
 20
120.6194472716
 30
0.0
 11
149.9071604762
 21
124.4210303978
 31
0.0
  0
LINE
  5
16A
330
1F
100
AcDbEntity
  8
0
  6
Continuous
 62
     7
370
    25
100
AcDbLine
 10
149.9071604762
 20
105.5409000472
 30
0.0
 11
149.9071604762
 21
107.215452309
 31
0.0
  0
LINE
  5
16B
330
1F
100
AcDbEntity
  8
0
  6
Continuous
 62
     7
370
    25
100
AcDbLine
 10
149.9071604762
 20
124.8154522136
 30
0.0
 11
149.9071604762
 21
126.4900044755
 31
0.0
  0
LINE
  5
16C
330
1F
100
AcDbEntity
  8
0
  6
Continuous
 62
     7
370
    25
100
AcDbLine
 10
157.4071615193
 20
119.169976677
 30
0.0
 11
170.3571616862
 21
119.169976677
 31
0.0
  0
LINE
  5
16D
330
1F
100
AcDbEntity
  8
0
  6
Continuous
 62
     7
370
    25
100
AcDbLine
 10
170.3571616862
 20
112.8609278456
 30
0.0
 11
170.3571616862
 21
119.169976677
 31
0.0
  0
LINE
  5
16E
330
1F
100
AcDbEntity
  8
0
  6
Continuous
 62
     7
370
    25
100
AcDbLine
 10
157.4071615193
 20
112.8609278456
 30
0.0
 11
170.3571616862
 21
112.8609278456
 31
0.0
  0
LINE
  5
16F
330
1F
100
AcDbEntity
  8
0
  6
Continuous
 62
     7
370
    25
100
AcDbLine
 10
170.3571616862
 20
112.8609278456
 30
0.0
 11
170.3571616862
 21
108.0751420215
 31
0.0
  0
LINE
  5
170
330
1F
100
AcDbEntity
  8
0
  6
Continuous
 62
     7
370
    25
100
AcDbLine
 10
149.9071604762
 20
108.0751420215
 30
0.0
 11
170.3571616862
 21
108.0751420215
 31
0.0
  0
LINE
  5
171
330
1F
100
AcDbEntity
  8
0
  6
Continuous
 62
     7
370
    25
100
AcDbLine
 10
170.3571616862
 20
123.9557625011
 30
0.0
 11
149.9071604762
 21
123.9557625011
 31
0.0
  0
LINE
  5
172
330
1F
100
AcDbEntity
  8
0
  6
Continuous
 62
     7
370
    25
100
AcDbLine
 10
170.3571616862
 20
123.9557625011
 30
0.0
 11
170.3571616862
 21
119.169976677
 31
0.0
  0
LINE
  5
173
330
1F
100
AcDbEntity
  8
0
  6
Continuous
 62
     7
370
    25
100
AcDbLine
 10
173.1571614001
 20
125.3654525832
 30
0.0
 11
173.1571614001
 21
106.6654519394
 31
0.0
  0
LINE
  5
174
330
1F
100
AcDbEntity
  8
0
  6
Continuous
 62
     7
370
    25
100
AcDbLine
 10
149.9071604762
 20
124.8154522136
 30
0.0
 11
170.3571616862
 21
124.8154522136
 31
0.0
  0
LINE
  5
175
330
1F
100
AcDbEntity
  8
0
  6
Continuous
 62
     7
370
    25
100
AcDbLine
 10
149.9071604762
 20
124.8154522136
 30
0.0
 11
149.9071604762
 21
124.4210303978
 31
0.0
  0
LINE
  5
176
330
1F
100
AcDbEntity
  8
0
  6
Continuous
 62
     7
370
    25
100
AcDbLine
 10
170.3571616862
 20
124.8154522136
 30
0.0
 11
170.3571616862
 21
123.9557625011
 31
0.0
  0
LINE
  5
177
330
1F
100
AcDbEntity
  8
0
  6
Continuous
 62
     7
370
    25
100
AcDbLine
 10
149.9071604762
 20
107.6098741249
 30
0.0
 11
149.9071604762
 21
107.215452309
 31
0.0
  0
LINE
  5
178
330
1F
100
AcDbEntity
  8
0
  6
Continuous
 62
     7
370
    25
100
AcDbLine
 10
149.9071604762
 20
107.215452309
 30
0.0
 11
170.3571616862
 21
107.215452309
 31
0.0
  0
LINE
  5
179
330
1F
100
AcDbEntity
  8
0
  6
Continuous
 62
     7
370
    25
100
AcDbLine
 10
170.3571616862
 20
108.0751420215
 30
0.0
 11
170.3571616862
 21
107.215452309
 31
0.0
  0
LINE
  5
17A
330
1F
100
AcDbEntity
  8
0
  6
Continuous
 62
     7
370
    25
100
AcDbLine
 10
170.3571616862
 20
126.1204519526
 30
0.0
 11
170.3571616862
 21
124.8154522136
 31
0.0
  0
LINE
  5
17B
330
1F
100
AcDbEntity
  8
0
  6
Continuous
 62
     7
370
    25
100
AcDbLine
 10
170.3571616862
 20
107.215452309
 30
0.0
 11
170.3571616862
 21
105.9104525701
 31
0.0
  0
LINE
  5
17C
330
1F
100
AcDbEntity
  8
0
  6
Continuous
 62
     7
370
    25
100
AcDbLine
 10
139.407160804
 20
130.7154522494
 30
0.0
 11
143.3071608845
 21
130.7154522494
 31
0.0
  0
LINE
  5
17D
330
1F
100
AcDbEntity
  8
0
  6
Continuous
 62
     7
370
    25
100
AcDbLine
 10
143.3071608845
 20
130.7154522494
 30
0.0
 11
143.3071608845
 21
129.2877079204
 31
0.0
  0
SPLINE
  5
17E
330
1F
100
AcDbEntity
  8
0
  6
Continuous
 62
     7
370
    25
100
AcDbSpline
210
0.0
220
0.0
230
1.0
 70
     8
 71
     3
 72
    11
 73
     7
 74
     0
 42
0.000000001
 43
0.00000001
 40
0.0
 40
0.0
 40
0.0
 40
0.0
 40
0.3121947345135154
 40
0.6242879595897302
 40
0.9403881013198393
 40
1.0
 40
1.0
 40
1.0
 40
1.0
 10
142.2463889423477
 20
131.2154517725485
 30
0.0
 10
142.2551210258912
 20
131.1806681897187
 30
0.0
 10
142.2725823537604
 20
131.1111123338651
 30
0.0
 10
142.2969305177297
 20
131.0498027823698
 30
0.0
 10
142.3088905580362
 20
131.0218220429321
 30
0.0
 10
142.3062512335591
 20
131.0280269325762
 30
0.0
 10
142.3058324683177
 20
131.0290114239234
 30
0.0
  0
SPLINE
  5
17F
330
1F
100
AcDbEntity
  8
0
  6
Continuous
 62
     7
370
    25
100
AcDbSpline
210
0.0
220
0.0
230
1.0
 70
     8
 71
     3
 72
    11
 73
     7
 74
     0
 42
0.000000001
 43
0.00000001
 40
0.0
 40
0.0
 40
0.0
 40
0.0
 40
0.2620799271071227
 40
0.5845863111187621
 40
0.9037347432758687
 40
1.0
 40
1.0
 40
1.0
 40
1.0
 10
140.3084891106652
 20
131.0290114239234
 30
0.0
 10
140.3091313633003
 20
131.0304135042737
 30
0.0
 10
140.3105639495457
 20
131.0335409356225
 30
0.0
 10
140.3326060631039
 20
131.0875484181261
 30
0.0
 10
140.354740108831
 20
131.1565003048187
 30
0.0
 10
140.3654507221488
 20
131.2043608761495
 30
0.0
 10
140.3679327297675
 20
131.2154517725485
 30
0.0
  0
LINE
  5
180
330
1F
100
AcDbEntity
  8
0
  6
Continuous
 62
     7
370
    25
100
AcDbLine
 10
140.3679327298
 20
131.2154517725
 30
0.0
 11
142.2463889423
 21
131.2154517725
 31
0.0
  0
LINE
  5
181
330
1F
100
AcDbEntity
  8
0
  6
Continuous
 62
     8
370
    25
100
AcDbLine
 10
158.3571612093
 20
93.2754517749
 30
0.0
 11
155.807161257
 21
93.2754517749
 31
0.0
  0
LINE
  5
182
330
1F
100
AcDbEntity
  8
0
  6
Continuous
 62
     8
370
    25
100
AcDbLine
 10
154.8071607206
 20
93.2754517749
 30
0.0
 11
127.8071611378
 21
93.2754517749
 31
0.0
  0
LINE
  5
183
330
1F
100
AcDbEntity
  8
0
  6
Continuous
 62
     8
370
    25
100
AcDbLine
 10
126.8071606014
 20
93.2754517749
 30
0.0
 11
124.257160649
 21
93.2754517749
 31
0.0
  0
INSERT
  5
18F
330
1F
100
AcDbEntity
  8
0
  6
Continuous
 62
     7
370
     0
100
AcDbBlockReference
  2
SW_CENTERMARKSYMBOL_0
 10
131.607160804
 20
121.2154522613
 30
0.0
  0
INSERT
  5
19B
330
1F
100
AcDbEntity
  8
0
  6
Continuous
 62
     7
370
     0
100
AcDbBlockReference
  2
SW_CENTERMARKSYMBOL_1
 10
131.607160804
 20
109.0154522613
 30
0.0
  0
LINE
  5
19C
330
1F
100
AcDbEntity
  8
0
  6
CENTERX2
 62
     7
370
    18
100
AcDbLine
 10
175.7530343251
 20
116.0154522613
 30
0.0
 11
116.307160804
 21
116.0154522613
 31
0.0
  0
LINE
  5
19D
330
1F
100
AcDbEntity
  8
0
  6
CENTERX2
 62
     7
370
    18
100
AcDbLine
 10
127.307160804
 20
94.7245976866
 30
0.0
 11
127.307160804
 21
91.5260170892
 31
0.0
  0
LINE
  5
19E
330
1F
100
AcDbEntity
  8
0
  6
CENTERX2
 62
     7
370
    18
100
AcDbLine
 10
155.307160804
 20
95.0517252476
 30
0.0
 11
155.307160804
 21
91.3654522613
 31
0.0
  0
ARC
  5
19F
330
1F
100
AcDbEntity
  8
0
  6
Continuous
 62
     7
370
    25
100
AcDbCircle
 10
57.1815276622
 20
134.4654522613
 30
0.0
 40
0.3999999999999986
100
AcDbArc
 50
0.0
 51
180.0
  0
LINE
  5
1A0
330
1F
100
AcDbEntity
  8
0
  6
Continuous
 62
     7
370
    25
100
AcDbLine
 10
56.7815276432
 20
134.4654516533
 30
0.0
 11
56.7815276432
 21
133.2108007029
 31
0.0
  0
LINE
  5
1A1
330
1F
100
AcDbEntity
  8
0
  6
Continuous
 62
     7
370
    25
100
AcDbLine
 10
57.5815276812
 20
133.2108007029
 30
0.0
 11
57.5815276812
 21
134.4654516533
 31
0.0
  0
LINE
  5
1A2
330
1F
100
AcDbEntity
  8
0
  6
Continuous
 62
     7
370
    25
100
AcDbLine
 10
71.2815279245
 20
93.3654518083
 30
0.0
 11
71.2815279245
 21
93.2654516057
 31
0.0
  0
LINE
  5
1A3
330
1F
100
AcDbEntity
  8
0
  6
Continuous
 62
     7
370
    25
100
AcDbLine
 10
71.2815279245
 20
92.8154529289
 30
0.0
 11
71.2815279245
 21
92.7154527262
 31
0.0
  0
LINE
  5
1A4
330
1F
100
AcDbEntity
  8
0
  6
Continuous
 62
     7
370
    25
100
AcDbLine
 10
72.2815269708
 20
92.7154527262
 30
0.0
 11
72.2815269708
 21
92.8154529289
 31
0.0
  0
LINE
  5
1A5
330
1F
100
AcDbEntity
  8
0
  6
Continuous
 62
     7
370
    25
100
AcDbLine
 10
72.2815269708
 20
93.2654516057
 30
0.0
 11
72.2815269708
 21
93.3654518083
 31
0.0
  0
LINE
  5
1A6
330
1F
100
AcDbEntity
  8
0
  6
Continuous
 62
     7
370
    25
100
AcDbLine
 10
42.0815283537
 20
93.3654518083
 30
0.0
 11
42.0815283537
 21
93.2654516057
 31
0.0
  0
LINE
  5
1A7
330
1F
100
AcDbEntity
  8
0
  6
Continuous
 62
     7
370
    25
100
AcDbLine
 10
42.0815283537
 20
92.8154529289
 30
0.0
 11
42.0815283537
 21
92.7154527262
 31
0.0
  0
LINE
  5
1A8
330
1F
100
AcDbEntity
  8
0
  6
Continuous
 62
     7
370
    25
100
AcDbLine
 10
43.0815274
 20
92.7154527262
 30
0.0
 11
43.0815274
 21
92.8154529289
 31
0.0
  0
LINE
  5
1A9
330
1F
100
AcDbEntity
  8
0
  6
Continuous
 62
     7
370
    25
100
AcDbLine
 10
43.0815274
 20
93.2654516057
 30
0.0
 11
43.0815274
 21
93.3654518083
 31
0.0
  0
LINE
  5
1AA
330
1F
100
AcDbEntity
  8
0
  6
Continuous
 62
     7
370
    25
100
AcDbLine
 10
42.0815283537
 20
94.2154527858
 30
0.0
 11
42.0815283537
 21
94.0654517368
 31
0.0
  0
LINE
  5
1AB
330
1F
100
AcDbEntity
  8
0
  6
Continuous
 62
     7
370
    25
100
AcDbLine
 10
43.0815274
 20
94.0654517368
 30
0.0
 11
43.0815274
 21
94.2154527858
 31
0.0
  0
LINE
  5
1AC
330
1F
100
AcDbEntity
  8
0
  6
Continuous
 62
     7
370
    25
100
AcDbLine
 10
78.9815271377
 20
123.9654519812
 30
0.0
 11
78.6815280199
 21
123.9654519812
 31
0.0
  0
LINE
  5
1AD
330
1F
100
AcDbEntity
  8
0
  6
Continuous
 62
     7
370
    25
100
AcDbLine
 10
78.6815280199
 20
118.4654521972
 30
0.0
 11
78.9815271377
 21
118.4654521972
 31
0.0
  0
LINE
  5
1AE
330
1F
100
AcDbEntity
  8
0
  6
Continuous
 62
     7
370
    25
100
AcDbLine
 10
78.6815280199
 20
123.9654519812
 30
0.0
 11
78.5408536076
 21
123.4404520348
 31
0.0
  0
LINE
  5
1AF
330
1F
100
AcDbEntity
  8
0
  6
Continuous
 62
     7
370
    25
100
AcDbLine
 10
78.5408536076
 20
118.9904523299
 30
0.0
 11
78.6815280199
 21
118.4654521972
 31
0.0
  0
LINE
  5
1B0
330
1F
100
AcDbEntity
  8
0
  6
Continuous
 62
     7
370
    25
100
AcDbLine
 10
78.9815271377
 20
111.7654522166
 30
0.0
 11
78.6815280199
 21
111.7654522166
 31
0.0
  0
LINE
  5
1B1
330
1F
100
AcDbEntity
  8
0
  6
Continuous
 62
     7
370
    25
100
AcDbLine
 10
78.6815280199
 20
106.2654526189
 30
0.0
 11
78.9815271377
 21
106.2654526189
 31
0.0
  0
LINE
  5
1B2
330
1F
100
AcDbEntity
  8
0
  6
Continuous
 62
     7
370
    25
100
AcDbLine
 10
78.6815280199
 20
111.7654522166
 30
0.0
 11
78.5408536076
 21
111.2404522702
 31
0.0
  0
LINE
  5
1B3
330
1F
100
AcDbEntity
  8
0
  6
Continuous
 62
     7
370
    25
100
AcDbLine
 10
78.5408536076
 20
106.7904525653
 30
0.0
 11
78.6815280199
 21
106.2654526189
 31
0.0
  0
LINE
  5
1B4
330
1F
100
AcDbEntity
  8
0
  6
Continuous
 62
     7
370
    25
100
AcDbLine
 10
75.7815281033
 20
118.9904523299
 30
0.0
 11
78.5408536076
 21
118.9904523299
 31
0.0
  0
LINE
  5
1B5
330
1F
100
AcDbEntity
  8
0
  6
Continuous
 62
     7
370
    25
100
AcDbLine
 10
78.5408536076
 20
123.4404520348
 30
0.0
 11
75.7815281033
 21
123.4404520348
 31
0.0
  0
LINE
  5
1B6
330
1F
100
AcDbEntity
  8
0
  6
Continuous
 62
     7
370
    25
100
AcDbLine
 10
75.7815281033
 20
106.7904525653
 30
0.0
 11
78.5408536076
 21
106.7904525653
 31
0.0
  0
LINE
  5
1B7
330
1F
100
AcDbEntity
  8
0
  6
Continuous
 62
     7
370
    25
100
AcDbLine
 10
78.5408536076
 20
111.2404522702
 30
0.0
 11
75.7815281033
 21
111.2404522702
 31
0.0
  0
LINE
  5
1B8
330
1F
100
AcDbEntity
  8
0
  6
Continuous
 62
     7
370
    25
100
AcDbLine
 10
69.7215283393
 20
96.3554517582
 30
0.0
 11
70.1815271854
 21
96.3554517582
 31
0.0
  0
SPLINE
  5
1B9
330
1F
100
AcDbEntity
  8
0
  6
Continuous
 62
     7
370
    25
100
AcDbSpline
210
0.0
220
0.0
230
1.0
 70
     8
 71
     3
 72
    11
 73
     7
 74
     0
 42
0.000000001
 43
0.00000001
 40
0.0
 40
0.0
 40
0.0
 40
0.0
 40
0.2499984431012995
 40
0.4999989821570125
 40
0.7499995212127254
 40
0.9999999999999999
 40
0.9999999999999999
 40
0.9999999999999999
 40
0.9999999999999999
 10
69.72152833934985
 20
96.81545209441359
 30
0.0
 10
69.78180503219168
 20
96.80853777370612
 30
0.0
 10
69.9023589232273
 20
96.79470907432245
 30
0.0
 10
70.05440952568301
 20
96.68833443998531
 30
0.0
 10
70.16078446853618
 20
96.53628341285916
 30
0.0
 10
70.17461294700361
 20
96.41572897160492
 30
0.0
 10
70.18152718540392
 20
96.35545175824339
 30
0.0
  0
SPLINE
  5
1BA
330
1F
100
AcDbEntity
  8
0
  6
Continuous
 62
     7
370
    25
100
AcDbSpline
210
0.0
220
0.0
230
1.0
 70
    24
 71
     3
 72
    11
 73
     7
 74
     0
 42
0.000000001
 43
0.00000001
 40
0.0
 40
0.0
 40
0.0
 40
0.0
 40
0.2702616401845311
 40
0.5624289544687194
 40
0.7897347710095828
 40
0.9999999999999999
 40
0.9999999999999999
 40
0.9999999999999999
 40
0.9999999999999999
 10
69.72152833934985
 20
96.81539696011717
 30
0.0
 10
69.72152833934985
 20
96.80729179790973
 30
0.0
 10
69.72152833934985
 20
96.79042452106269
 30
0.0
 10
69.72152833934985
 20
96.6660112772113
 30
0.0
 10
69.72152833934985
 20
96.51128131646935
 30
0.0
 10
69.72152833934985
 20
96.4060286385949
 30
0.0
 10
69.72152833934985
 20
96.35545175824339
 30
0.0
  0
LINE
  5
1BB
330
1F
100
AcDbEntity
  8
0
  6
Continuous
 62
     7
370
    25
100
AcDbLine
 10
70.1815271854
 20
93.2754517749
 30
0.0
 11
70.1815271854
 21
96.3554517582
 31
0.0
  0
LINE
  5
1BC
330
1F
100
AcDbEntity
  8
0
  6
Continuous
 62
     7
370
    25
100
AcDbLine
 10
69.7215283393
 20
93.2754517749
 30
0.0
 11
70.1815271854
 21
93.2754517749
 31
0.0
  0
LINE
  5
1BD
330
1F
100
AcDbEntity
  8
0
  6
Continuous
 62
     7
370
    25
100
AcDbLine
 10
69.7215283393
 20
96.3554517582
 30
0.0
 11
69.7215283393
 21
93.2754517749
 31
0.0
  0
LINE
  5
1BE
330
1F
100
AcDbEntity
  8
0
  6
Continuous
 62
     7
370
    25
100
AcDbLine
 10
44.6415269851
 20
93.2754517749
 30
0.0
 11
44.1815281391
 21
93.2754517749
 31
0.0
  0
LINE
  5
1BF
330
1F
100
AcDbEntity
  8
0
  6
Continuous
 62
     7
370
    25
100
AcDbLine
 10
44.1815281391
 20
96.3554517582
 30
0.0
 11
44.1815281391
 21
93.2754517749
 31
0.0
  0
LINE
  5
1C0
330
1F
100
AcDbEntity
  8
0
  6
Continuous
 62
     7
370
    25
100
AcDbLine
 10
44.6415269851
 20
96.3554517582
 30
0.0
 11
44.1815281391
 21
96.3554517582
 31
0.0
  0
LINE
  5
1C1
330
1F
100
AcDbEntity
  8
0
  6
Continuous
 62
     7
370
    25
100
AcDbLine
 10
44.6415269851
 20
96.3554517582
 30
0.0
 11
44.6415269851
 21
93.2754517749
 31
0.0
  0
SPLINE
  5
1C2
330
1F
100
AcDbEntity
  8
0
  6
Continuous
 62
     7
370
    25
100
AcDbSpline
210
0.0
220
0.0
230
1.0
 70
     8
 71
     3
 72
    11
 73
     7
 74
     0
 42
0.000000001
 43
0.00000001
 40
0.0
 40
0.0
 40
0.0
 40
0.0
 40
0.2500002676834591
 40
0.49999934046327
 40
0.7500001704822581
 40
1.0
 40
1.0
 40
1.0
 40
1.0
 10
44.64152698513231
 20
96.81539696011717
 30
0.0
 10
44.58125309337876
 20
96.80848651891074
 30
0.0
 10
44.46070559795733
 20
96.79466566952713
 30
0.0
 10
44.30865847133455
 20
96.68830561610056
 30
0.0
 10
44.20228117600205
 20
96.53627077832698
 30
0.0
 10
44.18844580882465
 20
96.41572468453369
 30
0.0
 10
44.18152813907823
 20
96.35545175824339
 30
0.0
  0
SPLINE
  5
1C3
330
1F
100
AcDbEntity
  8
0
  6
Continuous
 62
     7
370
    25
100
AcDbSpline
210
0.0
220
0.0
230
1.0
 70
    24
 71
     3
 72
    11
 73
     7
 74
     0
 42
0.000000001
 43
0.00000001
 40
0.0
 40
0.0
 40
0.0
 40
0.0
 40
0.2702616401845311
 40
0.5624289544687194
 40
0.7897347710095828
 40
0.9999999999999999
 40
0.9999999999999999
 40
0.9999999999999999
 40
0.9999999999999999
 10
44.64152698513231
 20
96.81539696011717
 30
0.0
 10
44.64152698513231
 20
96.80729179790973
 30
0.0
 10
44.64152698513231
 20
96.79042452106269
 30
0.0
 10
44.64152698513232
 20
96.6660112772113
 30
0.0
 10
44.64152698513231
 20
96.51128131646935
 30
0.0
 10
44.64152698513231
 20
96.4060286385949
 30
0.0
 10
44.64152698513231
 20
96.35545175824339
 30
0.0
  0
LINE
  5
1C4
330
1F
100
AcDbEntity
  8
0
  6
Continuous
 62
     7
370
    25
100
AcDbLine
 10
69.7215283393
 20
96.8153433159
 30
0.0
 11
69.7215283393
 21
96.8154520944
 31
0.0
  0
LINE
  5
1C5
330
1F
100
AcDbEntity
  8
0
  6
Continuous
 62
     7
370
    25
100
AcDbLine
 10
69.7215283393
 20
96.3554517582
 30
0.0
 11
44.6415269851
 21
96.3554517582
 31
0.0
  0
LINE
  5
1C6
330
1F
100
AcDbEntity
  8
0
  6
Continuous
 62
     7
370
    25
100
AcDbLine
 10
44.6415269851
 20
96.8154520944
 30
0.0
 11
69.7215283393
 21
96.8154520944
 31
0.0
  0
LINE
  5
1C7
330
1F
100
AcDbEntity
  8
0
  6
Continuous
 62
     7
370
    25
100
AcDbLine
 10
69.7215283393
 20
93.2754517749
 30
0.0
 11
69.7215283393
 21
92.9154516414
 31
0.0
  0
LINE
  5
1C8
330
1F
100
AcDbEntity
  8
0
  6
Continuous
 62
     7
370
    25
100
AcDbLine
 10
69.7215283393
 20
92.9154516414
 30
0.0
 11
44.6415269851
 21
92.9154516414
 31
0.0
  0
LINE
  5
1C9
330
1F
100
AcDbEntity
  8
0
  6
Continuous
 62
     7
370
    25
100
AcDbLine
 10
44.6415269851
 20
92.9154516414
 30
0.0
 11
44.6415269851
 21
93.2754517749
 31
0.0
  0
LINE
  5
1CA
330
1F
100
AcDbEntity
  8
0
  6
Continuous
 62
     7
370
    25
100
AcDbLine
 10
73.1815273046
 20
92.8154529289
 30
0.0
 11
70.1915273547
 21
92.8154529289
 31
0.0
  0
LINE
  5
1CB
330
1F
100
AcDbEntity
  8
0
  6
Continuous
 62
     7
370
    25
100
AcDbLine
 10
70.1915273547
 20
93.2654516057
 30
0.0
 11
70.1915273547
 21
92.8154529289
 31
0.0
  0
LINE
  5
1CC
330
1F
100
AcDbEntity
  8
0
  6
Continuous
 62
     7
370
    25
100
AcDbLine
 10
73.1815273046
 20
92.8154529289
 30
0.0
 11
73.1815273046
 21
93.2654516057
 31
0.0
  0
LINE
  5
1CD
330
1F
100
AcDbEntity
  8
0
  6
Continuous
 62
     7
370
    25
100
AcDbLine
 10
73.1815273046
 20
93.2654516057
 30
0.0
 11
70.1915273547
 21
93.2654516057
 31
0.0
  0
ARC
  5
1CE
330
1F
100
AcDbEntity
  8
0
  6
Continuous
 62
     7
370
    25
100
AcDbCircle
 10
70.1915276622
 20
93.2754522613
 30
0.0
 40
0.460000000000008
100
AcDbArc
 50
180.0
 51
270.0
  0
ARC
  5
1CF
330
1F
100
AcDbEntity
  8
0
  6
Continuous
 62
     7
370
    25
100
AcDbCircle
 10
70.1915276622
 20
93.2754522613
 30
0.0
 40
0.0099999999999909
100
AcDbArc
 50
179.9999999997
 51
270.0
  0
ARC
  5
1D0
330
1F
100
AcDbEntity
  8
0
  6
Continuous
 62
     7
370
    25
100
AcDbCircle
 10
44.1715276622
 20
93.2754522613
 30
0.0
 40
0.460000000000008
100
AcDbArc
 50
270.0
 51
0.0
  0
LINE
  5
1D1
330
1F
100
AcDbEntity
  8
0
  6
Continuous
 62
     7
370
    25
100
AcDbLine
 10
44.1715279698
 20
93.2654516057
 30
0.0
 11
44.1715279698
 21
92.8154529289
 31
0.0
  0
ARC
  5
1D2
330
1F
100
AcDbEntity
  8
0
  6
Continuous
 62
     7
370
    25
100
AcDbCircle
 10
44.1715276622
 20
93.2754522613
 30
0.0
 40
0.009999999999998
100
AcDbArc
 50
270.0
 51
0.0000000003
  0
LINE
  5
1D3
330
1F
100
AcDbEntity
  8
0
  6
Continuous
 62
     7
370
    25
100
AcDbLine
 10
44.1715279698
 20
92.8154529289
 30
0.0
 11
41.1815280199
 21
92.8154529289
 31
0.0
  0
LINE
  5
1D4
330
1F
100
AcDbEntity
  8
0
  6
Continuous
 62
     7
370
    25
100
AcDbLine
 10
41.1815280199
 20
92.8154529289
 30
0.0
 11
41.1815280199
 21
93.2654516057
 31
0.0
  0
LINE
  5
1D5
330
1F
100
AcDbEntity
  8
0
  6
Continuous
 62
     7
370
    25
100
AcDbLine
 10
44.1715279698
 20
93.2654516057
 30
0.0
 11
41.1815280199
 21
93.2654516057
 31
0.0
  0
LINE
  5
1D6
330
1F
100
AcDbEntity
  8
0
  6
Continuous
 62
     7
370
    25
100
AcDbLine
 10
65.581527549
 20
97.3154516176
 30
0.0
 11
65.581527549
 21
96.8154520944
 31
0.0
  0
LINE
  5
1D7
330
1F
100
AcDbEntity
  8
0
  6
Continuous
 62
     7
370
    25
100
AcDbLine
 10
44.6815276622
 20
98.0154515461
 30
0.0
 11
44.6815276622
 21
96.8154520944
 31
0.0
  0
LINE
  5
1D8
330
1F
100
AcDbEntity
  8
0
  6
Continuous
 62
     7
370
    25
100
AcDbLine
 10
45.3815275907
 20
98.0154515461
 30
0.0
 11
44.6815276622
 21
98.0154515461
 31
0.0
  0
LINE
  5
1D9
330
1F
100
AcDbEntity
  8
0
  6
Continuous
 62
     7
370
    25
100
AcDbLine
 10
68.9815277338
 20
98.0154515461
 30
0.0
 11
45.3815275907
 21
98.0154515461
 31
0.0
  0
LINE
  5
1DA
330
1F
100
AcDbEntity
  8
0
  6
Continuous
 62
     7
370
    25
100
AcDbLine
 10
69.6815276622
 20
98.0154515461
 30
0.0
 11
68.9815277338
 21
98.0154515461
 31
0.0
  0
LINE
  5
1DB
330
1F
100
AcDbEntity
  8
0
  6
Continuous
 62
     7
370
    25
100
AcDbLine
 10
69.6815276622
 20
96.8154520944
 30
0.0
 11
69.6815276622
 21
98.0154515461
 31
0.0
  0
LINE
  5
1DC
330
1F
100
AcDbEntity
  8
0
  6
Continuous
 62
     7
370
    25
100
AcDbLine
 10
48.7815277755
 20
97.3154516176
 30
0.0
 11
65.581527549
 21
97.3154516176
 31
0.0
  0
LINE
  5
1DD
330
1F
100
AcDbEntity
  8
0
  6
Continuous
 62
     7
370
    25
100
AcDbLine
 10
48.7815277755
 20
96.8154520944
 30
0.0
 11
48.7815277755
 21
97.3154516176
 31
0.0
  0
LINE
  5
1DE
330
1F
100
AcDbEntity
  8
0
  6
Continuous
 62
     7
370
    25
100
AcDbLine
 10
69.6815276622
 20
104.2006307498
 30
0.0
 11
69.6815276622
 21
98.0154515461
 31
0.0
  0
LINE
  5
1DF
330
1F
100
AcDbEntity
  8
0
  6
Continuous
 62
     7
370
    25
100
AcDbLine
 10
68.9815277338
 20
103.5014600709
 30
0.0
 11
68.9815277338
 21
98.0154515461
 31
0.0
  0
LINE
  5
1E0
330
1F
100
AcDbEntity
  8
0
  6
Continuous
 62
     7
370
    25
100
AcDbLine
 10
45.3815275907
 20
103.5014600709
 30
0.0
 11
45.3815275907
 21
98.0154515461
 31
0.0
  0
LINE
  5
1E1
330
1F
100
AcDbEntity
  8
0
  6
Continuous
 62
     7
370
    25
100
AcDbLine
 10
44.6815276622
 20
104.2006307498
 30
0.0
 11
44.6815276622
 21
98.0154515461
 31
0.0
  0
LINE
  5
1E2
330
1F
100
AcDbEntity
  8
0
  6
Continuous
 62
     7
370
    25
100
AcDbLine
 10
70.3815275907
 20
101.8654526428
 30
0.0
 11
69.6815276622
 21
101.8654526428
 31
0.0
  0
LINE
  5
1E3
330
1F
100
AcDbEntity
  8
0
  6
Continuous
 62
     7
370
    25
100
AcDbLine
 10
70.3815275907
 20
101.8654526428
 30
0.0
 11
70.3815275907
 21
98.7654523209
 31
0.0
  0
LINE
  5
1E4
330
1F
100
AcDbEntity
  8
0
  6
Continuous
 62
     7
370
    25
100
AcDbLine
 10
70.3815275907
 20
98.7654523209
 30
0.0
 11
69.6815276622
 21
98.7654523209
 31
0.0
  0
LINE
  5
1E5
330
1F
100
AcDbEntity
  8
0
  6
Continuous
 62
     7
370
    25
100
AcDbLine
 10
41.7315283894
 20
93.3654518083
 30
0.0
 11
41.7315283894
 21
93.2654516057
 31
0.0
  0
LINE
  5
1E6
330
1F
100
AcDbEntity
  8
0
  6
Continuous
 62
     7
370
    25
100
AcDbLine
 10
43.4315273642
 20
93.3654518083
 30
0.0
 11
43.4315273642
 21
93.2654516057
 31
0.0
  0
LINE
  5
1E7
330
1F
100
AcDbEntity
  8
0
  6
Continuous
 62
     7
370
    25
100
AcDbLine
 10
70.9315279603
 20
94.0654517368
 30
0.0
 11
70.9315279603
 21
93.3654518083
 31
0.0
  0
LINE
  5
1E8
330
1F
100
AcDbEntity
  8
0
  6
Continuous
 62
     7
370
    25
100
AcDbLine
 10
70.9315279603
 20
94.0654517368
 30
0.0
 11
71.7815274477
 21
94.0654517368
 31
0.0
  0
LINE
  5
1E9
330
1F
100
AcDbEntity
  8
0
  6
Continuous
 62
     7
370
    25
100
AcDbLine
 10
71.7815274477
 20
94.0654517368
 30
0.0
 11
71.7815274477
 21
93.3654518083
 31
0.0
  0
LINE
  5
1EA
330
1F
100
AcDbEntity
  8
0
  6
Continuous
 62
     7
370
    25
100
AcDbLine
 10
70.9315279603
 20
93.3654518083
 30
0.0
 11
71.7815274477
 21
93.3654518083
 31
0.0
  0
LINE
  5
1EB
330
1F
100
AcDbEntity
  8
0
  6
Continuous
 62
     7
370
    25
100
AcDbLine
 10
72.6315269351
 20
94.0654517368
 30
0.0
 11
72.6315269351
 21
93.3654518083
 31
0.0
  0
LINE
  5
1EC
330
1F
100
AcDbEntity
  8
0
  6
Continuous
 62
     7
370
    25
100
AcDbLine
 10
71.7815274477
 20
94.0654517368
 30
0.0
 11
72.6315269351
 21
94.0654517368
 31
0.0
  0
LINE
  5
1ED
330
1F
100
AcDbEntity
  8
0
  6
Continuous
 62
     7
370
    25
100
AcDbLine
 10
71.7815274477
 20
93.3654518083
 30
0.0
 11
72.6315269351
 21
93.3654518083
 31
0.0
  0
LINE
  5
1EE
330
1F
100
AcDbEntity
  8
0
  6
Continuous
 62
     7
370
    25
100
AcDbLine
 10
72.2815269708
 20
92.7154527262
 30
0.0
 11
71.2815279245
 21
92.7154527262
 31
0.0
  0
LINE
  5
1EF
330
1F
100
AcDbEntity
  8
0
  6
Continuous
 62
     7
370
    25
100
AcDbLine
 10
42.5815278768
 20
94.0654517368
 30
0.0
 11
42.5815278768
 21
93.3654518083
 31
0.0
  0
LINE
  5
1F0
330
1F
100
AcDbEntity
  8
0
  6
Continuous
 62
     7
370
    25
100
AcDbLine
 10
43.4315273642
 20
94.0654517368
 30
0.0
 11
43.4315273642
 21
93.3654518083
 31
0.0
  0
LINE
  5
1F1
330
1F
100
AcDbEntity
  8
0
  6
Continuous
 62
     7
370
    25
100
AcDbLine
 10
42.5815278768
 20
93.3654518083
 30
0.0
 11
43.4315273642
 21
93.3654518083
 31
0.0
  0
LINE
  5
1F2
330
1F
100
AcDbEntity
  8
0
  6
Continuous
 62
     7
370
    25
100
AcDbLine
 10
42.5815278768
 20
94.0654517368
 30
0.0
 11
43.4315273642
 21
94.0654517368
 31
0.0
  0
LINE
  5
1F3
330
1F
100
AcDbEntity
  8
0
  6
Continuous
 62
     7
370
    25
100
AcDbLine
 10
41.7315283894
 20
94.0654517368
 30
0.0
 11
41.7315283894
 21
93.3654518083
 31
0.0
  0
LINE
  5
1F4
330
1F
100
AcDbEntity
  8
0
  6
Continuous
 62
     7
370
    25
100
AcDbLine
 10
41.7315283894
 20
93.3654518083
 30
0.0
 11
42.5815278768
 21
93.3654518083
 31
0.0
  0
LINE
  5
1F5
330
1F
100
AcDbEntity
  8
0
  6
Continuous
 62
     7
370
    25
100
AcDbLine
 10
41.7315283894
 20
94.0654517368
 30
0.0
 11
42.5815278768
 21
94.0654517368
 31
0.0
  0
LINE
  5
1F6
330
1F
100
AcDbEntity
  8
0
  6
Continuous
 62
     7
370
    25
100
AcDbLine
 10
42.5815278768
 20
92.7154527262
 30
0.0
 11
42.0815283537
 21
92.7154527262
 31
0.0
  0
LINE
  5
1F7
330
1F
100
AcDbEntity
  8
0
  6
Continuous
 62
     7
370
    25
100
AcDbLine
 10
43.0815274
 20
92.7154527262
 30
0.0
 11
42.5815278768
 21
92.7154527262
 31
0.0
  0
LINE
  5
1F8
330
1F
100
AcDbEntity
  8
0
  6
Continuous
 62
     7
370
    25
100
AcDbLine
 10
42.5815278768
 20
94.9154527143
 30
0.0
 11
42.5815278768
 21
94.2154527858
 31
0.0
  0
LINE
  5
1F9
330
1F
100
AcDbEntity
  8
0
  6
Continuous
 62
     7
370
    25
100
AcDbLine
 10
42.5815278768
 20
94.9154527143
 30
0.0
 11
43.4315273642
 21
94.9154527143
 31
0.0
  0
LINE
  5
1FA
330
1F
100
AcDbEntity
  8
0
  6
Continuous
 62
     7
370
    25
100
AcDbLine
 10
43.4315273642
 20
94.9154527143
 30
0.0
 11
43.4315273642
 21
94.2154527858
 31
0.0
  0
LINE
  5
1FB
330
1F
100
AcDbEntity
  8
0
  6
Continuous
 62
     7
370
    25
100
AcDbLine
 10
42.5815278768
 20
94.2154527858
 30
0.0
 11
43.4315273642
 21
94.2154527858
 31
0.0
  0
LINE
  5
1FC
330
1F
100
AcDbEntity
  8
0
  6
Continuous
 62
     7
370
    25
100
AcDbLine
 10
41.7315283894
 20
94.9154527143
 30
0.0
 11
41.7315283894
 21
94.2154527858
 31
0.0
  0
LINE
  5
1FD
330
1F
100
AcDbEntity
  8
0
  6
Continuous
 62
     7
370
    25
100
AcDbLine
 10
41.7315283894
 20
94.9154527143
 30
0.0
 11
42.5815278768
 21
94.9154527143
 31
0.0
  0
LINE
  5
1FE
330
1F
100
AcDbEntity
  8
0
  6
Continuous
 62
     7
370
    25
100
AcDbLine
 10
41.7315283894
 20
94.2154527858
 30
0.0
 11
42.5815278768
 21
94.2154527858
 31
0.0
  0
CIRCLE
  5
1FF
330
1F
100
AcDbEntity
  8
0
  6
Continuous
 62
     7
370
    25
100
AcDbCircle
 10
57.1815276622
 20
116.0154522613
 30
0.0
 40
13.67273642117375
  0
CIRCLE
  5
200
330
1F
100
AcDbEntity
  8
0
  6
Continuous
 62
     7
370
    25
100
AcDbCircle
 10
57.1815276622
 20
116.0154522613
 30
0.0
 40
13.80000000000001
  0
CIRCLE
  5
201
330
1F
100
AcDbEntity
  8
0
  6
Continuous
 62
     7
370
    25
100
AcDbCircle
 10
57.1815276622
 20
116.0154522613
 30
0.0
 40
14.60000000000001
  0
ARC
  5
202
330
1F
100
AcDbEntity
  8
0
  6
Continuous
 62
     7
370
    25
100
AcDbCircle
 10
57.1815276622
 20
116.0154522613
 30
0.0
 40
16.71898055179241
100
AcDbArc
 50
46.7137505317
 51
327.4313101472
  0
ARC
  5
203
330
1F
100
AcDbEntity
  8
0
  6
Continuous
 62
     7
370
    25
100
AcDbCircle
 10
57.1815276622
 20
116.0154522613
 30
0.0
 40
16.7189805517924
100
AcDbArc
 50
341.8790628543
 51
36.4002720737
  0
LINE
  5
204
330
1F
100
AcDbEntity
  8
0
  6
Continuous
 62
     7
370
    25
100
AcDbLine
 10
71.2713936448
 20
107.0154519037
 30
0.0
 11
75.0815281748
 21
107.0154519037
 31
0.0
  0
LINE
  5
205
330
1F
100
AcDbEntity
  8
0
  6
Continuous
 62
     7
370
    25
100
AcDbLine
 10
71.3590184331
 20
126.6574093357
 30
0.0
 11
69.2376980662
 21
128.7787289575
 31
0.0
  0
LINE
  5
206
330
1F
100
AcDbEntity
  8
0
  6
Continuous
 62
     7
370
    25
100
AcDbLine
 10
75.0815281748
 20
110.815452154
 30
0.0
 11
73.0712825536
 21
110.815452154
 31
0.0
  0
LINE
  5
207
330
1F
100
AcDbEntity
  8
0
  6
Continuous
 62
     7
370
    25
100
AcDbLine
 10
69.2376980662
 20
128.7787289575
 30
0.0
 11
68.6447905481
 21
128.1858221844
 31
0.0
  0
LINE
  5
208
330
1F
100
AcDbEntity
  8
0
  6
Continuous
 62
     7
370
    25
100
AcDbLine
 10
70.6384847045
 20
125.9368748621
 30
0.0
 11
71.3590184331
 21
126.6574093357
 31
0.0
  0
LINE
  5
209
330
1F
100
AcDbEntity
  8
0
  6
Continuous
 62
     7
370
    25
100
AcDbLine
 10
75.0815281748
 20
107.0154519037
 30
0.0
 11
75.0815281748
 21
110.815452154
 31
0.0
  0
ARC
  5
20A
330
1F
100
AcDbEntity
  8
0
  6
Continuous
 62
     7
370
    25
100
AcDbCircle
 10
57.1815276622
 20
116.0154522613
 30
0.0
 40
16.84999999999999
100
AcDbArc
 50
46.7004211042
 51
73.9676576159
  0
ARC
  5
20B
330
1F
100
AcDbEntity
  8
0
  6
Continuous
 62
     7
370
    25
100
AcDbCircle
 10
57.1815276622
 20
116.0154522613
 30
0.0
 40
16.85
100
AcDbArc
 50
76.0079712628
 51
327.715434628
  0
ARC
  5
20C
330
1F
100
AcDbEntity
  8
0
  6
Continuous
 62
     7
370
    25
100
AcDbCircle
 10
57.1815276622
 20
116.0154522613
 30
0.0
 40
16.79182736499582
100
AcDbArc
 50
73.9640808396
 51
76.0114635823
  0
ARC
  5
20D
330
1F
100
AcDbEntity
  8
0
  6
Continuous
 62
     7
370
    25
100
AcDbCircle
 10
57.1815276622
 20
116.0154522613
 30
0.0
 40
16.85
100
AcDbArc
 50
342.0247980314
 51
36.4676411492
  0
LINE
  5
20E
330
1F
100
AcDbEntity
  8
0
  6
Continuous
 62
     7
370
    25
100
AcDbLine
 10
61.820100817
 20
132.1538881615
 30
0.0
 11
62.2713053703
 21
133.8378058032
 31
0.0
  0
ARC
  5
20F
330
1F
100
AcDbEntity
  8
0
  6
Continuous
 62
     7
370
    25
100
AcDbCircle
 10
61.9815276622
 20
133.9154522613
 30
0.0
 40
0.300000000000004
100
AcDbArc
 50
345.0
 51
165.0
  0
LINE
  5
210
330
1F
100
AcDbEntity
  8
0
  6
Continuous
 62
     7
370
    25
100
AcDbLine
 10
61.6917500376
 20
133.9930982545
 30
0.0
 11
61.2405782669
 21
132.3093028024
 31
0.0
  0
ARC
  5
211
330
1F
100
AcDbEntity
  8
0
  6
Continuous
 62
     7
370
    25
100
AcDbCircle
 10
57.1815276622
 20
116.0154522613
 30
0.0
 40
17.0773657964777
100
AcDbArc
 50
75.9945499092
 51
328.1961189068
  0
ARC
  5
212
330
1F
100
AcDbEntity
  8
0
  6
Continuous
 62
     7
370
    25
100
AcDbCircle
 10
57.1815276622
 20
116.0154522613
 30
0.0
 40
17.17641649932263
100
AcDbArc
 50
323.570196559
 51
328.4007839109
  0
ARC
  5
213
330
1F
100
AcDbEntity
  8
0
  6
Continuous
 62
     7
370
    25
100
AcDbCircle
 10
57.1815276622
 20
116.0154522613
 30
0.0
 40
17.20000000000001
100
AcDbArc
 50
75.9874581676
 51
323.6281575901
  0
ARC
  5
214
330
1F
100
AcDbEntity
  8
0
  6
Continuous
 62
     7
370
    25
100
AcDbCircle
 10
57.1815276622
 20
116.0154522613
 30
0.0
 40
17.07736579647768
100
AcDbArc
 50
46.677775405
 51
73.9814035442
  0
ARC
  5
215
330
1F
100
AcDbEntity
  8
0
  6
Continuous
 62
     7
370
    25
100
AcDbCircle
 10
57.1815276622
 20
116.0154522613
 30
0.0
 40
17.07736579647769
100
AcDbArc
 50
342.2721186445
 51
36.5820700396
  0
ARC
  5
216
330
1F
100
AcDbEntity
  8
0
  6
Continuous
 62
     7
370
    25
100
AcDbCircle
 10
57.1815276622
 20
116.0154522613
 30
0.0
 40
17.19999999999999
100
AcDbArc
 50
46.6658096578
 51
73.9886667876
  0
ARC
  5
217
330
1F
100
AcDbEntity
  8
0
  6
Continuous
 62
     7
370
    25
100
AcDbCircle
 10
57.1815276622
 20
116.0154522613
 30
0.0
 40
17.2
100
AcDbArc
 50
30.7723247679
 51
36.6425199043
  0
ARC
  5
218
330
1F
100
AcDbEntity
  8
0
  6
Continuous
 62
     7
370
    25
100
AcDbCircle
 10
57.1815276622
 20
116.0154522613
 30
0.0
 40
17.17641649932263
100
AcDbArc
 50
342.3777107197
 51
30.8191802597
  0
LINE
  5
219
330
1F
100
AcDbEntity
  8
0
  6
Continuous
 62
     7
370
    25
100
AcDbLine
 10
75.1815283775
 20
105.815452452
 30
0.0
 11
75.1815283775
 21
124.8154522136
 31
0.0
  0
LINE
  5
21A
330
1F
100
AcDbEntity
  8
0
  6
Continuous
 62
     7
370
    25
100
AcDbLine
 10
75.1815283775
 20
124.8154522136
 30
0.0
 11
71.9324359774
 21
124.8154522136
 31
0.0
  0
LINE
  5
21B
330
1F
100
AcDbEntity
  8
0
  6
Continuous
 62
     7
370
    25
100
AcDbLine
 10
71.0014144063
 20
105.815452452
 30
0.0
 11
75.1815283775
 21
105.815452452
 31
0.0
  0
LINE
  5
21C
330
1F
100
AcDbEntity
  8
0
  6
Continuous
 62
     7
370
    25
100
AcDbLine
 10
75.7815281033
 20
111.7654522166
 30
0.0
 11
75.1815283775
 21
111.7654522166
 31
0.0
  0
LINE
  5
21D
330
1F
100
AcDbEntity
  8
0
  6
Continuous
 62
     7
370
    25
100
AcDbLine
 10
75.7815281033
 20
106.2654526189
 30
0.0
 11
75.1815283775
 21
106.2654526189
 31
0.0
  0
LINE
  5
21E
330
1F
100
AcDbEntity
  8
0
  6
Continuous
 62
     7
370
    25
100
AcDbLine
 10
75.7815281033
 20
111.7654522166
 30
0.0
 11
75.7815281033
 21
106.2654526189
 31
0.0
  0
LINE
  5
21F
330
1F
100
AcDbEntity
  8
0
  6
Continuous
 62
     7
370
    25
100
AcDbLine
 10
78.9815271377
 20
121.2154523686
 30
0.0
 11
78.9815271377
 21
118.4654521972
 31
0.0
  0
LINE
  5
220
330
1F
100
AcDbEntity
  8
0
  6
Continuous
 62
     7
370
    25
100
AcDbLine
 10
78.9815271377
 20
123.9654519812
 30
0.0
 11
78.9815271377
 21
121.2154523686
 31
0.0
  0
LINE
  5
221
330
1F
100
AcDbEntity
  8
0
  6
Continuous
 62
     7
370
    25
100
AcDbLine
 10
78.6815280199
 20
118.4654521972
 30
0.0
 11
78.6815280199
 21
123.9654519812
 31
0.0
  0
LINE
  5
222
330
1F
100
AcDbEntity
  8
0
  6
Continuous
 62
     7
370
    25
100
AcDbLine
 10
78.5408536076
 20
121.2154523686
 30
0.0
 11
78.5408536076
 21
118.9904523299
 31
0.0
  0
LINE
  5
223
330
1F
100
AcDbEntity
  8
0
  6
Continuous
 62
     7
370
    25
100
AcDbLine
 10
78.5408536076
 20
123.4404520348
 30
0.0
 11
78.5408536076
 21
121.2154523686
 31
0.0
  0
LINE
  5
224
330
1F
100
AcDbEntity
  8
0
  6
Continuous
 62
     7
370
    25
100
AcDbLine
 10
78.9815271377
 20
109.0154522315
 30
0.0
 11
78.9815271377
 21
106.2654526189
 31
0.0
  0
LINE
  5
225
330
1F
100
AcDbEntity
  8
0
  6
Continuous
 62
     7
370
    25
100
AcDbLine
 10
78.9815271377
 20
111.7654522166
 30
0.0
 11
78.9815271377
 21
109.0154522315
 31
0.0
  0
LINE
  5
226
330
1F
100
AcDbEntity
  8
0
  6
Continuous
 62
     7
370
    25
100
AcDbLine
 10
78.6815280199
 20
106.2654526189
 30
0.0
 11
78.6815280199
 21
111.7654522166
 31
0.0
  0
LINE
  5
227
330
1F
100
AcDbEntity
  8
0
  6
Continuous
 62
     7
370
    25
100
AcDbLine
 10
78.5408536076
 20
109.0154522315
 30
0.0
 11
78.5408536076
 21
106.7904525653
 31
0.0
  0
LINE
  5
228
330
1F
100
AcDbEntity
  8
0
  6
Continuous
 62
     7
370
    25
100
AcDbLine
 10
78.5408536076
 20
111.2404522702
 30
0.0
 11
78.5408536076
 21
109.0154522315
 31
0.0
  0
LINE
  5
229
330
1F
100
AcDbEntity
  8
0
  6
Continuous
 62
     7
370
    25
100
AcDbLine
 10
75.7815281033
 20
123.9654519812
 30
0.0
 11
75.1815283775
 21
123.9654519812
 31
0.0
  0
LINE
  5
22A
330
1F
100
AcDbEntity
  8
0
  6
Continuous
 62
     7
370
    25
100
AcDbLine
 10
75.7815281033
 20
118.4654521972
 30
0.0
 11
75.1815283775
 21
118.4654521972
 31
0.0
  0
LINE
  5
22B
330
1F
100
AcDbEntity
  8
0
  6
Continuous
 62
     7
370
    25
100
AcDbLine
 10
75.7815281033
 20
123.9654519812
 30
0.0
 11
75.7815281033
 21
118.4654521972
 31
0.0
  0
LINE
  5
22C
330
1F
100
AcDbEntity
  8
0
  6
Continuous
 62
     7
370
    25
100
AcDbLine
 10
61.4508049667
 20
134.4461755112
 30
0.0
 11
61.0056793421
 21
132.7849448875
 31
0.0
  0
LINE
  5
22D
330
1F
100
AcDbEntity
  8
0
  6
Continuous
 62
     7
370
    25
100
AcDbLine
 10
62.1757855743
 20
134.640433009
 30
0.0
 11
61.4508049667
 21
134.4461755112
 31
0.0
  0
LINE
  5
22E
330
1F
100
AcDbEntity
  8
0
  6
Continuous
 62
     7
370
    25
100
AcDbLine
 10
62.7065083116
 20
134.1097102717
 30
0.0
 11
62.1757855743
 21
134.640433009
 31
0.0
  0
LINE
  5
22F
330
1F
100
AcDbEntity
  8
0
  6
Continuous
 62
     7
370
    25
100
AcDbLine
 10
62.2613130241
 20
132.4482173875
 30
0.0
 11
62.7065083116
 21
134.1097102717
 31
0.0
  0
LINE
  5
230
330
1F
100
AcDbEntity
  8
0
  6
Continuous
 62
     7
370
    25
100
AcDbLine
 10
71.9629908085
 20
128.8111538843
 30
0.0
 11
70.584132719
 21
127.4322957948
 31
0.0
  0
LINE
  5
231
330
1F
100
AcDbEntity
  8
0
  6
Continuous
 62
     7
370
    25
100
AcDbLine
 10
71.9629908085
 20
128.8111538843
 30
0.0
 11
72.2487637877
 21
128.5253794149
 31
0.0
  0
LINE
  5
232
330
1F
100
AcDbEntity
  8
0
  6
Continuous
 62
     7
370
    25
100
AcDbLine
 10
72.2487637877
 20
128.5253794149
 30
0.0
 11
70.8699056983
 21
127.1465220705
 31
0.0
  0
LINE
  5
233
330
1F
100
AcDbEntity
  8
0
  6
Continuous
 62
     7
370
    25
100
AcDbLine
 10
71.3914433598
 20
129.3827013329
 30
0.0
 11
70.0125852704
 21
128.0038432435
 31
0.0
  0
LINE
  5
234
330
1F
100
AcDbEntity
  8
0
  6
Continuous
 62
     7
370
    25
100
AcDbLine
 10
71.3914433598
 20
129.3827013329
 30
0.0
 11
71.9629908085
 21
128.8111538843
 31
0.0
  0
LINE
  5
235
330
1F
100
AcDbEntity
  8
0
  6
Continuous
 62
     7
370
    25
100
AcDbLine
 10
71.1056688904
 20
129.6684758023
 30
0.0
 11
69.726810801
 21
128.2896169678
 31
0.0
  0
LINE
  5
236
330
1F
100
AcDbEntity
  8
0
  6
Continuous
 62
     7
370
    25
100
AcDbLine
 10
71.1056688904
 20
129.6684758023
 30
0.0
 11
71.3914433598
 21
129.3827013329
 31
0.0
  0
INSERT
  5
242
330
1F
100
AcDbEntity
  8
0
  6
Continuous
 62
     7
370
     0
100
AcDbBlockReference
  2
SW_CENTERMARKSYMBOL_2
 10
57.1815276622
 20
116.0154522613
 30
0.0
  0
LINE
  5
243
330
1F
100
AcDbEntity
  8
0
  6
CENTERX2
 62
     7
370
    18
100
AcDbLine
 10
80.5408543362
 20
121.2154522613
 30
0.0
 11
73.7815276622
 21
121.2154522613
 31
0.0
  0
LINE
  5
244
330
1F
100
AcDbEntity
  8
0
  6
CENTERX2
 62
     7
370
    18
100
AcDbLine
 10
80.5408543362
 20
109.0154522613
 30
0.0
 11
73.7815276622
 21
109.0154522613
 31
0.0
  0
LINE
  5
245
330
1F
100
AcDbEntity
  8
0
  6
CENTERX2
 62
     7
370
    18
100
AcDbLine
 10
80.5408543362
 20
121.2154522613
 30
0.0
 11
73.7815276622
 21
121.2154522613
 31
0.0
  0
LINE
  5
246
330
1F
100
AcDbEntity
  8
0
  6
Continuous
 62
     7
370
    25
100
AcDbLine
 10
128.8071609292
 20
28.8364581085
 30
0.0
 11
136.707160734
 21
28.8364581085
 31
0.0
  0
LINE
  5
247
330
1F
100
AcDbEntity
  8
0
  6
Continuous
 62
     7
370
    25
100
AcDbLine
 10
126.4671608064
 20
28.959093175
 30
0.0
 11
128.8071609292
 21
28.8364581085
 31
0.0
  0
LINE
  5
248
330
1F
100
AcDbEntity
  8
0
  6
Continuous
 62
     7
370
    25
100
AcDbLine
 10
123.9671602104
 20
29.3174780226
 30
0.0
 11
126.4671608064
 21
29.1864580727
 31
0.0
  0
LINE
  5
249
330
1F
100
AcDbEntity
  8
0
  6
Continuous
 62
     7
370
    25
100
AcDbLine
 10
136.707160734
 20
29.5864588833
 30
0.0
 11
139.407160804
 21
29.72796031
 31
0.0
  0
LINE
  5
24A
330
1F
100
AcDbEntity
  8
0
  6
Continuous
 62
     7
370
    25
100
AcDbLine
 10
123.9671602104
 20
60.636458478
 30
0.0
 11
123.1671600792
 21
60.636458478
 31
0.0
  0
LINE
  5
24B
330
1F
100
AcDbEntity
  8
0
  6
Continuous
 62
     7
370
    25
100
AcDbLine
 10
123.1671600792
 20
31.4364589072
 30
0.0
 11
123.9671602104
 21
31.4364589072
 31
0.0
  0
LINE
  5
24C
330
1F
100
AcDbEntity
  8
0
  6
Continuous
 62
     7
370
    25
100
AcDbLine
 10
123.1671600792
 20
59.8364583469
 30
0.0
 11
118.307161257
 21
59.7091949797
 31
0.0
  0
LINE
  5
24D
330
1F
100
AcDbEntity
  8
0
  6
Continuous
 62
     7
370
    25
100
AcDbLine
 10
118.307161257
 20
32.3637224055
 30
0.0
 11
123.1671600792
 21
32.2364590383
 31
0.0
  0
LINE
  5
24E
330
1F
100
AcDbEntity
  8
0
  6
Continuous
 62
     7
370
    25
100
AcDbLine
 10
128.8571610305
 20
67.8364581681
 30
0.0
 11
128.8571610305
 21
67.5364590502
 31
0.0
  0
LINE
  5
24F
330
1F
100
AcDbEntity
  8
0
  6
Continuous
 62
     7
370
    25
100
AcDbLine
 10
134.3571606282
 20
67.5364590502
 30
0.0
 11
134.3571606282
 21
67.8364581681
 31
0.0
  0
LINE
  5
250
330
1F
100
AcDbEntity
  8
0
  6
Continuous
 62
     7
370
    25
100
AcDbLine
 10
128.8571610305
 20
67.5364590502
 30
0.0
 11
129.3821609769
 21
67.395784638
 31
0.0
  0
LINE
  5
251
330
1F
100
AcDbEntity
  8
0
  6
Continuous
 62
     7
370
    25
100
AcDbLine
 10
133.8321606818
 20
67.395784638
 30
0.0
 11
134.3571606282
 21
67.5364590502
 31
0.0
  0
LINE
  5
252
330
1F
100
AcDbEntity
  8
0
  6
Continuous
 62
     7
370
    25
100
AcDbLine
 10
133.8321606818
 20
64.6364591337
 30
0.0
 11
133.8321606818
 21
67.395784638
 31
0.0
  0
LINE
  5
253
330
1F
100
AcDbEntity
  8
0
  6
Continuous
 62
     7
370
    25
100
AcDbLine
 10
129.3821609769
 20
67.395784638
 30
0.0
 11
129.3821609769
 21
64.6364591337
 31
0.0
  0
LINE
  5
254
330
1F
100
AcDbEntity
  8
0
  6
Continuous
 62
     7
370
    25
100
AcDbLine
 10
149.5004832003
 20
35.4225009001
 30
0.0
 11
149.7071608159
 21
35.5619064784
 31
0.0
  0
LINE
  5
255
330
1F
100
AcDbEntity
  8
0
  6
Continuous
 62
     7
370
    25
100
AcDbLine
 10
149.7071608159
 20
56.5110109067
 30
0.0
 11
149.5004832003
 21
56.6504164851
 31
0.0
  0
LINE
  5
256
330
1F
100
AcDbEntity
  8
0
  6
Continuous
 62
     7
370
    25
100
AcDbLine
 10
149.7071608159
 20
35.5619064784
 30
0.0
 11
149.9071604762
 21
35.5619064784
 31
0.0
  0
LINE
  5
257
330
1F
100
AcDbEntity
  8
0
  6
Continuous
 62
     7
370
    25
100
AcDbLine
 10
149.9071604762
 20
56.5110109067
 30
0.0
 11
149.7071608159
 21
56.5110109067
 31
0.0
  0
LINE
  5
258
330
1F
100
AcDbEntity
  8
0
  6
Continuous
 62
     7
370
    25
100
AcDbLine
 10
170.3571616862
 20
36.6864583707
 30
0.0
 11
173.1571614001
 21
36.6864583707
 31
0.0
  0
LINE
  5
259
330
1F
100
AcDbEntity
  8
0
  6
Continuous
 62
     7
370
    25
100
AcDbLine
 10
173.1571614001
 20
55.3864590145
 30
0.0
 11
170.3571616862
 21
55.3864590145
 31
0.0
  0
LINE
  5
25A
330
1F
100
AcDbEntity
  8
0
  6
Continuous
 62
     7
370
    25
100
AcDbLine
 10
149.9071604762
 20
35.9314590013
 30
0.0
 11
150.4713534567
 21
35.9314590013
 31
0.0
  0
LINE
  5
25B
330
1F
100
AcDbEntity
  8
0
  6
Continuous
 62
     7
370
    25
100
AcDbLine
 10
158.8071613762
 20
35.9314590013
 30
0.0
 11
170.3571616862
 21
35.9314590013
 31
0.0
  0
CIRCLE
  5
25C
330
1F
100
AcDbEntity
  8
0
  6
Continuous
 62
     7
370
    25
100
AcDbCircle
 10
155.307160804
 20
31.4364586926
 30
0.0
 40
0.5
  0
CIRCLE
  5
25D
330
1F
100
AcDbEntity
  8
0
  6
Continuous
 62
     7
370
    25
100
AcDbCircle
 10
127.307160804
 20
31.4364586926
 30
0.0
 40
0.5
  0
CIRCLE
  5
25E
330
1F
100
AcDbEntity
  8
0
  6
Continuous
 62
     7
370
    25
100
AcDbCircle
 10
155.307160804
 20
60.6364586926
 30
0.0
 40
0.5
  0
CIRCLE
  5
25F
330
1F
100
AcDbEntity
  8
0
  6
Continuous
 62
     7
370
    25
100
AcDbCircle
 10
127.307160804
 20
60.6364586926
 30
0.0
 40
0.5
  0
LINE
  5
260
330
1F
100
AcDbEntity
  8
0
  6
Continuous
 62
     7
370
    25
100
AcDbLine
 10
124.257160649
 20
30.0364590502
 30
0.0
 11
158.3571612093
 21
30.0364590502
 31
0.0
  0
LINE
  5
261
330
1F
100
AcDbEntity
  8
0
  6
Continuous
 62
     7
370
    25
100
AcDbLine
 10
158.3571612093
 20
33.0264590001
 30
0.0
 11
124.257160649
 21
33.0264590001
 31
0.0
  0
LINE
  5
262
330
1F
100
AcDbEntity
  8
0
  6
Continuous
 62
     7
370
    25
100
AcDbLine
 10
158.3571612093
 20
30.0364590502
 30
0.0
 11
158.3571612093
 21
33.0264590001
 31
0.0
  0
LINE
  5
263
330
1F
100
AcDbEntity
  8
0
  6
Continuous
 62
     7
370
    25
100
AcDbLine
 10
124.257160649
 20
33.0264590001
 30
0.0
 11
124.257160649
 21
30.0364590502
 31
0.0
  0
LINE
  5
264
330
1F
100
AcDbEntity
  8
0
  6
Continuous
 62
     7
370
    25
100
AcDbLine
 10
124.257160649
 20
33.0264590001
 30
0.0
 11
124.257160649
 21
33.4864593363
 31
0.0
  0
LINE
  5
265
330
1F
100
AcDbEntity
  8
0
  6
Continuous
 62
     7
370
    25
100
AcDbLine
 10
124.257160649
 20
33.4864593363
 30
0.0
 11
158.3571612093
 21
33.4864593363
 31
0.0
  0
LINE
  5
266
330
1F
100
AcDbEntity
  8
0
  6
Continuous
 62
     7
370
    25
100
AcDbLine
 10
158.3571612093
 20
33.4864593363
 30
0.0
 11
158.3571612093
 21
33.0264590001
 31
0.0
  0
LINE
  5
267
330
1F
100
AcDbEntity
  8
0
  6
Continuous
 62
     7
370
    25
100
AcDbLine
 10
158.3571612093
 20
62.036458335
 30
0.0
 11
124.257160649
 21
62.036458335
 31
0.0
  0
LINE
  5
268
330
1F
100
AcDbEntity
  8
0
  6
Continuous
 62
     7
370
    25
100
AcDbLine
 10
124.257160649
 20
59.046458385
 30
0.0
 11
158.3571612093
 21
59.046458385
 31
0.0
  0
LINE
  5
269
330
1F
100
AcDbEntity
  8
0
  6
Continuous
 62
     7
370
    25
100
AcDbLine
 10
124.257160649
 20
62.036458335
 30
0.0
 11
124.257160649
 21
59.046458385
 31
0.0
  0
LINE
  5
26A
330
1F
100
AcDbEntity
  8
0
  6
Continuous
 62
     7
370
    25
100
AcDbLine
 10
158.3571612093
 20
59.046458385
 30
0.0
 11
158.3571612093
 21
62.036458335
 31
0.0
  0
LINE
  5
26B
330
1F
100
AcDbEntity
  8
0
  6
Continuous
 62
     7
370
    25
100
AcDbLine
 10
158.3571612093
 20
58.5864580489
 30
0.0
 11
124.257160649
 21
58.5864580489
 31
0.0
  0
LINE
  5
26C
330
1F
100
AcDbEntity
  8
0
  6
Continuous
 62
     7
370
    25
100
AcDbLine
 10
124.257160649
 20
58.5864580489
 30
0.0
 11
124.257160649
 21
59.046458385
 31
0.0
  0
LINE
  5
26D
330
1F
100
AcDbEntity
  8
0
  6
Continuous
 62
     7
370
    25
100
AcDbLine
 10
158.3571612093
 20
59.046458385
 30
0.0
 11
158.3571612093
 21
58.5864580489
 31
0.0
  0
LINE
  5
26E
330
1F
100
AcDbEntity
  8
0
  6
Continuous
 62
     7
370
    25
100
AcDbLine
 10
123.8071604822
 20
33.4964580155
 30
0.0
 11
124.257160649
 21
33.4964580155
 31
0.0
  0
LINE
  5
26F
330
1F
100
AcDbEntity
  8
0
  6
Continuous
 62
     7
370
    25
100
AcDbLine
 10
123.8071604822
 20
58.5764593697
 30
0.0
 11
123.8071604822
 21
33.4964580155
 31
0.0
  0
LINE
  5
270
330
1F
100
AcDbEntity
  8
0
  6
Continuous
 62
     7
370
    25
100
AcDbLine
 10
123.8071604822
 20
58.5764593697
 30
0.0
 11
124.257160649
 21
58.5764593697
 31
0.0
  0
LINE
  5
271
330
1F
100
AcDbEntity
  8
0
  6
Continuous
 62
     7
370
    25
100
AcDbLine
 10
124.257160649
 20
58.5764593697
 30
0.0
 11
124.257160649
 21
33.4964580155
 31
0.0
  0
LINE
  5
272
330
1F
100
AcDbEntity
  8
0
  6
Continuous
 62
     7
370
    25
100
AcDbLine
 10
158.8071613762
 20
58.5764593697
 30
0.0
 11
158.3571612093
 21
58.5764593697
 31
0.0
  0
LINE
  5
273
330
1F
100
AcDbEntity
  8
0
  6
Continuous
 62
     7
370
    25
100
AcDbLine
 10
158.8071613762
 20
33.4964580155
 30
0.0
 11
158.8071613762
 21
58.5764593697
 31
0.0
  0
LINE
  5
274
330
1F
100
AcDbEntity
  8
0
  6
Continuous
 62
     7
370
    25
100
AcDbLine
 10
158.3571612093
 20
33.4964580155
 30
0.0
 11
158.3571612093
 21
58.5764593697
 31
0.0
  0
LINE
  5
275
330
1F
100
AcDbEntity
  8
0
  6
Continuous
 62
     7
370
    25
100
AcDbLine
 10
158.8071613762
 20
33.4964580155
 30
0.0
 11
158.3571612093
 21
33.4964580155
 31
0.0
  0
ARC
  5
276
330
1F
100
AcDbEntity
  8
0
  6
Continuous
 62
     7
370
    25
100
AcDbCircle
 10
124.257160804
 20
33.4964586926
 30
0.0
 40
0.0100000000000122
100
AcDbArc
 50
180.0
 51
270.0000000001
  0
LINE
  5
277
330
1F
100
AcDbEntity
  8
0
  6
Continuous
 62
     7
370
    25
100
AcDbLine
 10
123.7971603129
 20
33.4964580155
 30
0.0
 11
123.8071604822
 21
33.4964580155
 31
0.0
  0
ARC
  5
278
330
1F
100
AcDbEntity
  8
0
  6
Continuous
 62
     7
370
    25
100
AcDbCircle
 10
124.257160804
 20
33.4964586926
 30
0.0
 40
0.460000000000008
100
AcDbArc
 50
180.0
 51
270.0
  0
ARC
  5
279
330
1F
100
AcDbEntity
  8
0
  6
Continuous
 62
     7
370
    25
100
AcDbCircle
 10
158.357160804
 20
33.4964586926
 30
0.0
 40
0.0100000000000193
100
AcDbArc
 50
270.0
 51
360.0
  0
ARC
  5
27A
330
1F
100
AcDbEntity
  8
0
  6
Continuous
 62
     7
370
    25
100
AcDbCircle
 10
158.357160804
 20
33.4964586926
 30
0.0
 40
0.4600000000000364
100
AcDbArc
 50
270.0
 51
0.0
  0
LINE
  5
27B
330
1F
100
AcDbEntity
  8
0
  6
Continuous
 62
     7
370
    25
100
AcDbLine
 10
158.8171615455
 20
33.4964580155
 30
0.0
 11
158.8071613762
 21
33.4964580155
 31
0.0
  0
ARC
  5
27C
330
1F
100
AcDbEntity
  8
0
  6
Continuous
 62
     7
370
    25
100
AcDbCircle
 10
158.357160804
 20
58.5764586926
 30
0.0
 40
0.0100000000000122
100
AcDbArc
 50
360.0
 51
90.0
  0
ARC
  5
27D
330
1F
100
AcDbEntity
  8
0
  6
Continuous
 62
     7
370
    25
100
AcDbCircle
 10
158.357160804
 20
58.5764586926
 30
0.0
 40
0.460000000000008
100
AcDbArc
 50
0.0
 51
90.0
  0
LINE
  5
27E
330
1F
100
AcDbEntity
  8
0
  6
Continuous
 62
     7
370
    25
100
AcDbLine
 10
158.8171615455
 20
58.5764593697
 30
0.0
 11
158.8071613762
 21
58.5764593697
 31
0.0
  0
ARC
  5
27F
330
1F
100
AcDbEntity
  8
0
  6
Continuous
 62
     7
370
    25
100
AcDbCircle
 10
124.257160804
 20
58.5764586926
 30
0.0
 40
0.0100000000000193
100
AcDbArc
 50
90.0
 51
180.0
  0
ARC
  5
280
330
1F
100
AcDbEntity
  8
0
  6
Continuous
 62
     7
370
    25
100
AcDbCircle
 10
124.257160804
 20
58.5764586926
 30
0.0
 40
0.460000000000008
100
AcDbArc
 50
90.0
 51
180.0
  0
LINE
  5
281
330
1F
100
AcDbEntity
  8
0
  6
Continuous
 62
     7
370
    25
100
AcDbLine
 10
123.7971603129
 20
58.5764593697
 30
0.0
 11
123.8071604822
 21
58.5764593697
 31
0.0
  0
LINE
  5
282
330
1F
100
AcDbEntity
  8
0
  6
Continuous
 62
     7
370
    25
100
AcDbLine
 10
158.3571612093
 20
58.5764593697
 30
0.0
 11
158.3471610401
 21
58.5764593697
 31
0.0
  0
LINE
  5
283
330
1F
100
AcDbEntity
  8
0
  6
Continuous
 62
     7
370
    25
100
AcDbLine
 10
158.3471610401
 20
33.4964580155
 30
0.0
 11
158.3571612093
 21
33.4964580155
 31
0.0
  0
LINE
  5
284
330
1F
100
AcDbEntity
  8
0
  6
Continuous
 62
     7
370
    25
100
AcDbLine
 10
158.3471610401
 20
58.5764593697
 30
0.0
 11
158.3471610401
 21
33.4964580155
 31
0.0
  0
LINE
  5
285
330
1F
100
AcDbEntity
  8
0
  6
Continuous
 62
     7
370
    25
100
AcDbLine
 10
124.257160649
 20
33.4964580155
 30
0.0
 11
124.257160649
 21
33.4864593363
 31
0.0
  0
LINE
  5
286
330
1F
100
AcDbEntity
  8
0
  6
Continuous
 62
     7
370
    25
100
AcDbLine
 10
124.257160649
 20
33.4964580155
 30
0.0
 11
124.2671608183
 21
33.4964580155
 31
0.0
  0
LINE
  5
287
330
1F
100
AcDbEntity
  8
0
  6
Continuous
 62
     7
370
    25
100
AcDbLine
 10
124.2671608183
 20
58.5764593697
 30
0.0
 11
124.257160649
 21
58.5764593697
 31
0.0
  0
LINE
  5
288
330
1F
100
AcDbEntity
  8
0
  6
Continuous
 62
     7
370
    25
100
AcDbLine
 10
124.2671608183
 20
33.4964580155
 30
0.0
 11
124.2671608183
 21
58.5764593697
 31
0.0
  0
LINE
  5
289
330
1F
100
AcDbEntity
  8
0
  6
Continuous
 62
     7
370
    25
100
AcDbLine
 10
158.3571612093
 20
33.4864593363
 30
0.0
 11
158.3571612093
 21
33.4964580155
 31
0.0
  0
LINE
  5
28A
330
1F
100
AcDbEntity
  8
0
  6
Continuous
 62
     7
370
    25
100
AcDbLine
 10
158.3471610401
 20
33.4964580155
 30
0.0
 11
124.2671608183
 21
33.4964580155
 31
0.0
  0
LINE
  5
28B
330
1F
100
AcDbEntity
  8
0
  6
Continuous
 62
     7
370
    25
100
AcDbLine
 10
124.257160649
 20
58.5864580489
 30
0.0
 11
124.257160649
 21
58.5764593697
 31
0.0
  0
LINE
  5
28C
330
1F
100
AcDbEntity
  8
0
  6
Continuous
 62
     7
370
    25
100
AcDbLine
 10
158.3571612093
 20
58.5764593697
 30
0.0
 11
158.3571612093
 21
58.5864580489
 31
0.0
  0
LINE
  5
28D
330
1F
100
AcDbEntity
  8
0
  6
Continuous
 62
     7
370
    25
100
AcDbLine
 10
124.2671608183
 20
58.5764593697
 30
0.0
 11
158.3471610401
 21
58.5764593697
 31
0.0
  0
CIRCLE
  5
28E
330
1F
100
AcDbEntity
  8
0
  6
Continuous
 62
     7
370
    25
100
AcDbCircle
 10
133.007160804
 20
35.6364586926
 30
0.0
 40
0.5499999999999972
  0
CIRCLE
  5
28F
330
1F
100
AcDbEntity
  8
0
  6
Continuous
 62
     7
370
    25
100
AcDbCircle
 10
133.007160804
 20
56.4364586926
 30
0.0
 40
0.5500000000000043
  0
CIRCLE
  5
290
330
1F
100
AcDbEntity
  8
0
  6
Continuous
 62
     7
370
    25
100
AcDbCircle
 10
150.007160804
 20
56.4364586926
 30
0.0
 40
0.54999999999999
  0
CIRCLE
  5
291
330
1F
100
AcDbEntity
  8
0
  6
Continuous
 62
     7
370
    25
100
AcDbCircle
 10
150.007160804
 20
35.6364586926
 30
0.0
 40
0.5499999999999972
  0
ARC
  5
292
330
1F
100
AcDbEntity
  8
0
  6
Continuous
 62
     7
370
    25
100
AcDbCircle
 10
150.6758791648
 20
62.0739587019
 30
0.0
 40
0.2678038110518525
100
AcDbArc
 50
101.4217527133
 51
188.0495388548
  0
SPLINE
  5
293
330
1F
100
AcDbEntity
  8
0
  6
Continuous
 62
     7
370
    25
100
AcDbSpline
210
0.0
220
0.0
230
1.0
 70
    24
 71
     3
 72
     9
 73
     5
 74
     0
 42
0.000000001
 43
0.00000001
 40
0.0
 40
0.0
 40
0.0
 40
0.0
 40
0.4999999489410422
 40
1.0
 40
1.0
 40
1.0
 40
1.0
 10
150.7642678174841
 20
62.3364589429281
 30
0.0
 10
150.7377845414826
 20
62.3364589429281
 30
0.0
 10
150.6848179840709
 20
62.3364589429281
 30
0.0
 10
150.6435034040964
 20
62.3364589429281
 30
0.0
 10
150.6228461119997
 20
62.3364589429281
 30
0.0
  0
LINE
  5
294
330
1F
100
AcDbEntity
  8
0
  6
Continuous
 62
     7
370
    25
100
AcDbLine
 10
150.7642678175
 20
62.036458335
 30
0.0
 11
150.7642678175
 21
62.3364589429
 31
0.0
  0
LINE
  5
295
330
1F
100
AcDbEntity
  8
0
  6
Continuous
 62
     7
370
    25
100
AcDbLine
 10
155.2500545237
 20
62.3364589429
 30
0.0
 11
155.2500545237
 21
62.036458335
 31
0.0
  0
SPLINE
  5
296
330
1F
100
AcDbEntity
  8
0
  6
Continuous
 62
     7
370
    25
100
AcDbSpline
210
0.0
220
0.0
230
1.0
 70
    24
 71
     3
 72
     9
 73
     5
 74
     0
 42
0.000000001
 43
0.00000001
 40
0.0
 40
0.0
 40
0.0
 40
0.0
 40
0.4999980664214566
 40
1.0
 40
1.0
 40
1.0
 40
1.0
 10
155.3914754841196
 20
62.3364589429281
 30
0.0
 10
155.3708184479771
 20
62.3364589429281
 30
0.0
 10
155.3295042159234
 20
62.3364589429281
 30
0.0
 10
155.2765378227131
 20
62.3364589429281
 30
0.0
 10
155.2500545236933
 20
62.3364589429281
 30
0.0
  0
ARC
  5
297
330
1F
100
AcDbEntity
  8
0
  6
Continuous
 62
     7
370
    25
100
AcDbCircle
 10
155.3384438153
 20
62.0739603391
 30
0.0
 40
0.2678019322628646
100
AcDbArc
 50
351.9500505478
 51
78.5784681566
  0
LINE
  5
298
330
1F
100
AcDbEntity
  8
0
  6
Continuous
 62
     7
370
    25
100
AcDbLine
 10
150.7642678175
 20
62.3364589429
 30
0.0
 11
155.2500545237
 21
62.3364589429
 31
0.0
  0
LINE
  5
299
330
1F
100
AcDbEntity
  8
0
  6
Continuous
 62
     7
370
    25
100
AcDbLine
 10
155.3914754841
 20
62.3364589429
 30
0.0
 11
156.1485826228
 21
62.3364589429
 31
0.0
  0
ARC
  5
29A
330
1F
100
AcDbEntity
  8
0
  6
Continuous
 62
     7
370
    25
100
AcDbCircle
 10
156.0955501481
 20
62.0739597692
 30
0.0
 40
0.2678026504028711
100
AcDbArc
 50
351.9501954068
 51
78.5783232976
  0
ARC
  5
29B
330
1F
100
AcDbEntity
  8
0
  6
Continuous
 62
     7
370
    25
100
AcDbCircle
 10
149.9187717944
 20
62.0739593926
 30
0.0
 40
0.2678029406012908
100
AcDbArc
 50
101.4215771328
 51
188.0497144354
  0
LINE
  5
29C
330
1F
100
AcDbEntity
  8
0
  6
Continuous
 62
     7
370
    25
100
AcDbLine
 10
149.8657397184
 20
62.3364589429
 30
0.0
 11
150.622846112
 21
62.3364589429
 31
0.0
  0
ARC
  5
29D
330
1F
100
AcDbEntity
  8
0
  6
Continuous
 62
     7
370
    25
100
AcDbCircle
 10
149.807160804
 20
62.0364586926
 30
0.0
 40
0.3000000000000114
100
AcDbArc
 50
89.9999999995
 51
180.0
  0
SPLINE
  5
29E
330
1F
100
AcDbEntity
  8
0
  6
Continuous
 62
     7
370
    25
100
AcDbSpline
210
0.0
220
0.0
230
1.0
 70
    24
 71
     3
 72
     9
 73
     5
 74
     0
 42
0.000000001
 43
0.00000001
 40
0.0
 40
0.0
 40
0.0
 40
0.0
 40
0.500001036034645
 40
1.0
 40
1.0
 40
1.0
 40
1.0
 10
149.865739718424
 20
62.3364589429281
 30
0.0
 10
149.8489438128962
 20
62.3364589429281
 30
0.0
 10
149.815352071445
 20
62.3364589429281
 30
0.0
 10
149.8098913657745
 20
62.3364589429281
 30
0.0
 10
149.8071610185968
 20
62.3364589429281
 30
0.0
  0
ARC
  5
29F
330
1F
100
AcDbEntity
  8
0
  6
Continuous
 62
     7
370
    25
100
AcDbCircle
 10
156.207160804
 20
62.0364586926
 30
0.0
 40
0.3000000000000114
100
AcDbArc
 50
0.0
 51
90.0000000235
  0
SPLINE
  5
2A0
330
1F
100
AcDbEntity
  8
0
  6
Continuous
 62
     7
370
    25
100
AcDbSpline
210
0.0
220
0.0
230
1.0
 70
    24
 71
     3
 72
     9
 73
     5
 74
     0
 42
0.000000001
 43
0.00000001
 40
0.0
 40
0.0
 40
0.0
 40
0.0
 40
0.5000020818013727
 40
1.0
 40
1.0
 40
1.0
 40
1.0
 10
156.2071605775224
 20
62.3364589429281
 30
0.0
 10
156.2044298554018
 20
62.3364589429281
 30
0.0
 10
156.1989684338997
 20
62.3364589429281
 30
0.0
 10
156.1653778465162
 20
62.3364589429281
 30
0.0
 10
156.1485826227533
 20
62.3364589429281
 30
0.0
  0
LINE
  5
2A1
330
1F
100
AcDbEntity
  8
0
  6
Continuous
 62
     7
370
    25
100
AcDbLine
 10
136.707160734
 20
28.8364581085
 30
0.0
 11
136.707160734
 21
30.0364590502
 31
0.0
  0
LINE
  5
2A2
330
1F
100
AcDbEntity
  8
0
  6
Continuous
 62
     7
370
    25
100
AcDbLine
 10
128.8071609292
 20
28.8364581085
 30
0.0
 11
128.8071609292
 21
30.0364590502
 31
0.0
  0
LINE
  5
2A3
330
1F
100
AcDbEntity
  8
0
  6
Continuous
 62
     7
370
    25
100
AcDbLine
 10
126.4671608064
 20
28.959093175
 30
0.0
 11
126.4671608064
 21
30.0364590502
 31
0.0
  0
LINE
  5
2A4
330
1F
100
AcDbEntity
  8
0
  6
Continuous
 62
     7
370
    25
100
AcDbLine
 10
123.9671602104
 20
29.3174780226
 30
0.0
 11
123.9671602104
 21
33.1393874503
 31
0.0
  0
LINE
  5
2A5
330
1F
100
AcDbEntity
  8
0
  6
Continuous
 62
     7
370
    25
100
AcDbLine
 10
123.9671602104
 20
58.9335299349
 30
0.0
 11
123.9671602104
 21
60.1263246751
 31
0.0
  0
LINE
  5
2A6
330
1F
100
AcDbEntity
  8
0
  6
Continuous
 62
     7
370
    25
100
AcDbLine
 10
124.257160649
 20
60.1443371988
 30
0.0
 11
123.9671602104
 21
60.1263246751
 31
0.0
  0
LINE
  5
2A7
330
1F
100
AcDbEntity
  8
0
  6
Continuous
 62
     7
370
    25
100
AcDbLine
 10
139.407160804
 20
30.0364590502
 30
0.0
 11
139.407160804
 21
29.72796031
 31
0.0
  0
LINE
  5
2A8
330
1F
100
AcDbEntity
  8
0
  6
Continuous
 62
     7
370
    25
100
AcDbLine
 10
123.1671600792
 20
46.0364586926
 30
0.0
 11
123.1671600792
 21
60.636458478
 31
0.0
  0
LINE
  5
2A9
330
1F
100
AcDbEntity
  8
0
  6
Continuous
 62
     7
370
    25
100
AcDbLine
 10
123.1671600792
 20
31.4364589072
 30
0.0
 11
123.1671600792
 21
46.0364586926
 31
0.0
  0
LINE
  5
2AA
330
1F
100
AcDbEntity
  8
0
  6
Continuous
 62
     7
370
    25
100
AcDbLine
 10
118.307161257
 20
46.0364586926
 30
0.0
 11
118.307161257
 21
59.7091949797
 31
0.0
  0
LINE
  5
2AB
330
1F
100
AcDbEntity
  8
0
  6
Continuous
 62
     7
370
    25
100
AcDbLine
 10
118.307161257
 20
32.3637224055
 30
0.0
 11
118.307161257
 21
46.0364586926
 31
0.0
  0
LINE
  5
2AC
330
1F
100
AcDbEntity
  8
0
  6
Continuous
 62
     7
370
    25
100
AcDbLine
 10
128.3571607623
 20
64.0364594078
 30
0.0
 11
134.4071607295
 21
64.0364594078
 31
0.0
  0
LINE
  5
2AD
330
1F
100
AcDbEntity
  8
0
  6
Continuous
 62
     7
370
    25
100
AcDbLine
 10
134.4071607295
 20
62.036458335
 30
0.0
 11
134.4071607295
 21
64.0364594078
 31
0.0
  0
LINE
  5
2AE
330
1F
100
AcDbEntity
  8
0
  6
Continuous
 62
     7
370
    25
100
AcDbLine
 10
128.3571607623
 20
62.036458335
 30
0.0
 11
128.3571607623
 21
64.0364594078
 31
0.0
  0
LINE
  5
2AF
330
1F
100
AcDbEntity
  8
0
  6
Continuous
 62
     7
370
    25
100
AcDbLine
 10
128.8571610305
 20
64.6364591337
 30
0.0
 11
128.8571610305
 21
64.0364594078
 31
0.0
  0
LINE
  5
2B0
330
1F
100
AcDbEntity
  8
0
  6
Continuous
 62
     7
370
    25
100
AcDbLine
 10
128.8571610305
 20
64.6364591337
 30
0.0
 11
134.3571606282
 21
64.6364591337
 31
0.0
  0
LINE
  5
2B1
330
1F
100
AcDbEntity
  8
0
  6
Continuous
 62
     7
370
    25
100
AcDbLine
 10
134.3571606282
 20
64.6364591337
 30
0.0
 11
134.3571606282
 21
64.0364594078
 31
0.0
  0
LINE
  5
2B2
330
1F
100
AcDbEntity
  8
0
  6
Continuous
 62
     7
370
    25
100
AcDbLine
 10
128.8571610305
 20
67.8364581681
 30
0.0
 11
134.3571606282
 21
67.8364581681
 31
0.0
  0
LINE
  5
2B3
330
1F
100
AcDbEntity
  8
0
  6
Continuous
 62
     7
370
    25
100
AcDbLine
 10
134.3571606282
 20
67.5364590502
 30
0.0
 11
128.8571610305
 21
67.5364590502
 31
0.0
  0
LINE
  5
2B4
330
1F
100
AcDbEntity
  8
0
  6
Continuous
 62
     7
370
    25
100
AcDbLine
 10
129.3821609769
 20
67.395784638
 30
0.0
 11
133.8321606818
 21
67.395784638
 31
0.0
  0
LINE
  5
2B5
330
1F
100
AcDbEntity
  8
0
  6
Continuous
 62
     7
370
    25
100
AcDbLine
 10
139.407160804
 20
63.9364592052
 30
0.0
 11
134.4071607295
 21
63.9364592052
 31
0.0
  0
LINE
  5
2B6
330
1F
100
AcDbEntity
  8
0
  6
Continuous
 62
     7
370
    25
100
AcDbLine
 10
139.407160804
 20
62.036458335
 30
0.0
 11
139.407160804
 21
63.9364592052
 31
0.0
  0
LINE
  5
2B7
330
1F
100
AcDbEntity
  8
0
  6
Continuous
 62
     7
370
    25
100
AcDbLine
 10
128.3571607623
 20
63.9364592052
 30
0.0
 11
123.9671602104
 21
63.9364592052
 31
0.0
  0
LINE
  5
2B8
330
1F
100
AcDbEntity
  8
0
  6
Continuous
 62
     7
370
    25
100
AcDbLine
 10
123.9671602104
 20
60.1263246751
 30
0.0
 11
123.9671602104
 21
63.9364592052
 31
0.0
  0
LINE
  5
2B9
330
1F
100
AcDbEntity
  8
0
  6
Continuous
 62
     7
370
    25
100
AcDbLine
 10
149.7071608159
 20
56.5110109067
 30
0.0
 11
149.7071608159
 21
55.9754817999
 31
0.0
  0
LINE
  5
2BA
330
1F
100
AcDbEntity
  8
0
  6
Continuous
 62
     7
370
    25
100
AcDbLine
 10
149.7071608159
 20
36.0974355853
 30
0.0
 11
149.7071608159
 21
35.5619064784
 31
0.0
  0
LINE
  5
2BB
330
1F
100
AcDbEntity
  8
0
  6
Continuous
 62
     7
370
    25
100
AcDbLine
 10
149.9071604762
 20
55.895625732
 30
0.0
 11
149.9071604762
 21
56.5110109067
 31
0.0
  0
LINE
  5
2BC
330
1F
100
AcDbEntity
  8
0
  6
Continuous
 62
     7
370
    25
100
AcDbLine
 10
149.9071604762
 20
35.5619064784
 30
0.0
 11
149.9071604762
 21
36.1772916532
 31
0.0
  0
LINE
  5
2BD
330
1F
100
AcDbEntity
  8
0
  6
Continuous
 62
     7
370
    25
100
AcDbLine
 10
158.8071613762
 20
41.0694650627
 30
0.0
 11
170.3571616862
 21
41.0694650627
 31
0.0
  0
LINE
  5
2BE
330
1F
100
AcDbEntity
  8
0
  6
Continuous
 62
     7
370
    25
100
AcDbLine
 10
170.3571616862
 20
51.0034523225
 30
0.0
 11
158.8071613762
 21
51.0034523225
 31
0.0
  0
LINE
  5
2BF
330
1F
100
AcDbEntity
  8
0
  6
Continuous
 62
     7
370
    25
100
AcDbLine
 10
170.3571616862
 20
51.0034523225
 30
0.0
 11
170.3571616862
 21
41.0694650627
 31
0.0
  0
LINE
  5
2C0
330
1F
100
AcDbEntity
  8
0
  6
Continuous
 62
     7
370
    25
100
AcDbLine
 10
173.1571614001
 20
55.3864590145
 30
0.0
 11
173.1571614001
 21
36.6864583707
 31
0.0
  0
LINE
  5
2C1
330
1F
100
AcDbEntity
  8
0
  6
Continuous
 62
     7
370
    25
100
AcDbLine
 10
158.8071613762
 20
39.7864586926
 30
0.0
 11
170.3571616862
 21
39.7864586926
 31
0.0
  0
LINE
  5
2C2
330
1F
100
AcDbEntity
  8
0
  6
Continuous
 62
     7
370
    25
100
AcDbLine
 10
170.3571616862
 20
41.0694650627
 30
0.0
 11
170.3571616862
 21
39.7864586926
 31
0.0
  0
LINE
  5
2C3
330
1F
100
AcDbEntity
  8
0
  6
Continuous
 62
     7
370
    25
100
AcDbLine
 10
158.8071613762
 20
52.2864586926
 30
0.0
 11
170.3571616862
 21
52.2864586926
 31
0.0
  0
LINE
  5
2C4
330
1F
100
AcDbEntity
  8
0
  6
Continuous
 62
     7
370
    25
100
AcDbLine
 10
170.3571616862
 20
52.2864586926
 30
0.0
 11
170.3571616862
 21
51.0034523225
 31
0.0
  0
LINE
  5
2C5
330
1F
100
AcDbEntity
  8
0
  6
Continuous
 62
     7
370
    25
100
AcDbLine
 10
170.3571616862
 20
39.7864586926
 30
0.0
 11
170.3571616862
 21
35.9314590013
 31
0.0
  0
LINE
  5
2C6
330
1F
100
AcDbEntity
  8
0
  6
Continuous
 62
     7
370
    25
100
AcDbLine
 10
158.8071613762
 20
55.636458776
 30
0.0
 11
170.3571616862
 21
55.636458776
 31
0.0
  0
LINE
  5
2C7
330
1F
100
AcDbEntity
  8
0
  6
Continuous
 62
     7
370
    25
100
AcDbLine
 10
170.3571616862
 20
55.636458776
 30
0.0
 11
170.3571616862
 21
52.2864586926
 31
0.0
  0
LINE
  5
2C8
330
1F
100
AcDbEntity
  8
0
  6
Continuous
 62
     7
370
    25
100
AcDbLine
 10
150.0071606789
 20
56.9864585317
 30
0.0
 11
150.0071606789
 21
55.8864585376
 31
0.0
  0
INSERT
  5
2D4
330
1F
100
AcDbEntity
  8
0
  6
Continuous
 62
     7
370
     0
100
AcDbBlockReference
  2
SW_CENTERMARKSYMBOL_3
 10
127.307160804
 20
31.4364586926
 30
0.0
  0
INSERT
  5
2E0
330
1F
100
AcDbEntity
  8
0
  6
Continuous
 62
     7
370
     0
100
AcDbBlockReference
  2
SW_CENTERMARKSYMBOL_4
 10
127.307160804
 20
60.6364586926
 30
0.0
  0
INSERT
  5
2EC
330
1F
100
AcDbEntity
  8
0
  6
Continuous
 62
     7
370
     0
100
AcDbBlockReference
  2
SW_CENTERMARKSYMBOL_5
 10
155.307160804
 20
31.4364586926
 30
0.0
  0
INSERT
  5
2F8
330
1F
100
AcDbEntity
  8
0
  6
Continuous
 62
     7
370
     0
100
AcDbBlockReference
  2
SW_CENTERMARKSYMBOL_6
 10
155.307160804
 20
60.6364586926
 30
0.0
  0
LINE
  5
2F9
330
1F
100
AcDbEntity
  8
0
  6
CENTERX2
 62
     7
370
    18
100
AcDbLine
 10
115.6614813849
 20
46.0364586926
 30
0.0
 11
174.0620940518
 21
46.0364586926
 31
0.0
  0
ARC
  5
2FA
330
1F
100
AcDbEntity
  8
0
  6
Continuous
 62
     7
370
    25
100
AcDbCircle
 10
241.1925899297
 20
134.4654522613
 30
0.0
 40
0.4000000000000057
100
AcDbArc
 50
0.0
 51
180.0
  0
LINE
  5
2FB
330
1F
100
AcDbEntity
  8
0
  6
Continuous
 62
     7
370
    25
100
AcDbLine
 10
241.5925899487
 20
131.2154517725
 30
0.0
 11
241.5925899487
 21
134.4654516533
 31
0.0
  0
LINE
  5
2FC
330
1F
100
AcDbEntity
  8
0
  6
Continuous
 62
     7
370
    25
100
AcDbLine
 10
240.7925899107
 20
134.4654516533
 30
0.0
 11
240.7925899107
 21
131.2125594572
 31
0.0
  0
LINE
  5
2FD
330
1F
100
AcDbEntity
  8
0
  6
Continuous
 62
     7
370
    25
100
AcDbLine
 10
242.1925899073
 20
130.7154522494
 30
0.0
 11
242.1925899073
 21
131.2154517725
 31
0.0
  0
LINE
  5
2FE
330
1F
100
AcDbEntity
  8
0
  6
Continuous
 62
     7
370
    25
100
AcDbLine
 10
240.192589952
 20
131.2154517725
 30
0.0
 11
240.192589952
 21
130.7154522494
 31
0.0
  0
LINE
  5
2FF
330
1F
100
AcDbEntity
  8
0
  6
Continuous
 62
     7
370
    25
100
AcDbLine
 10
226.0925906211
 20
93.3654518083
 30
0.0
 11
226.0925906211
 21
93.2654516057
 31
0.0
  0
LINE
  5
300
330
1F
100
AcDbEntity
  8
0
  6
Continuous
 62
     7
370
    25
100
AcDbLine
 10
226.0925906211
 20
92.8154529289
 30
0.0
 11
226.0925906211
 21
92.7154527262
 31
0.0
  0
LINE
  5
301
330
1F
100
AcDbEntity
  8
0
  6
Continuous
 62
     7
370
    25
100
AcDbLine
 10
227.0925896674
 20
92.7154527262
 30
0.0
 11
227.0925896674
 21
92.8154529289
 31
0.0
  0
LINE
  5
302
330
1F
100
AcDbEntity
  8
0
  6
Continuous
 62
     7
370
    25
100
AcDbLine
 10
227.0925896674
 20
93.2654516057
 30
0.0
 11
227.0925896674
 21
93.3654518083
 31
0.0
  0
LINE
  5
303
330
1F
100
AcDbEntity
  8
0
  6
Continuous
 62
     7
370
    25
100
AcDbLine
 10
255.2925901919
 20
94.2154527858
 30
0.0
 11
255.2925901919
 21
93.9654515341
 31
0.0
  0
LINE
  5
304
330
1F
100
AcDbEntity
  8
0
  6
Continuous
 62
     7
370
    25
100
AcDbLine
 10
255.2925901919
 20
92.8154529289
 30
0.0
 11
255.2925901919
 21
92.7154527262
 31
0.0
  0
LINE
  5
305
330
1F
100
AcDbEntity
  8
0
  6
Continuous
 62
     7
370
    25
100
AcDbLine
 10
256.2925892382
 20
92.7154527262
 30
0.0
 11
256.2925892382
 21
92.8154529289
 31
0.0
  0
LINE
  5
306
330
1F
100
AcDbEntity
  8
0
  6
Continuous
 62
     7
370
    25
100
AcDbLine
 10
256.2925892382
 20
93.9654515341
 30
0.0
 11
256.2925892382
 21
94.2154527858
 31
0.0
  0
LINE
  5
307
330
1F
100
AcDbEntity
  8
0
  6
Continuous
 62
     7
370
    25
100
AcDbLine
 10
219.692589572
 20
106.2654526189
 30
0.0
 11
219.8332639843
 21
106.7904525653
 31
0.0
  0
LINE
  5
308
330
1F
100
AcDbEntity
  8
0
  6
Continuous
 62
     7
370
    25
100
AcDbLine
 10
219.8332639843
 20
111.2404522702
 30
0.0
 11
219.692589572
 21
111.7654522166
 31
0.0
  0
LINE
  5
309
330
1F
100
AcDbEntity
  8
0
  6
Continuous
 62
     7
370
    25
100
AcDbLine
 10
219.692589572
 20
118.4654521972
 30
0.0
 11
219.8332639843
 21
118.9904523299
 31
0.0
  0
LINE
  5
30A
330
1F
100
AcDbEntity
  8
0
  6
Continuous
 62
     7
370
    25
100
AcDbLine
 10
219.8332639843
 20
123.4404520348
 30
0.0
 11
219.692589572
 21
123.9654519812
 31
0.0
  0
LINE
  5
30B
330
1F
100
AcDbEntity
  8
0
  6
Continuous
 62
     7
370
    25
100
AcDbLine
 10
219.3925904542
 20
106.2654526189
 30
0.0
 11
219.692589572
 21
106.2654526189
 31
0.0
  0
LINE
  5
30C
330
1F
100
AcDbEntity
  8
0
  6
Continuous
 62
     7
370
    25
100
AcDbLine
 10
219.692589572
 20
111.7654522166
 30
0.0
 11
219.3925904542
 21
111.7654522166
 31
0.0
  0
LINE
  5
30D
330
1F
100
AcDbEntity
  8
0
  6
Continuous
 62
     7
370
    25
100
AcDbLine
 10
219.3925904542
 20
118.4654521972
 30
0.0
 11
219.692589572
 21
118.4654521972
 31
0.0
  0
LINE
  5
30E
330
1F
100
AcDbEntity
  8
0
  6
Continuous
 62
     7
370
    25
100
AcDbLine
 10
219.692589572
 20
123.9654519812
 30
0.0
 11
219.3925904542
 21
123.9654519812
 31
0.0
  0
LINE
  5
30F
330
1F
100
AcDbEntity
  8
0
  6
Continuous
 62
     7
370
    25
100
AcDbLine
 10
222.5925894886
 20
123.4404520348
 30
0.0
 11
219.8332639843
 21
123.4404520348
 31
0.0
  0
LINE
  5
310
330
1F
100
AcDbEntity
  8
0
  6
Continuous
 62
     7
370
    25
100
AcDbLine
 10
219.8332639843
 20
118.9904523299
 30
0.0
 11
222.5925894886
 21
118.9904523299
 31
0.0
  0
LINE
  5
311
330
1F
100
AcDbEntity
  8
0
  6
Continuous
 62
     7
370
    25
100
AcDbLine
 10
222.5925894886
 20
111.2404522702
 30
0.0
 11
219.8332639843
 21
111.2404522702
 31
0.0
  0
LINE
  5
312
330
1F
100
AcDbEntity
  8
0
  6
Continuous
 62
     7
370
    25
100
AcDbLine
 10
219.8332639843
 20
106.7904525653
 30
0.0
 11
222.5925894886
 21
106.7904525653
 31
0.0
  0
LINE
  5
313
330
1F
100
AcDbEntity
  8
0
  6
Continuous
 62
     7
370
    25
100
AcDbLine
 10
253.7325906068
 20
96.3554517582
 30
0.0
 11
254.1925894528
 21
96.3554517582
 31
0.0
  0
LINE
  5
314
330
1F
100
AcDbEntity
  8
0
  6
Continuous
 62
     7
370
    25
100
AcDbLine
 10
254.1925894528
 20
93.2754517749
 30
0.0
 11
254.1925894528
 21
96.3554517582
 31
0.0
  0
LINE
  5
315
330
1F
100
AcDbEntity
  8
0
  6
Continuous
 62
     7
370
    25
100
AcDbLine
 10
253.7325906068
 20
93.2754517749
 30
0.0
 11
254.1925894528
 21
93.2754517749
 31
0.0
  0
LINE
  5
316
330
1F
100
AcDbEntity
  8
0
  6
Continuous
 62
     7
370
    25
100
AcDbLine
 10
253.7325906068
 20
96.3554517582
 30
0.0
 11
253.7325906068
 21
93.2754517749
 31
0.0
  0
SPLINE
  5
317
330
1F
100
AcDbEntity
  8
0
  6
Continuous
 62
     7
370
    25
100
AcDbSpline
210
0.0
220
0.0
230
1.0
 70
     8
 71
     3
 72
    11
 73
     7
 74
     0
 42
0.000000001
 43
0.00000001
 40
0.0
 40
0.0
 40
0.0
 40
0.0
 40
0.2499984431012995
 40
0.4999989821570125
 40
0.7499995212127254
 40
0.9999999999999999
 40
0.9999999999999999
 40
0.9999999999999999
 40
0.9999999999999999
 10
253.7325906067693
 20
96.81545209441359
 30
0.0
 10
253.7928672996111
 20
96.80853777370612
 30
0.0
 10
253.9134211906467
 20
96.79470907432245
 30
0.0
 10
254.0654717931025
 20
96.68833443998531
 30
0.0
 10
254.1718467359556
 20
96.53628341285916
 30
0.0
 10
254.1856752144231
 20
96.41572897160492
 30
0.0
 10
254.1925894528234
 20
96.35545175824339
 30
0.0
  0
SPLINE
  5
318
330
1F
100
AcDbEntity
  8
0
  6
Continuous
 62
     7
370
    25
100
AcDbSpline
210
0.0
220
0.0
230
1.0
 70
    24
 71
     3
 72
    11
 73
     7
 74
     0
 42
0.000000001
 43
0.00000001
 40
0.0
 40
0.0
 40
0.0
 40
0.0
 40
0.2702616401845311
 40
0.5624289544687194
 40
0.7897347710095828
 40
0.9999999999999999
 40
0.9999999999999999
 40
0.9999999999999999
 40
0.9999999999999999
 10
253.7325906067693
 20
96.81539696011717
 30
0.0
 10
253.7325906067693
 20
96.80729179790973
 30
0.0
 10
253.7325906067693
 20
96.79042452106269
 30
0.0
 10
253.7325906067693
 20
96.6660112772113
 30
0.0
 10
253.7325906067693
 20
96.51128131646935
 30
0.0
 10
253.7325906067693
 20
96.4060286385949
 30
0.0
 10
253.7325906067693
 20
96.35545175824339
 30
0.0
  0
LINE
  5
319
330
1F
100
AcDbEntity
  8
0
  6
Continuous
 62
     7
370
    25
100
AcDbLine
 10
228.6525892526
 20
93.2754517749
 30
0.0
 11
228.1925904065
 21
93.2754517749
 31
0.0
  0
LINE
  5
31A
330
1F
100
AcDbEntity
  8
0
  6
Continuous
 62
     7
370
    25
100
AcDbLine
 10
228.1925904065
 20
96.3554517582
 30
0.0
 11
228.1925904065
 21
93.2754517749
 31
0.0
  0
LINE
  5
31B
330
1F
100
AcDbEntity
  8
0
  6
Continuous
 62
     7
370
    25
100
AcDbLine
 10
228.6525892526
 20
96.3554517582
 30
0.0
 11
228.1925904065
 21
96.3554517582
 31
0.0
  0
LINE
  5
31C
330
1F
100
AcDbEntity
  8
0
  6
Continuous
 62
     7
370
    25
100
AcDbLine
 10
228.6525892526
 20
96.3554517582
 30
0.0
 11
228.6525892526
 21
93.2754517749
 31
0.0
  0
SPLINE
  5
31D
330
1F
100
AcDbEntity
  8
0
  6
Continuous
 62
     7
370
    25
100
AcDbSpline
210
0.0
220
0.0
230
1.0
 70
     8
 71
     3
 72
    11
 73
     7
 74
     0
 42
0.000000001
 43
0.00000001
 40
0.0
 40
0.0
 40
0.0
 40
0.0
 40
0.2500002676834591
 40
0.49999934046327
 40
0.7500001704822581
 40
1.0
 40
1.0
 40
1.0
 40
1.0
 10
228.6525892525518
 20
96.81539696011717
 30
0.0
 10
228.5923153607982
 20
96.80848651891074
 30
0.0
 10
228.4717678653768
 20
96.79466566952713
 30
0.0
 10
228.319720738754
 20
96.68830561610056
 30
0.0
 10
228.2133434434215
 20
96.53627077832698
 30
0.0
 10
228.1995080762441
 20
96.41572468453369
 30
0.0
 10
228.1925904064977
 20
96.35545175824339
 30
0.0
  0
SPLINE
  5
31E
330
1F
100
AcDbEntity
  8
0
  6
Continuous
 62
     7
370
    25
100
AcDbSpline
210
0.0
220
0.0
230
1.0
 70
    24
 71
     3
 72
    11
 73
     7
 74
     0
 42
0.000000001
 43
0.00000001
 40
0.0
 40
0.0
 40
0.0
 40
0.0
 40
0.2702616401845311
 40
0.5624289544687194
 40
0.7897347710095828
 40
0.9999999999999999
 40
0.9999999999999999
 40
0.9999999999999999
 40
0.9999999999999999
 10
228.6525892525518
 20
96.81539696011717
 30
0.0
 10
228.6525892525518
 20
96.80729179790973
 30
0.0
 10
228.6525892525518
 20
96.79042452106269
 30
0.0
 10
228.6525892525518
 20
96.6660112772113
 30
0.0
 10
228.6525892525518
 20
96.51128131646935
 30
0.0
 10
228.6525892525518
 20
96.4060286385949
 30
0.0
 10
228.6525892525518
 20
96.35545175824339
 30
0.0
  0
LINE
  5
31F
330
1F
100
AcDbEntity
  8
0
  6
Continuous
 62
     7
370
    25
100
AcDbLine
 10
253.7325906068
 20
93.2754517749
 30
0.0
 11
253.7325906068
 21
92.9154516414
 31
0.0
  0
LINE
  5
320
330
1F
100
AcDbEntity
  8
0
  6
Continuous
 62
     7
370
    25
100
AcDbLine
 10
253.7325906068
 20
92.9154516414
 30
0.0
 11
228.6525892526
 21
92.9154516414
 31
0.0
  0
LINE
  5
321
330
1F
100
AcDbEntity
  8
0
  6
Continuous
 62
     7
370
    25
100
AcDbLine
 10
228.6525892526
 20
92.9154516414
 30
0.0
 11
228.6525892526
 21
93.2754517749
 31
0.0
  0
LINE
  5
322
330
1F
100
AcDbEntity
  8
0
  6
Continuous
 62
     7
370
    25
100
AcDbLine
 10
228.6525892526
 20
96.3554517582
 30
0.0
 11
253.7325906068
 21
96.3554517582
 31
0.0
  0
LINE
  5
323
330
1F
100
AcDbEntity
  8
0
  6
Continuous
 62
     7
370
    25
100
AcDbLine
 10
253.7325906068
 20
96.8153433159
 30
0.0
 11
253.7325906068
 21
96.8154520944
 31
0.0
  0
LINE
  5
324
330
1F
100
AcDbEntity
  8
0
  6
Continuous
 62
     7
370
    25
100
AcDbLine
 10
228.6525892526
 20
96.8154520944
 30
0.0
 11
253.7325906068
 21
96.8154520944
 31
0.0
  0
LINE
  5
325
330
1F
100
AcDbEntity
  8
0
  6
Continuous
 62
     7
370
    25
100
AcDbLine
 10
257.192589572
 20
92.8154529289
 30
0.0
 11
254.2025896221
 21
92.8154529289
 31
0.0
  0
LINE
  5
326
330
1F
100
AcDbEntity
  8
0
  6
Continuous
 62
     7
370
    25
100
AcDbLine
 10
254.2025896221
 20
93.2654516057
 30
0.0
 11
254.2025896221
 21
92.8154529289
 31
0.0
  0
LINE
  5
327
330
1F
100
AcDbEntity
  8
0
  6
Continuous
 62
     7
370
    25
100
AcDbLine
 10
257.192589572
 20
93.2654516057
 30
0.0
 11
254.2025896221
 21
93.2654516057
 31
0.0
  0
LINE
  5
328
330
1F
100
AcDbEntity
  8
0
  6
Continuous
 62
     7
370
    25
100
AcDbLine
 10
257.192589572
 20
92.8154529289
 30
0.0
 11
257.192589572
 21
93.2654516057
 31
0.0
  0
ARC
  5
329
330
1F
100
AcDbEntity
  8
0
  6
Continuous
 62
     7
370
    25
100
AcDbCircle
 10
254.2025899297
 20
93.2754522613
 30
0.0
 40
0.460000000000008
100
AcDbArc
 50
180.0
 51
270.0
  0
ARC
  5
32A
330
1F
100
AcDbEntity
  8
0
  6
Continuous
 62
     7
370
    25
100
AcDbCircle
 10
254.2025899297
 20
93.2754522613
 30
0.0
 40
0.0100000000000193
100
AcDbArc
 50
180.0
 51
270.0
  0
LINE
  5
32B
330
1F
100
AcDbEntity
  8
0
  6
Continuous
 62
     7
370
    25
100
AcDbLine
 10
228.1825902372
 20
92.8154529289
 30
0.0
 11
225.1925902873
 21
92.8154529289
 31
0.0
  0
LINE
  5
32C
330
1F
100
AcDbEntity
  8
0
  6
Continuous
 62
     7
370
    25
100
AcDbLine
 10
225.1925902873
 20
92.8154529289
 30
0.0
 11
225.1925902873
 21
93.2654516057
 31
0.0
  0
LINE
  5
32D
330
1F
100
AcDbEntity
  8
0
  6
Continuous
 62
     7
370
    25
100
AcDbLine
 10
228.1825902372
 20
93.2654516057
 30
0.0
 11
225.1925902873
 21
93.2654516057
 31
0.0
  0
LINE
  5
32E
330
1F
100
AcDbEntity
  8
0
  6
Continuous
 62
     7
370
    25
100
AcDbLine
 10
228.1825902372
 20
93.2654516057
 30
0.0
 11
228.1825902372
 21
92.8154529289
 31
0.0
  0
ARC
  5
32F
330
1F
100
AcDbEntity
  8
0
  6
Continuous
 62
     7
370
    25
100
AcDbCircle
 10
228.1825899297
 20
93.2754522613
 30
0.0
 40
0.0100000000000193
100
AcDbArc
 50
270.0
 51
0.0
  0
ARC
  5
330
330
1F
100
AcDbEntity
  8
0
  6
Continuous
 62
     7
370
    25
100
AcDbCircle
 10
228.1825899297
 20
93.2754522613
 30
0.0
 40
0.460000000000008
100
AcDbArc
 50
270.0
 51
0.0
  0
LINE
  5
331
330
1F
100
AcDbEntity
  8
0
  6
Continuous
 62
     7
370
    25
100
AcDbLine
 10
225.8982928902
 20
111.6741297052
 30
0.0
 11
225.4436018377
 21
111.8821111724
 31
0.0
  0
LINE
  5
332
330
1F
100
AcDbEntity
  8
0
  6
Continuous
 62
     7
370
    25
100
AcDbLine
 10
225.6903114229
 20
111.2194390253
 30
0.0
 11
225.2356203705
 21
111.4274204925
 31
0.0
  0
LWPOLYLINE
  5
333
330
1F
100
AcDbEntity
  8
0
  6
Continuous
 62
     7
370
    25
100
AcDbPolyline
 90
        9
 70
   128
 43
0.0
 10
225.2356203705
 20
111.4274204925
 10
225.2396168619
 20
111.4361574158
 10
225.2514513641
 20
111.4620317921
 10
225.2706708818
 20
111.5040497139
 10
225.2965363174
 20
111.5605962679
 10
225.3280537635
 20
111.6294984922
 10
225.3640102654
 20
111.7081084505
 10
225.4030274659
 20
111.7934053049
 10
225.4436018377
 20
111.8821111724
  0
LWPOLYLINE
  5
334
330
1F
100
AcDbEntity
  8
0
  6
Continuous
 62
     7
370
    25
100
AcDbPolyline
 90
        9
 70
   128
 43
0.0
 10
225.6903114229
 20
111.2194390253
 10
225.6943079143
 20
111.2281755761
 10
225.7061424166
 20
111.2540499524
 10
225.7253619343
 20
111.2960678742
 10
225.7512273699
 20
111.3526148007
 10
225.7827448159
 20
111.421517025
 10
225.8187013179
 20
111.5001269833
 10
225.8577170282
 20
111.5854238376
 10
225.8982928902
 20
111.6741297052
  0
LINE
  5
335
330
1F
100
AcDbEntity
  8
0
  6
Continuous
 62
     7
370
    25
100
AcDbLine
 10
229.6868870467
 20
119.9567751244
 30
0.0
 11
229.2321967393
 21
120.1647565917
 31
0.0
  0
LINE
  5
336
330
1F
100
AcDbEntity
  8
0
  6
Continuous
 62
     7
370
    25
100
AcDbLine
 10
229.8948685139
 20
120.4114658043
 30
0.0
 11
229.4401782065
 21
120.6194472716
 31
0.0
  0
LWPOLYLINE
  5
337
330
1F
100
AcDbEntity
  8
0
  6
Continuous
 62
     7
370
    25
100
AcDbPolyline
 90
        9
 70
   128
 43
0.0
 10
229.2321967393
 20
120.1647565917
 10
229.2727718561
 20
120.2534624592
 10
229.3117875665
 20
120.3387593136
 10
229.3477448135
 20
120.4173692719
 10
229.3792615145
 20
120.4862714962
 10
229.4051269501
 20
120.5428180501
 10
229.4243464678
 20
120.5848359719
 10
229.4361817151
 20
120.6107107208
 10
229.4401782065
 20
120.6194472716
  0
LWPOLYLINE
  5
338
330
1F
100
AcDbEntity
  8
0
  6
Continuous
 62
     7
370
    25
100
AcDbPolyline
 90
        9
 70
   128
 43
0.0
 10
229.6868870467
 20
119.9567751244
 10
229.7274621635
 20
120.0454806194
 10
229.7664786189
 20
120.1307774738
 10
229.802435866
 20
120.2093874321
 10
229.8339525669
 20
120.2782900289
 10
229.8598180025
 20
120.3348365829
 10
229.8790375203
 20
120.3768545047
 10
229.8908727675
 20
120.402728881
 10
229.8948685139
 20
120.4114658043
  0
LINE
  5
339
330
1F
100
AcDbEntity
  8
0
  6
Continuous
 62
     7
370
    25
100
AcDbLine
 10
225.4436018377
 20
111.8821111724
 30
0.0
 11
229.2321967393
 21
120.1647565917
 31
0.0
  0
LINE
  5
33A
330
1F
100
AcDbEntity
  8
0
  6
Continuous
 62
     7
370
    25
100
AcDbLine
 10
225.8982928902
 20
111.6741297052
 30
0.0
 11
229.6868870467
 21
119.9567751244
 31
0.0
  0
SPLINE
  5
33B
330
1F
100
AcDbEntity
  8
0
  6
Continuous
 62
     7
370
    25
100
AcDbSpline
210
0.0
220
0.0
230
1.0
 70
    24
 71
     3
 72
     9
 73
     5
 74
     0
 42
0.000000001
 43
0.00000001
 40
0.0
 40
0.0
 40
0.0
 40
0.0
 40
0.4999979181986273
 40
1.0
 40
1.0
 40
1.0
 40
1.0
 10
224.892589679321
 20
118.6497668952125
 30
0.0
 10
224.892589679321
 20
118.6291096066484
 30
0.0
 10
224.892589679321
 20
118.5877948575019
 30
0.0
 10
224.892589679321
 20
118.534828734182
 30
0.0
 10
224.892589679321
 20
118.5083455622571
 30
0.0
  0
ARC
  5
33C
330
1F
100
AcDbEntity
  8
0
  6
Continuous
 62
     7
370
    25
100
AcDbCircle
 10
225.1550895669
 20
118.5967341095
 30
0.0
 40
0.2678034117072486
100
AcDbArc
 50
81.9503726874
 51
168.5782883126
  0
LINE
  5
33D
330
1F
100
AcDbEntity
  8
0
  6
Continuous
 62
     7
370
    25
100
AcDbLine
 10
225.1925902873
 20
118.5083455623
 30
0.0
 11
225.1925902873
 21
118.8618988946
 31
0.0
  0
LINE
  5
33E
330
1F
100
AcDbEntity
  8
0
  6
Continuous
 62
     7
370
    25
100
AcDbLine
 10
224.8925896793
 20
118.5083455623
 30
0.0
 11
225.1925902873
 21
118.5083455623
 31
0.0
  0
LINE
  5
33F
330
1F
100
AcDbEntity
  8
0
  6
Continuous
 62
     7
370
    25
100
AcDbLine
 10
225.1925902873
 20
112.7690055624
 30
0.0
 11
225.1925902873
 21
113.1225590811
 31
0.0
  0
ARC
  5
340
330
1F
100
AcDbEntity
  8
0
  6
Continuous
 62
     7
370
    25
100
AcDbCircle
 10
225.1550896462
 20
113.0341704132
 30
0.0
 40
0.2678034655922349
100
AcDbArc
 50
191.4216830301
 51
278.0496085381
  0
SPLINE
  5
341
330
1F
100
AcDbEntity
  8
0
  6
Continuous
 62
     7
370
    25
100
AcDbSpline
210
0.0
220
0.0
230
1.0
 70
    24
 71
     3
 72
     9
 73
     5
 74
     0
 42
0.000000001
 43
0.00000001
 40
0.0
 40
0.0
 40
0.0
 40
0.0
 40
0.5000020818013727
 40
1.0
 40
1.0
 40
1.0
 40
1.0
 10
224.892589679321
 20
113.1225590810555
 30
0.0
 10
224.892589679321
 20
113.0960759091306
 30
0.0
 10
224.892589679321
 20
113.0431097858107
 30
0.0
 10
224.892589679321
 20
113.0017950366642
 30
0.0
 10
224.892589679321
 20
112.9811377481001
 30
0.0
  0
LINE
  5
342
330
1F
100
AcDbEntity
  8
0
  6
Continuous
 62
     7
370
    25
100
AcDbLine
 10
225.1925902873
 20
113.1225590811
 30
0.0
 11
224.8925896793
 21
113.1225590811
 31
0.0
  0
LINE
  5
343
330
1F
100
AcDbEntity
  8
0
  6
Continuous
 62
     7
370
    25
100
AcDbLine
 10
228.4745308071
 20
118.5083455623
 30
0.0
 11
225.1925902873
 21
118.5083455623
 31
0.0
  0
LINE
  5
344
330
1F
100
AcDbEntity
  8
0
  6
Continuous
 62
     7
370
    25
100
AcDbLine
 10
226.010999313
 20
113.1225590811
 30
0.0
 11
225.1925902873
 21
113.1225590811
 31
0.0
  0
LINE
  5
345
330
1F
100
AcDbEntity
  8
0
  6
Continuous
 62
     7
370
    25
100
AcDbLine
 10
225.1925902873
 20
113.1225590811
 30
0.0
 11
225.1925902873
 21
118.5083455623
 31
0.0
  0
LINE
  5
346
330
1F
100
AcDbEntity
  8
0
  6
Continuous
 62
     7
370
    25
100
AcDbLine
 10
225.8492799908
 20
112.7690055624
 30
0.0
 11
225.1925902873
 21
112.7690055624
 31
0.0
  0
LINE
  5
347
330
1F
100
AcDbEntity
  8
0
  6
Continuous
 62
     7
370
    25
100
AcDbLine
 10
224.8925896793
 20
113.1225590811
 30
0.0
 11
224.8925896793
 21
118.5083455623
 31
0.0
  0
LINE
  5
348
330
1F
100
AcDbEntity
  8
0
  6
Continuous
 62
     7
370
    25
100
AcDbLine
 10
228.6362516194
 20
118.8618988946
 30
0.0
 11
225.1925902873
 21
118.8618988946
 31
0.0
  0
LINE
  5
349
330
1F
100
AcDbEntity
  8
0
  6
Continuous
 62
     7
370
    25
100
AcDbLine
 10
229.992589584
 20
113.1225590811
 30
0.0
 11
229.992589584
 21
118.5083455623
 31
0.0
  0
LINE
  5
34A
330
1F
100
AcDbEntity
  8
0
  6
Continuous
 62
     7
370
    25
100
AcDbLine
 10
229.992589584
 20
113.1225590811
 30
0.0
 11
226.5608238488
 21
113.1225590811
 31
0.0
  0
LINE
  5
34B
330
1F
100
AcDbEntity
  8
0
  6
Continuous
 62
     7
370
    25
100
AcDbLine
 10
229.992589584
 20
118.5083455623
 30
0.0
 11
229.024356088
 21
118.5083455623
 31
0.0
  0
LINE
  5
34C
330
1F
100
AcDbEntity
  8
0
  6
Continuous
 62
     7
370
    25
100
AcDbLine
 10
229.992589584
 20
118.8618988946
 30
0.0
 11
229.1860761553
 21
118.8618988946
 31
0.0
  0
LINE
  5
34D
330
1F
100
AcDbEntity
  8
0
  6
Continuous
 62
     7
370
    25
100
AcDbLine
 10
229.992589584
 20
118.5083455623
 30
0.0
 11
229.992589584
 21
118.8618988946
 31
0.0
  0
LINE
  5
34E
330
1F
100
AcDbEntity
  8
0
  6
Continuous
 62
     7
370
    25
100
AcDbLine
 10
229.992589584
 20
112.7690055624
 30
0.0
 11
229.992589584
 21
113.1225590811
 31
0.0
  0
LINE
  5
34F
330
1F
100
AcDbEntity
  8
0
  6
Continuous
 62
     7
370
    25
100
AcDbLine
 10
229.992589584
 20
112.7690055624
 30
0.0
 11
226.3991045266
 21
112.7690055624
 31
0.0
  0
LINE
  5
350
330
1F
100
AcDbEntity
  8
0
  6
Continuous
 62
     7
370
    25
100
AcDbLine
 10
228.9825628012
 20
119.6190056608
 30
0.0
 11
225.1925902873
 21
119.6190056608
 31
0.0
  0
LINE
  5
351
330
1F
100
AcDbEntity
  8
0
  6
Continuous
 62
     7
370
    25
100
AcDbLine
 10
225.1925902873
 20
118.8618988946
 30
0.0
 11
225.1925902873
 21
119.6190056608
 31
0.0
  0
ARC
  5
352
330
1F
100
AcDbEntity
  8
0
  6
Continuous
 62
     7
370
    25
100
AcDbCircle
 10
225.1550893721
 20
119.3538411976
 30
0.0
 40
0.2678031201350958
100
AcDbArc
 50
81.9503217789
 51
168.5783866529
  0
LINE
  5
353
330
1F
100
AcDbEntity
  8
0
  6
Continuous
 62
     7
370
    25
100
AcDbLine
 10
224.8925896793
 20
118.6497668952
 30
0.0
 11
224.8925896793
 21
119.4068734751
 31
0.0
  0
LINE
  5
354
330
1F
100
AcDbEntity
  8
0
  6
Continuous
 62
     7
370
    25
100
AcDbLine
 10
225.5029680639
 20
112.0118987963
 30
0.0
 11
225.1925902873
 21
112.0118987963
 31
0.0
  0
LINE
  5
355
330
1F
100
AcDbEntity
  8
0
  6
Continuous
 62
     7
370
    25
100
AcDbLine
 10
225.1925902873
 20
112.0118987963
 30
0.0
 11
225.1925902873
 21
112.7690055624
 31
0.0
  0
ARC
  5
356
330
1F
100
AcDbEntity
  8
0
  6
Continuous
 62
     7
370
    25
100
AcDbCircle
 10
225.155089575
 20
112.2770635464
 30
0.0
 40
0.2678033758246525
100
AcDbArc
 50
191.4216649229
 51
278.0496266453
  0
LINE
  5
357
330
1F
100
AcDbEntity
  8
0
  6
Continuous
 62
     7
370
    25
100
AcDbLine
 10
224.8925896793
 20
112.224030982
 30
0.0
 11
224.8925896793
 21
112.9811377481
 31
0.0
  0
LINE
  5
358
330
1F
100
AcDbEntity
  8
0
  6
Continuous
 62
     7
370
    25
100
AcDbLine
 10
229.992589584
 20
112.0118987963
 30
0.0
 11
226.0527925998
 21
112.0118987963
 31
0.0
  0
LINE
  5
359
330
1F
100
AcDbEntity
  8
0
  6
Continuous
 62
     7
370
    25
100
AcDbLine
 10
229.992589584
 20
112.0118987963
 30
0.0
 11
229.992589584
 21
112.7690055624
 31
0.0
  0
LINE
  5
35A
330
1F
100
AcDbEntity
  8
0
  6
Continuous
 62
     7
370
    25
100
AcDbLine
 10
229.532386592
 20
119.6190056608
 30
0.0
 11
229.992589584
 21
119.6190056608
 31
0.0
  0
LINE
  5
35B
330
1F
100
AcDbEntity
  8
0
  6
Continuous
 62
     7
370
    25
100
AcDbLine
 10
229.992589584
 20
119.6190056608
 30
0.0
 11
229.992589584
 21
118.8618988946
 31
0.0
  0
ARC
  5
35C
330
1F
100
AcDbEntity
  8
0
  6
Continuous
 62
     7
370
    25
100
AcDbCircle
 10
225.1925899297
 20
119.4654522613
 30
0.0
 40
0.3000000000000114
100
AcDbArc
 50
90.0
 51
180.0000000118
  0
LINE
  5
35D
330
1F
100
AcDbEntity
  8
0
  6
Continuous
 62
     7
370
    25
100
AcDbLine
 10
225.1925902873
 20
119.6190056608
 30
0.0
 11
225.1925902873
 21
119.7654524103
 31
0.0
  0
SPLINE
  5
35E
330
1F
100
AcDbEntity
  8
0
  6
Continuous
 62
     7
370
    25
100
AcDbSpline
210
0.0
220
0.0
230
1.0
 70
    24
 71
     3
 72
     9
 73
     5
 74
     0
 42
0.000000001
 43
0.00000001
 40
0.0
 40
0.0
 40
0.0
 40
0.0
 40
0.5000019335785434
 40
1.0
 40
1.0
 40
1.0
 40
1.0
 10
224.892589679321
 20
119.4654521748799
 30
0.0
 10
224.892589679321
 20
119.4627216982762
 30
0.0
 10
224.892589679321
 20
119.4572607661871
 30
0.0
 10
224.892589679321
 20
119.4236691954628
 30
0.0
 10
224.892589679321
 20
119.4068734750527
 30
0.0
  0
LINE
  5
35F
330
1F
100
AcDbEntity
  8
0
  6
Continuous
 62
     7
370
    25
100
AcDbLine
 10
225.1925902873
 20
111.8654524193
 30
0.0
 11
225.1925902873
 21
112.0118987963
 31
0.0
  0
ARC
  5
360
330
1F
100
AcDbEntity
  8
0
  6
Continuous
 62
     7
370
    25
100
AcDbCircle
 10
225.1925899297
 20
112.1654522613
 30
0.0
 40
0.3000000000000114
100
AcDbArc
 50
179.9999999995
 51
270.0
  0
SPLINE
  5
361
330
1F
100
AcDbEntity
  8
0
  6
Continuous
 62
     7
370
    25
100
AcDbSpline
210
0.0
220
0.0
230
1.0
 70
    24
 71
     3
 72
     9
 73
     5
 74
     0
 42
0.000000001
 43
0.00000001
 40
0.0
 40
0.0
 40
0.0
 40
0.0
 40
0.4999980664214566
 40
1.0
 40
1.0
 40
1.0
 40
1.0
 10
224.892589679321
 20
112.2240309819954
 30
0.0
 10
224.892589679321
 20
112.2072352615852
 30
0.0
 10
224.892589679321
 20
112.173643690861
 30
0.0
 10
224.892589679321
 20
112.1681827587719
 30
0.0
 10
224.892589679321
 20
112.1654522821682
 30
0.0
  0
LINE
  5
362
330
1F
100
AcDbEntity
  8
0
  6
Continuous
 62
     7
370
    25
100
AcDbLine
 10
229.0495494812
 20
119.7654524103
 30
0.0
 11
225.1925902873
 21
119.7654524103
 31
0.0
  0
LINE
  5
363
330
1F
100
AcDbEntity
  8
0
  6
Continuous
 62
     7
370
    25
100
AcDbLine
 10
225.4359813839
 20
111.8654524193
 30
0.0
 11
225.1925902873
 21
111.8654524193
 31
0.0
  0
LINE
  5
364
330
1F
100
AcDbEntity
  8
0
  6
Continuous
 62
     7
370
    25
100
AcDbLine
 10
229.599373272
 20
119.7654524103
 30
0.0
 11
229.992589584
 21
119.7654524103
 31
0.0
  0
LINE
  5
365
330
1F
100
AcDbEntity
  8
0
  6
Continuous
 62
     7
370
    25
100
AcDbLine
 10
229.992589584
 20
119.6190056608
 30
0.0
 11
229.992589584
 21
119.7654524103
 31
0.0
  0
LINE
  5
366
330
1F
100
AcDbEntity
  8
0
  6
Continuous
 62
     7
370
    25
100
AcDbLine
 10
229.992589584
 20
111.8654524193
 30
0.0
 11
225.9858059197
 21
111.8654524193
 31
0.0
  0
LINE
  5
367
330
1F
100
AcDbEntity
  8
0
  6
Continuous
 62
     7
370
    25
100
AcDbLine
 10
229.992589584
 20
111.8654524193
 30
0.0
 11
229.992589584
 21
112.0118987963
 31
0.0
  0
CIRCLE
  5
368
330
1F
100
AcDbEntity
  8
0
  6
Continuous
 62
     7
370
    25
100
AcDbCircle
 10
241.1925899297
 20
116.0154522613
 30
0.0
 40
9.350000000000023
  0
LINE
  5
369
330
1F
100
AcDbEntity
  8
0
  6
Continuous
 62
     7
370
    25
100
AcDbLine
 10
231.5925898462
 20
112.8609278456
 30
0.0
 11
231.5925898462
 21
119.169976677
 31
0.0
  0
ARC
  5
36A
330
1F
100
AcDbEntity
  8
0
  6
Continuous
 62
     7
370
    25
100
AcDbCircle
 10
241.1925899297
 20
116.0154522613
 30
0.0
 40
10.105
100
AcDbArc
 50
128.2070939868
 51
161.8096678757
  0
LINE
  5
36B
330
1F
100
AcDbEntity
  8
0
  6
Continuous
 62
     7
370
    25
100
AcDbLine
 10
234.9425899297
 20
124.8154522136
 30
0.0
 11
234.9425899297
 21
123.9557625011
 31
0.0
  0
LINE
  5
36C
330
1F
100
AcDbEntity
  8
0
  6
Continuous
 62
     7
370
    25
100
AcDbLine
 10
236.2255962997
 20
124.8154522136
 30
0.0
 11
234.9425899297
 21
124.8154522136
 31
0.0
  0
ARC
  5
36D
330
1F
100
AcDbEntity
  8
0
  6
Continuous
 62
     7
370
    25
100
AcDbCircle
 10
241.1925899297
 20
116.0154522613
 30
0.0
 40
10.10499999999999
100
AcDbArc
 50
60.5582664695
 51
119.4417335305
  0
LINE
  5
36E
330
1F
100
AcDbEntity
  8
0
  6
Continuous
 62
     7
370
    25
100
AcDbLine
 10
247.4425899297
 20
124.8154522136
 30
0.0
 11
246.1595835596
 21
124.8154522136
 31
0.0
  0
LINE
  5
36F
330
1F
100
AcDbEntity
  8
0
  6
Continuous
 62
     7
370
    25
100
AcDbLine
 10
247.4425899297
 20
123.9557625011
 30
0.0
 11
247.4425899297
 21
124.8154522136
 31
0.0
  0
ARC
  5
370
330
1F
100
AcDbEntity
  8
0
  6
Continuous
 62
     7
370
    25
100
AcDbCircle
 10
241.1925899297
 20
116.0154522613
 30
0.0
 40
10.105
100
AcDbArc
 50
308.2070939868
 51
51.7929060132
  0
LINE
  5
371
330
1F
100
AcDbEntity
  8
0
  6
Continuous
 62
     7
370
    25
100
AcDbLine
 10
247.4425899297
 20
107.215452309
 30
0.0
 11
247.4425899297
 21
108.0751420215
 31
0.0
  0
LINE
  5
372
330
1F
100
AcDbEntity
  8
0
  6
Continuous
 62
     7
370
    25
100
AcDbLine
 10
246.1595835596
 20
107.215452309
 30
0.0
 11
247.4425899297
 21
107.215452309
 31
0.0
  0
ARC
  5
373
330
1F
100
AcDbEntity
  8
0
  6
Continuous
 62
     7
370
    25
100
AcDbCircle
 10
241.1925899297
 20
116.0154522613
 30
0.0
 40
10.10499999999999
100
AcDbArc
 50
240.5582664695
 51
299.4417335306
  0
LINE
  5
374
330
1F
100
AcDbEntity
  8
0
  6
Continuous
 62
     7
370
    25
100
AcDbLine
 10
234.9425899297
 20
107.215452309
 30
0.0
 11
236.2255962997
 21
107.215452309
 31
0.0
  0
LINE
  5
375
330
1F
100
AcDbEntity
  8
0
  6
Continuous
 62
     7
370
    25
100
AcDbLine
 10
234.9425899297
 20
108.0751420215
 30
0.0
 11
234.9425899297
 21
107.215452309
 31
0.0
  0
ARC
  5
376
330
1F
100
AcDbEntity
  8
0
  6
Continuous
 62
     7
370
    25
100
AcDbCircle
 10
241.1925899297
 20
116.0154522613
 30
0.0
 40
10.105
100
AcDbArc
 50
198.1903321243
 51
231.7929060132
  0
LINE
  5
377
330
1F
100
AcDbEntity
  8
0
  6
Continuous
 62
     7
370
    25
100
AcDbLine
 10
229.992589584
 20
119.0154521943
 30
0.0
 11
231.5925898462
 21
119.0154521943
 31
0.0
  0
LINE
  5
378
330
1F
100
AcDbEntity
  8
0
  6
Continuous
 62
     7
370
    25
100
AcDbLine
 10
229.992589584
 20
113.0154523284
 30
0.0
 11
231.5925898462
 21
113.0154523284
 31
0.0
  0
LINE
  5
379
330
1F
100
AcDbEntity
  8
0
  6
Continuous
 62
     7
370
    25
100
AcDbLine
 10
228.6925899297
 20
96.8154520944
 30
0.0
 11
228.6925899297
 21
98.0154515461
 31
0.0
  0
LINE
  5
37A
330
1F
100
AcDbEntity
  8
0
  6
Continuous
 62
     7
370
    25
100
AcDbLine
 10
228.6925899297
 20
98.0154515461
 30
0.0
 11
229.3925898581
 21
98.0154515461
 31
0.0
  0
LINE
  5
37B
330
1F
100
AcDbEntity
  8
0
  6
Continuous
 62
     7
370
    25
100
AcDbLine
 10
229.3925898581
 20
98.0154515461
 30
0.0
 11
252.9925900012
 21
98.0154515461
 31
0.0
  0
LINE
  5
37C
330
1F
100
AcDbEntity
  8
0
  6
Continuous
 62
     7
370
    25
100
AcDbLine
 10
252.9925900012
 20
98.0154515461
 30
0.0
 11
253.6925899297
 21
98.0154515461
 31
0.0
  0
LINE
  5
37D
330
1F
100
AcDbEntity
  8
0
  6
Continuous
 62
     7
370
    25
100
AcDbLine
 10
253.6925899297
 20
98.0154515461
 30
0.0
 11
253.6925899297
 21
96.8154520944
 31
0.0
  0
LINE
  5
37E
330
1F
100
AcDbEntity
  8
0
  6
Continuous
 62
     7
370
    25
100
AcDbLine
 10
249.5925898164
 20
96.8154520944
 30
0.0
 11
249.5925898164
 21
97.3154516176
 31
0.0
  0
LINE
  5
37F
330
1F
100
AcDbEntity
  8
0
  6
Continuous
 62
     7
370
    25
100
AcDbLine
 10
249.5925898164
 20
97.3154516176
 30
0.0
 11
232.7925900429
 21
97.3154516176
 31
0.0
  0
LINE
  5
380
330
1F
100
AcDbEntity
  8
0
  6
Continuous
 62
     7
370
    25
100
AcDbLine
 10
232.7925900429
 20
97.3154516176
 30
0.0
 11
232.7925900429
 21
96.8154520944
 31
0.0
  0
LINE
  5
381
330
1F
100
AcDbEntity
  8
0
  6
Continuous
 62
     7
370
    25
100
AcDbLine
 10
252.9925900012
 20
98.0154515461
 30
0.0
 11
252.9925900012
 21
109.8619167909
 31
0.0
  0
ELLIPSE
  5
382
330
1F
100
AcDbEntity
  8
0
  6
Continuous
 62
     7
370
    25
100
AcDbEllipse
 10
241.1925899297
 20
116.1343081413
 30
0.0
 11
0.0
 21
13.36390324317675
 31
0.0
210
0.0
220
0.0
230
1.0
 40
0.9999604494
 41
4.223830775418193
 42
4.350959971962949
  0
LINE
  5
383
330
1F
100
AcDbEntity
  8
0
  6
Continuous
 62
     7
370
    25
100
AcDbLine
 10
253.6925899297
 20
98.0154515461
 30
0.0
 11
253.6925899297
 21
111.4086811647
 31
0.0
  0
LINE
  5
384
330
1F
100
AcDbEntity
  8
0
  6
Continuous
 62
     7
370
    25
100
AcDbLine
 10
228.6925899297
 20
98.0154515461
 30
0.0
 11
228.6925899297
 21
111.4086811647
 31
0.0
  0
ELLIPSE
  5
385
330
1F
100
AcDbEntity
  8
0
  6
Continuous
 62
     7
370
    25
100
AcDbEllipse
 10
241.1925899297
 20
116.1343081413
 30
0.0
 11
0.0
 21
13.36390324317675
 31
0.0
210
0.0
220
0.0
230
1.0
 40
0.9999604494
 41
1.932225335216652
 42
2.059354531761407
  0
LINE
  5
386
330
1F
100
AcDbEntity
  8
0
  6
Continuous
 62
     7
370
    25
100
AcDbLine
 10
229.3925898581
 20
98.0154515461
 30
0.0
 11
229.3925898581
 21
109.8619167909
 31
0.0
  0
ARC
  5
387
330
1F
100
AcDbEntity
  8
0
  6
Continuous
 62
     7
370
    25
100
AcDbCircle
 10
241.1925899297
 20
116.0154522613
 30
0.0
 40
10.47455238514225
100
AcDbArc
 50
306.6327888626
 51
53.3672111374
  0
ARC
  5
388
330
1F
100
AcDbEntity
  8
0
  6
Continuous
 62
     7
370
    25
100
AcDbCircle
 10
241.1925899297
 20
116.0154522613
 30
0.0
 40
10.47455238514226
100
AcDbArc
 50
237.1539941101
 51
302.8460058899
  0
ARC
  5
389
330
1F
100
AcDbEntity
  8
0
  6
Continuous
 62
     7
370
    25
100
AcDbCircle
 10
241.1925899297
 20
116.0154522613
 30
0.0
 40
10.47455238514226
100
AcDbArc
 50
57.1539941101
 51
122.8460058899
  0
ARC
  5
38A
330
1F
100
AcDbEntity
  8
0
  6
Continuous
 62
     7
370
    25
100
AcDbCircle
 10
241.1925899297
 20
116.0154522613
 30
0.0
 40
10.47455238514226
100
AcDbArc
 50
196.6430550293
 51
233.3672111374
  0
ARC
  5
38B
330
1F
100
AcDbEntity
  8
0
  6
Continuous
 62
     7
370
    25
100
AcDbCircle
 10
241.1925899297
 20
116.0154522613
 30
0.0
 40
10.47455238514226
100
AcDbArc
 50
126.6327888626
 51
163.3569449707
  0
ARC
  5
38C
330
1F
100
AcDbEntity
  8
0
  6
Continuous
 62
     7
370
    25
100
AcDbCircle
 10
241.1925899297
 20
116.0154522613
 30
0.0
 40
13.30748815588044
100
AcDbArc
 50
273.8779364238
 51
163.6325613485
  0
ARC
  5
38D
330
1F
100
AcDbEntity
  8
0
  6
Continuous
 62
     7
370
    25
100
AcDbCircle
 10
241.1925899297
 20
116.0154522613
 30
0.0
 40
13.30748815588046
100
AcDbArc
 50
198.1710265723
 51
251.2331103704
  0
LINE
  5
38E
330
1F
100
AcDbEntity
  8
0
  6
Continuous
 62
     7
370
    25
100
AcDbLine
 10
229.3925898581
 20
103.4154520587
 30
0.0
 11
242.0925898909
 21
103.4154520587
 31
0.0
  0
LINE
  5
38F
330
1F
100
AcDbEntity
  8
0
  6
Continuous
 62
     7
370
    25
100
AcDbLine
 10
242.0925898909
 20
103.4154520587
 30
0.0
 11
242.0925898909
 21
98.0154515461
 31
0.0
  0
LINE
  5
390
330
1F
100
AcDbEntity
  8
0
  6
Continuous
 62
     7
370
    25
100
AcDbLine
 10
227.9925900012
 20
98.7654523209
 30
0.0
 11
227.9925900012
 21
101.8654526428
 31
0.0
  0
LINE
  5
391
330
1F
100
AcDbEntity
  8
0
  6
Continuous
 62
     7
370
    25
100
AcDbLine
 10
227.9925900012
 20
101.8654526428
 30
0.0
 11
228.6925899297
 21
101.8654526428
 31
0.0
  0
LINE
  5
392
330
1F
100
AcDbEntity
  8
0
  6
Continuous
 62
     7
370
    25
100
AcDbLine
 10
227.9925900012
 20
98.7654523209
 30
0.0
 11
228.6925899297
 21
98.7654523209
 31
0.0
  0
ARC
  5
393
330
1F
100
AcDbEntity
  8
0
  6
Continuous
 62
     7
370
    25
100
AcDbCircle
 10
241.1925899297
 20
116.0154522613
 30
0.0
 40
13.39301797402872
100
AcDbArc
 50
208.2299779499
 51
250.184433276
  0
ARC
  5
394
330
1F
100
AcDbEntity
  8
0
  6
Continuous
 62
     7
370
    25
100
AcDbCircle
 10
241.1925899297
 20
116.0154522613
 30
0.0
 40
13.4
100
AcDbArc
 50
95.9970703927
 51
163.7487030157
  0
LWPOLYLINE
  5
395
330
1F
100
AcDbEntity
  8
0
  6
Continuous
 62
     7
370
    25
100
AcDbPolyline
 90
        3
 70
   128
 43
0.0
 10
228.4514161259
 20
111.8654524193
 10
228.4567879945
 20
111.848997812
 10
228.6925899297
 20
111.1874093518
  0
ARC
  5
396
330
1F
100
AcDbEntity
  8
0
  6
Continuous
 62
     7
370
    25
100
AcDbCircle
 10
241.1925899297
 20
116.0154522613
 30
0.0
 40
13.34588929872251
100
AcDbArc
 50
83.9785248462
 51
96.0214751538
  0
ARC
  5
397
330
1F
100
AcDbEntity
  8
0
  6
Continuous
 62
     7
370
    25
100
AcDbCircle
 10
241.1925899297
 20
116.0154522613
 30
0.0
 40
13.39999999999999
100
AcDbArc
 50
338.881273011
 51
84.0029296073
  0
ARC
  5
398
330
1F
100
AcDbEntity
  8
0
  6
Continuous
 62
     7
370
    25
100
AcDbCircle
 10
241.1925899297
 20
116.0154522613
 30
0.0
 40
13.39301797402872
100
AcDbArc
 50
273.8531338189
 51
331.7700220501
  0
SPLINE
  5
399
330
1F
100
AcDbEntity
  8
0
  6
Continuous
 62
     7
370
    25
100
AcDbSpline
210
0.0
220
0.0
230
1.0
 70
     8
 71
     3
 72
    28
 73
    24
 74
     0
 42
0.000000001
 43
0.00000001
 40
0.0
 40
0.0
 40
0.0
 40
0.0
 40
0.1249999999999997
 40
0.1249999999999997
 40
0.1874999999999994
 40
0.1874999999999994
 40
0.2499999999999991
 40
0.2499999999999991
 40
0.3749999999999986
 40
0.3749999999999986
 40
0.4374999999999971
 40
0.4374999999999971
 40
0.4999999999999957
 40
0.4999999999999957
 40
0.6249999999999927
 40
0.6249999999999927
 40
0.7499999999999897
 40
0.7499999999999897
 40
0.8124999999999906
 40
0.8124999999999906
 40
0.8749999999999912
 40
0.8749999999999912
 40
1.0
 40
1.0
 40
1.0
 40
1.0
 10
240.8492960821357
 20
131.2154522613066
 30
0.0
 10
240.8665662985311
 20
131.1856717327642
 30
0.0
 10
240.8873660655096
 20
131.1590533807199
 30
0.0
 10
240.9239303269521
 20
131.1236434815785
 30
0.0
 10
240.9371097618694
 20
131.1125512055056
 30
0.0
 10
240.9645625630887
 20
131.0924901885794
 30
0.0
 10
240.9788992923133
 20
131.083441523827
 30
0.0
 10
241.0237129821388
 20
131.0591116610995
 30
0.0
 10
241.0563816921104
 20
131.0465836644691
 30
0.0
 10
241.1064126784631
 20
131.0342234669264
 30
0.0
 10
241.1233428528477
 20
131.0311228164976
 30
0.0
 10
241.1577145118798
 20
131.0269553985335
 30
0.0
 10
241.1752643653227
 20
131.0258984766137
 30
0.0
 10
241.2272987090305
 20
131.0259007815172
 30
0.0
 10
241.2615126818163
 20
131.0299786921709
 30
0.0
 10
241.3289680958246
 20
131.0466077898559
 30
0.0
 10
241.3609990530331
 20
131.058902573588
 30
0.0
 10
241.40592538296
 20
131.0832266794308
 30
0.0
 10
241.4205161138993
 20
131.0924207539641
 30
0.0
 10
241.448042558281
 20
131.1125265984476
 30
0.0
 10
241.4609798339898
 20
131.1234116082238
 30
0.0
 10
241.4973796268511
 20
131.1585754609834
 30
0.0
 10
241.5186120232354
 20
131.1856690814257
 30
0.0
 10
241.5358837771856
 20
131.2154522613071
 30
0.0
  0
LINE
  5
39A
330
1F
100
AcDbEntity
  8
0
  6
Continuous
 62
     7
370
    25
100
AcDbLine
 10
242.5925899729
 20
130.7154522494
 30
0.0
 11
242.5925899729
 21
129.2877079204
 31
0.0
  0
LINE
  5
39B
330
1F
100
AcDbEntity
  8
0
  6
Continuous
 62
     7
370
    25
100
AcDbLine
 10
239.7925898864
 20
130.7154522494
 30
0.0
 11
239.7925898864
 21
129.2877079204
 31
0.0
  0
LINE
  5
39C
330
1F
100
AcDbEntity
  8
0
  6
Continuous
 62
     7
370
    25
100
AcDbLine
 10
239.7925898864
 20
130.7154522494
 30
0.0
 11
242.5925899729
 21
130.7154522494
 31
0.0
  0
LINE
  5
39D
330
1F
100
AcDbEntity
  8
0
  6
Continuous
 62
     7
370
    25
100
AcDbLine
 10
240.192589952
 20
131.2154517725
 30
0.0
 11
240.8492960933
 21
131.2154517725
 31
0.0
  0
LINE
  5
39E
330
1F
100
AcDbEntity
  8
0
  6
Continuous
 62
     7
370
    25
100
AcDbLine
 10
241.535883766
 20
131.2154517725
 30
0.0
 11
242.1925899073
 21
131.2154517725
 31
0.0
  0
ARC
  5
39F
330
1F
100
AcDbEntity
  8
0
  6
Continuous
 62
     7
370
    25
100
AcDbCircle
 10
241.1925899297
 20
116.0154522613
 30
0.0
 40
14.7
100
AcDbArc
 50
328.2486837436
 51
84.5349762001
  0
ARC
  5
3A0
330
1F
100
AcDbEntity
  8
0
  6
Continuous
 62
     7
370
    25
100
AcDbCircle
 10
241.1925899297
 20
116.0154522613
 30
0.0
 40
14.7
100
AcDbArc
 50
196.3982959309
 51
211.7513162564
  0
ARC
  5
3A1
330
1F
100
AcDbEntity
  8
0
  6
Continuous
 62
     7
370
    25
100
AcDbCircle
 10
241.1925899297
 20
116.0154522613
 30
0.0
 40
14.7
100
AcDbArc
 50
95.4650237999
 51
165.2203683694
  0
LINE
  5
3A2
330
1F
100
AcDbEntity
  8
0
  6
Continuous
 62
     7
370
    25
100
AcDbLine
 10
255.7925897151
 20
93.9654515341
 30
0.0
 11
255.7925897151
 21
93.2654516057
 31
0.0
  0
LINE
  5
3A3
330
1F
100
AcDbEntity
  8
0
  6
Continuous
 62
     7
370
    25
100
AcDbLine
 10
255.7925897151
 20
93.9654515341
 30
0.0
 11
256.6425892025
 21
93.9654515341
 31
0.0
  0
LINE
  5
3A4
330
1F
100
AcDbEntity
  8
0
  6
Continuous
 62
     7
370
    25
100
AcDbLine
 10
256.6425892025
 20
93.9654515341
 30
0.0
 11
256.6425892025
 21
93.2654516057
 31
0.0
  0
LINE
  5
3A5
330
1F
100
AcDbEntity
  8
0
  6
Continuous
 62
     7
370
    25
100
AcDbLine
 10
254.9425902277
 20
93.9654515341
 30
0.0
 11
254.9425902277
 21
93.2654516057
 31
0.0
  0
LINE
  5
3A6
330
1F
100
AcDbEntity
  8
0
  6
Continuous
 62
     7
370
    25
100
AcDbLine
 10
254.9425902277
 20
93.9654515341
 30
0.0
 11
255.7925897151
 21
93.9654515341
 31
0.0
  0
LINE
  5
3A7
330
1F
100
AcDbEntity
  8
0
  6
Continuous
 62
     7
370
    25
100
AcDbLine
 10
226.5925901442
 20
94.0654517368
 30
0.0
 11
226.5925901442
 21
93.3654518083
 31
0.0
  0
LINE
  5
3A8
330
1F
100
AcDbEntity
  8
0
  6
Continuous
 62
     7
370
    25
100
AcDbLine
 10
226.5925901442
 20
94.0654517368
 30
0.0
 11
227.4425896316
 21
94.0654517368
 31
0.0
  0
LINE
  5
3A9
330
1F
100
AcDbEntity
  8
0
  6
Continuous
 62
     7
370
    25
100
AcDbLine
 10
227.4425896316
 20
94.0654517368
 30
0.0
 11
227.4425896316
 21
93.3654518083
 31
0.0
  0
LINE
  5
3AA
330
1F
100
AcDbEntity
  8
0
  6
Continuous
 62
     7
370
    25
100
AcDbLine
 10
226.5925901442
 20
93.3654518083
 30
0.0
 11
227.4425896316
 21
93.3654518083
 31
0.0
  0
LINE
  5
3AB
330
1F
100
AcDbEntity
  8
0
  6
Continuous
 62
     7
370
    25
100
AcDbLine
 10
225.7425906568
 20
94.0654517368
 30
0.0
 11
225.7425906568
 21
93.3654518083
 31
0.0
  0
LINE
  5
3AC
330
1F
100
AcDbEntity
  8
0
  6
Continuous
 62
     7
370
    25
100
AcDbLine
 10
225.7425906568
 20
93.3654518083
 30
0.0
 11
226.5925901442
 21
93.3654518083
 31
0.0
  0
LINE
  5
3AD
330
1F
100
AcDbEntity
  8
0
  6
Continuous
 62
     7
370
    25
100
AcDbLine
 10
225.7425906568
 20
94.0654517368
 30
0.0
 11
226.5925901442
 21
94.0654517368
 31
0.0
  0
LINE
  5
3AE
330
1F
100
AcDbEntity
  8
0
  6
Continuous
 62
     7
370
    25
100
AcDbLine
 10
226.5925901442
 20
92.7154527262
 30
0.0
 11
226.0925906211
 21
92.7154527262
 31
0.0
  0
LINE
  5
3AF
330
1F
100
AcDbEntity
  8
0
  6
Continuous
 62
     7
370
    25
100
AcDbLine
 10
227.0925896674
 20
92.7154527262
 30
0.0
 11
226.5925901442
 21
92.7154527262
 31
0.0
  0
LINE
  5
3B0
330
1F
100
AcDbEntity
  8
0
  6
Continuous
 62
     7
370
    25
100
AcDbLine
 10
256.6425892025
 20
94.0654517368
 30
0.0
 11
256.6425892025
 21
93.9654515341
 31
0.0
  0
LINE
  5
3B1
330
1F
100
AcDbEntity
  8
0
  6
Continuous
 62
     7
370
    25
100
AcDbLine
 10
256.2925892382
 20
94.0654517368
 30
0.0
 11
256.6425892025
 21
94.0654517368
 31
0.0
  0
LINE
  5
3B2
330
1F
100
AcDbEntity
  8
0
  6
Continuous
 62
     7
370
    25
100
AcDbLine
 10
254.9425902277
 20
94.0654517368
 30
0.0
 11
254.9425902277
 21
93.9654515341
 31
0.0
  0
LINE
  5
3B3
330
1F
100
AcDbEntity
  8
0
  6
Continuous
 62
     7
370
    25
100
AcDbLine
 10
254.9425902277
 20
94.0654517368
 30
0.0
 11
255.2925901919
 21
94.0654517368
 31
0.0
  0
LINE
  5
3B4
330
1F
100
AcDbEntity
  8
0
  6
Continuous
 62
     7
370
    25
100
AcDbLine
 10
255.7925897151
 20
94.9154527143
 30
0.0
 11
255.7925897151
 21
94.2154527858
 31
0.0
  0
LINE
  5
3B5
330
1F
100
AcDbEntity
  8
0
  6
Continuous
 62
     7
370
    25
100
AcDbLine
 10
256.6425892025
 20
94.9154527143
 30
0.0
 11
256.6425892025
 21
94.2154527858
 31
0.0
  0
LINE
  5
3B6
330
1F
100
AcDbEntity
  8
0
  6
Continuous
 62
     7
370
    25
100
AcDbLine
 10
255.7925897151
 20
94.9154527143
 30
0.0
 11
256.6425892025
 21
94.9154527143
 31
0.0
  0
LINE
  5
3B7
330
1F
100
AcDbEntity
  8
0
  6
Continuous
 62
     7
370
    25
100
AcDbLine
 10
255.7925897151
 20
94.2154527858
 30
0.0
 11
256.6425892025
 21
94.2154527858
 31
0.0
  0
LINE
  5
3B8
330
1F
100
AcDbEntity
  8
0
  6
Continuous
 62
     7
370
    25
100
AcDbLine
 10
254.9425902277
 20
94.9154527143
 30
0.0
 11
254.9425902277
 21
94.2154527858
 31
0.0
  0
LINE
  5
3B9
330
1F
100
AcDbEntity
  8
0
  6
Continuous
 62
     7
370
    25
100
AcDbLine
 10
254.9425902277
 20
94.9154527143
 30
0.0
 11
255.7925897151
 21
94.9154527143
 31
0.0
  0
LINE
  5
3BA
330
1F
100
AcDbEntity
  8
0
  6
Continuous
 62
     7
370
    25
100
AcDbLine
 10
254.9425902277
 20
94.2154527858
 30
0.0
 11
255.7925897151
 21
94.2154527858
 31
0.0
  0
LINE
  5
3BB
330
1F
100
AcDbEntity
  8
0
  6
Continuous
 62
     7
370
    25
100
AcDbLine
 10
255.7925897151
 20
92.7154527262
 30
0.0
 11
255.2925901919
 21
92.7154527262
 31
0.0
  0
LINE
  5
3BC
330
1F
100
AcDbEntity
  8
0
  6
Continuous
 62
     7
370
    25
100
AcDbLine
 10
256.2925892382
 20
92.7154527262
 30
0.0
 11
255.7925897151
 21
92.7154527262
 31
0.0
  0
ARC
  5
3BD
330
1F
100
AcDbEntity
  8
0
  6
Continuous
 62
     7
370
    25
100
AcDbCircle
 10
241.1925899297
 20
116.0154522613
 30
0.0
 40
16.38973105382453
100
AcDbArc
 50
103.9637190735
 51
106.0613366826
  0
ARC
  5
3BE
330
1F
100
AcDbEntity
  8
0
  6
Continuous
 62
     7
370
    25
100
AcDbCircle
 10
241.1925899297
 20
116.0154522613
 30
0.0
 40
16.45
100
AcDbArc
 50
213.1691404365
 51
220.5465192112
  0
ARC
  5
3BF
330
1F
100
AcDbEntity
  8
0
  6
Continuous
 62
     7
370
    25
100
AcDbCircle
 10
241.1925899297
 20
116.0154522613
 30
0.0
 40
16.45000000000002
100
AcDbArc
 50
319.4534807888
 51
88.6066522247
  0
ARC
  5
3C0
330
1F
100
AcDbEntity
  8
0
  6
Continuous
 62
     7
370
    25
100
AcDbCircle
 10
241.1925899297
 20
116.0154522613
 30
0.0
 40
16.45000000000002
100
AcDbArc
 50
91.3933477753
 51
103.9675161758
  0
ARC
  5
3C1
330
1F
100
AcDbEntity
  8
0
  6
Continuous
 62
     7
370
    25
100
AcDbCircle
 10
241.1925899297
 20
116.0154522613
 30
0.0
 40
16.30849899593579
100
AcDbArc
 50
213.4946757676
 51
219.9619168925
  0
ARC
  5
3C2
330
1F
100
AcDbEntity
  8
0
  6
Continuous
 62
     7
370
    25
100
AcDbCircle
 10
241.1925899297
 20
116.0154522613
 30
0.0
 40
16.30849899593579
100
AcDbArc
 50
320.0380831075
 51
88.5945604012
  0
ARC
  5
3C3
330
1F
100
AcDbEntity
  8
0
  6
Continuous
 62
     7
370
    25
100
AcDbCircle
 10
241.1925899297
 20
116.0154522613
 30
0.0
 40
16.30849899593579
100
AcDbArc
 50
91.4054395988
 51
133.2431013627
  0
ARC
  5
3C4
330
1F
100
AcDbEntity
  8
0
  6
Continuous
 62
     7
370
    25
100
AcDbCircle
 10
241.1925899297
 20
116.0154522613
 30
0.0
 40
16.45000000000001
100
AcDbArc
 50
106.0574477512
 51
133.2582186797
  0
LINE
  5
3C5
330
1F
100
AcDbEntity
  8
0
  6
Continuous
 62
     7
370
    25
100
AcDbLine
 10
227.5923269301
 20
107.0154519037
 30
0.0
 11
223.2925894171
 21
107.0154519037
 31
0.0
  0
LINE
  5
3C6
330
1F
100
AcDbEntity
  8
0
  6
Continuous
 62
     7
370
    25
100
AcDbLine
 10
223.2925894171
 20
107.0154519037
 30
0.0
 11
223.2925894171
 21
110.815452154
 31
0.0
  0
LINE
  5
3C7
330
1F
100
AcDbEntity
  8
0
  6
Continuous
 62
     7
370
    25
100
AcDbLine
 10
223.2925894171
 20
110.815452154
 30
0.0
 11
225.7353218704
 21
110.815452154
 31
0.0
  0
ARC
  5
3C8
330
1F
100
AcDbEntity
  8
0
  6
Continuous
 62
     7
370
    25
100
AcDbCircle
 10
241.1925899297
 20
116.0154522613
 30
0.0
 40
16.3084989959358
100
AcDbArc
 50
143.8178848491
 51
166.7063749726
  0
LWPOLYLINE
  5
3C9
330
1F
100
AcDbEntity
  8
0
  6
Continuous
 62
     7
370
    25
100
AcDbPolyline
 90
        3
 70
   128
 43
0.0
 10
224.8925896793
 20
116.5418926843
 10
224.8849200517
 20
116.1799556909
 10
224.8925896793
 20
115.4890118383
  0
LINE
  5
3CA
330
1F
100
AcDbEntity
  8
0
  6
Continuous
 62
     7
370
    25
100
AcDbLine
 10
225.4209490925
 20
111.8654524193
 30
0.0
 11
225.4264491111
 21
111.8446101651
 31
0.0
  0
LINE
  5
3CB
330
1F
100
AcDbEntity
  8
0
  6
Continuous
 62
     7
370
    25
100
AcDbLine
 10
225.5913930446
 20
111.2646852836
 30
0.0
 11
225.7353218704
 21
110.815452154
 31
0.0
  0
LINE
  5
3CC
330
1F
100
AcDbEntity
  8
0
  6
Continuous
 62
     7
370
    25
100
AcDbLine
 10
228.0292721897
 20
125.6432355598
 30
0.0
 11
227.0150991588
 21
126.6574093357
 31
0.0
  0
LINE
  5
3CD
330
1F
100
AcDbEntity
  8
0
  6
Continuous
 62
     7
370
    25
100
AcDbLine
 10
227.0150991588
 20
126.6574093357
 30
0.0
 11
229.1364195257
 21
128.7787289575
 31
0.0
  0
LINE
  5
3CE
330
1F
100
AcDbEntity
  8
0
  6
Continuous
 62
     7
370
    25
100
AcDbLine
 10
229.1364195257
 20
128.7787289575
 30
0.0
 11
230.0197141677
 21
127.8954350606
 31
0.0
  0
ARC
  5
3CF
330
1F
100
AcDbEntity
  8
0
  6
Continuous
 62
     7
370
    25
100
AcDbCircle
 10
241.1925899297
 20
116.0154522613
 30
0.0
 40
16.45000000000002
100
AcDbArc
 50
143.741437727
 51
166.8245144899
  0
ARC
  5
3D0
330
1F
100
AcDbEntity
  8
0
  6
Continuous
 62
     7
370
    25
100
AcDbCircle
 10
241.1925899297
 20
116.0154522613
 30
0.0
 40
16.45
100
AcDbArc
 50
172.2566146461
 51
187.7433853539
  0
LINE
  5
3D1
330
1F
100
AcDbEntity
  8
0
  6
Continuous
 62
     7
370
    25
100
AcDbLine
 10
225.2746748238
 20
111.8654524193
 30
0.0
 11
225.33429735
 21
111.6431479559
 31
0.0
  0
LINE
  5
3D2
330
1F
100
AcDbEntity
  8
0
  6
Continuous
 62
     7
370
    25
100
AcDbLine
 10
225.4201146274
 20
111.3430303738
 30
0.0
 11
225.5861001521
 21
110.815452154
 31
0.0
  0
ARC
  5
3D3
330
1F
100
AcDbEntity
  8
0
  6
Continuous
 62
     7
370
    25
100
AcDbCircle
 10
236.3925899297
 20
133.9154522613
 30
0.0
 40
0.300000000000004
100
AcDbArc
 50
15.0
 51
195.0
  0
LINE
  5
3D4
330
1F
100
AcDbEntity
  8
0
  6
Continuous
 62
     7
370
    25
100
AcDbLine
 10
236.658104366
 20
131.7654283002
 30
0.0
 11
236.1028122216
 21
133.8378058032
 31
0.0
  0
LINE
  5
3D5
330
1F
100
AcDbEntity
  8
0
  6
Continuous
 62
     7
370
    25
100
AcDbLine
 10
236.6823675543
 20
133.9930982545
 30
0.0
 11
237.2376257985
 21
131.9208459214
 31
0.0
  0
ARC
  5
3D6
330
1F
100
AcDbEntity
  8
0
  6
Continuous
 62
     7
370
    25
100
AcDbCircle
 10
241.1925899297
 20
116.0154522613
 30
0.0
 40
17.20000000000001
100
AcDbArc
 50
91.3325801243
 51
104.0125418324
  0
ARC
  5
3D7
330
1F
100
AcDbEntity
  8
0
  6
Continuous
 62
     7
370
    25
100
AcDbCircle
 10
241.1925899297
 20
116.0154522613
 30
0.0
 40
17.20000000000001
100
AcDbArc
 50
316.6141375962
 51
88.6674198757
  0
ARC
  5
3D8
330
1F
100
AcDbEntity
  8
0
  6
Continuous
 62
     7
370
    25
100
AcDbCircle
 10
241.1925899297
 20
116.0154522613
 30
0.0
 40
17.2
100
AcDbArc
 50
211.550899554
 51
223.3858624038
  0
ARC
  5
3D9
330
1F
100
AcDbEntity
  8
0
  6
Continuous
 62
     7
370
    25
100
AcDbCircle
 10
241.1925899297
 20
116.0154522613
 30
0.0
 40
17.2
100
AcDbArc
 50
106.0113332124
 51
133.3341903422
  0
ARC
  5
3DA
330
1F
100
AcDbEntity
  8
0
  6
Continuous
 62
     7
370
    25
100
AcDbCircle
 10
241.1925899297
 20
116.0154522613
 30
0.0
 40
17.2
100
AcDbArc
 50
143.3574800957
 51
197.5973366081
  0
LINE
  5
3DB
330
1F
100
AcDbEntity
  8
0
  6
Continuous
 62
     7
370
    25
100
AcDbLine
 10
223.1925892144
 20
105.815452452
 30
0.0
 11
223.1925892144
 21
124.8154522136
 31
0.0
  0
LINE
  5
3DC
330
1F
100
AcDbEntity
  8
0
  6
Continuous
 62
     7
370
    25
100
AcDbLine
 10
223.1925892144
 20
124.8154522136
 30
0.0
 11
226.4142277151
 21
124.8154522136
 31
0.0
  0
LINE
  5
3DD
330
1F
100
AcDbEntity
  8
0
  6
Continuous
 62
     7
370
    25
100
AcDbLine
 10
227.3434015423
 20
105.815452452
 30
0.0
 11
223.1925892144
 21
105.815452452
 31
0.0
  0
LINE
  5
3DE
330
1F
100
AcDbEntity
  8
0
  6
Continuous
 62
     7
370
    25
100
AcDbLine
 10
222.5925894886
 20
106.2654526189
 30
0.0
 11
222.5925894886
 21
111.7654522166
 31
0.0
  0
LINE
  5
3DF
330
1F
100
AcDbEntity
  8
0
  6
Continuous
 62
     7
370
    25
100
AcDbLine
 10
222.5925894886
 20
111.7654522166
 30
0.0
 11
223.1925892144
 21
111.7654522166
 31
0.0
  0
LINE
  5
3E0
330
1F
100
AcDbEntity
  8
0
  6
Continuous
 62
     7
370
    25
100
AcDbLine
 10
222.5925894886
 20
106.2654526189
 30
0.0
 11
223.1925892144
 21
106.2654526189
 31
0.0
  0
LINE
  5
3E1
330
1F
100
AcDbEntity
  8
0
  6
Continuous
 62
     7
370
    25
100
AcDbLine
 10
222.5925894886
 20
118.4654521972
 30
0.0
 11
223.1925892144
 21
118.4654521972
 31
0.0
  0
LINE
  5
3E2
330
1F
100
AcDbEntity
  8
0
  6
Continuous
 62
     7
370
    25
100
AcDbLine
 10
222.5925894886
 20
118.4654521972
 30
0.0
 11
222.5925894886
 21
123.9654519812
 31
0.0
  0
LINE
  5
3E3
330
1F
100
AcDbEntity
  8
0
  6
Continuous
 62
     7
370
    25
100
AcDbLine
 10
222.5925894886
 20
123.9654519812
 30
0.0
 11
223.1925892144
 21
123.9654519812
 31
0.0
  0
LINE
  5
3E4
330
1F
100
AcDbEntity
  8
0
  6
Continuous
 62
     7
370
    25
100
AcDbLine
 10
219.8332639843
 20
106.7904525653
 30
0.0
 11
219.8332639843
 21
111.2404522702
 31
0.0
  0
LINE
  5
3E5
330
1F
100
AcDbEntity
  8
0
  6
Continuous
 62
     7
370
    25
100
AcDbLine
 10
219.692589572
 20
109.0154522315
 30
0.0
 11
219.692589572
 21
106.2654526189
 31
0.0
  0
LINE
  5
3E6
330
1F
100
AcDbEntity
  8
0
  6
Continuous
 62
     7
370
    25
100
AcDbLine
 10
219.692589572
 20
111.7654522166
 30
0.0
 11
219.692589572
 21
109.0154522315
 31
0.0
  0
LINE
  5
3E7
330
1F
100
AcDbEntity
  8
0
  6
Continuous
 62
     7
370
    25
100
AcDbLine
 10
219.8332639843
 20
118.9904523299
 30
0.0
 11
219.8332639843
 21
123.4404520348
 31
0.0
  0
LINE
  5
3E8
330
1F
100
AcDbEntity
  8
0
  6
Continuous
 62
     7
370
    25
100
AcDbLine
 10
219.692589572
 20
121.2154523686
 30
0.0
 11
219.692589572
 21
118.4654521972
 31
0.0
  0
LINE
  5
3E9
330
1F
100
AcDbEntity
  8
0
  6
Continuous
 62
     7
370
    25
100
AcDbLine
 10
219.692589572
 20
123.9654519812
 30
0.0
 11
219.692589572
 21
121.2154523686
 31
0.0
  0
LINE
  5
3EA
330
1F
100
AcDbEntity
  8
0
  6
Continuous
 62
     7
370
    25
100
AcDbLine
 10
219.3925904542
 20
106.2654526189
 30
0.0
 11
219.3925904542
 21
111.7654522166
 31
0.0
  0
LINE
  5
3EB
330
1F
100
AcDbEntity
  8
0
  6
Continuous
 62
     7
370
    25
100
AcDbLine
 10
219.3925904542
 20
118.4654521972
 30
0.0
 11
219.3925904542
 21
123.9654519812
 31
0.0
  0
LINE
  5
3EC
330
1F
100
AcDbEntity
  8
0
  6
Continuous
 62
     7
370
    25
100
AcDbLine
 10
236.1128045678
 20
132.4482173875
 30
0.0
 11
235.6676092803
 21
134.1097102717
 31
0.0
  0
LINE
  5
3ED
330
1F
100
AcDbEntity
  8
0
  6
Continuous
 62
     7
370
    25
100
AcDbLine
 10
235.6676092803
 20
134.1097102717
 30
0.0
 11
236.1983320176
 21
134.640433009
 31
0.0
  0
LINE
  5
3EE
330
1F
100
AcDbEntity
  8
0
  6
Continuous
 62
     7
370
    25
100
AcDbLine
 10
236.1983320176
 20
134.640433009
 30
0.0
 11
236.9233126252
 21
134.4461755112
 31
0.0
  0
LINE
  5
3EF
330
1F
100
AcDbEntity
  8
0
  6
Continuous
 62
     7
370
    25
100
AcDbLine
 10
236.9233126252
 20
134.4461755112
 30
0.0
 11
237.3684382498
 21
132.7849448875
 31
0.0
  0
LINE
  5
3F0
330
1F
100
AcDbEntity
  8
0
  6
Continuous
 62
     7
370
    25
100
AcDbLine
 10
226.4111267835
 20
128.8111538843
 30
0.0
 11
227.7899848729
 21
127.4322957948
 31
0.0
  0
LINE
  5
3F1
330
1F
100
AcDbEntity
  8
0
  6
Continuous
 62
     7
370
    25
100
AcDbLine
 10
226.4111267835
 20
128.8111538843
 30
0.0
 11
226.9826742321
 21
129.3827013329
 31
0.0
  0
LINE
  5
3F2
330
1F
100
AcDbEntity
  8
0
  6
Continuous
 62
     7
370
    25
100
AcDbLine
 10
226.9826742321
 20
129.3827013329
 30
0.0
 11
228.3615323215
 21
128.0038432435
 31
0.0
  0
LINE
  5
3F3
330
1F
100
AcDbEntity
  8
0
  6
Continuous
 62
     7
370
    25
100
AcDbLine
 10
226.9826742321
 20
129.3827013329
 30
0.0
 11
227.2684487015
 21
129.6684758023
 31
0.0
  0
LINE
  5
3F4
330
1F
100
AcDbEntity
  8
0
  6
Continuous
 62
     7
370
    25
100
AcDbLine
 10
227.2684487015
 20
129.6684758023
 30
0.0
 11
228.6473067909
 21
128.2896169678
 31
0.0
  0
LINE
  5
3F5
330
1F
100
AcDbEntity
  8
0
  6
Continuous
 62
     7
370
    25
100
AcDbLine
 10
226.1253538042
 20
128.5253794149
 30
0.0
 11
227.5042118936
 21
127.1465220705
 31
0.0
  0
LINE
  5
3F6
330
1F
100
AcDbEntity
  8
0
  6
Continuous
 62
     7
370
    25
100
AcDbLine
 10
226.1253538042
 20
128.5253794149
 30
0.0
 11
226.4111267835
 21
128.8111538843
 31
0.0
  0
LINE
  5
3F7
330
1F
100
AcDbEntity
  8
0
  6
Continuous
 62
     7
370
    25
100
AcDbLine
 10
125.3571613881
 20
165.1683418039
 30
0.0
 11
129.3071604524
 21
165.1683418039
 31
0.0
  0
LINE
  5
3F8
330
1F
100
AcDbEntity
  8
0
  6
Continuous
 62
     7
370
    25
100
AcDbLine
 10
133.9071608338
 20
165.1683418039
 30
0.0
 11
137.8571608294
 21
165.1683418039
 31
0.0
  0
LINE
  5
3F9
330
1F
100
AcDbEntity
  8
0
  6
Continuous
 62
     7
370
    25
100
AcDbLine
 10
128.8071609292
 20
187.4683422927
 30
0.0
 11
126.4671608064
 21
187.3457072262
 31
0.0
  0
LINE
  5
3FA
330
1F
100
AcDbEntity
  8
0
  6
Continuous
 62
     7
370
    25
100
AcDbLine
 10
136.707160734
 20
187.4683422927
 30
0.0
 11
128.8071609292
 21
187.4683422927
 31
0.0
  0
LINE
  5
3FB
330
1F
100
AcDbEntity
  8
0
  6
Continuous
 62
     7
370
    25
100
AcDbLine
 10
126.4671608064
 20
187.1183423284
 30
0.0
 11
123.9671602104
 21
186.9873223785
 31
0.0
  0
LINE
  5
3FC
330
1F
100
AcDbEntity
  8
0
  6
Continuous
 62
     7
370
    25
100
AcDbLine
 10
139.407160804
 20
186.5768400911
 30
0.0
 11
136.707160734
 21
186.7183415178
 31
0.0
  0
LINE
  5
3FD
330
1F
100
AcDbEntity
  8
0
  6
Continuous
 62
     7
370
    25
100
AcDbLine
 10
123.9671602104
 20
184.868341494
 30
0.0
 11
123.1671600792
 21
184.868341494
 31
0.0
  0
LINE
  5
3FE
330
1F
100
AcDbEntity
  8
0
  6
Continuous
 62
     7
370
    25
100
AcDbLine
 10
123.1671600792
 20
155.6683419231
 30
0.0
 11
123.9671602104
 21
155.6683419231
 31
0.0
  0
LINE
  5
3FF
330
1F
100
AcDbEntity
  8
0
  6
Continuous
 62
     7
370
    25
100
AcDbLine
 10
123.1671600792
 20
184.0683413628
 30
0.0
 11
118.307161257
 21
183.9410779957
 31
0.0
  0
LINE
  5
400
330
1F
100
AcDbEntity
  8
0
  6
Continuous
 62
     7
370
    25
100
AcDbLine
 10
118.307161257
 20
156.5956054214
 30
0.0
 11
123.1671600792
 21
156.4683420542
 31
0.0
  0
LINE
  5
401
330
1F
100
AcDbEntity
  8
0
  6
Continuous
 62
     7
370
    25
100
AcDbLine
 10
134.4071607295
 20
153.0683411244
 30
0.0
 11
136.707160734
 21
153.0683411244
 31
0.0
  0
LINE
  5
402
330
1F
100
AcDbEntity
  8
0
  6
Continuous
 62
     7
370
    25
100
AcDbLine
 10
126.4671608064
 20
153.1909761909
 30
0.0
 11
128.3571607623
 21
153.0919251922
 31
0.0
  0
LINE
  5
403
330
1F
100
AcDbEntity
  8
0
  6
Continuous
 62
     7
370
    25
100
AcDbLine
 10
123.9671602104
 20
153.5493610386
 30
0.0
 11
126.4671608064
 21
153.4183410887
 31
0.0
  0
LINE
  5
404
330
1F
100
AcDbEntity
  8
0
  6
Continuous
 62
     7
370
    25
100
AcDbLine
 10
136.707160734
 20
153.8183418993
 30
0.0
 11
139.407160804
 21
153.959843326
 31
0.0
  0
LINE
  5
405
330
1F
100
AcDbEntity
  8
0
  6
Continuous
 62
     7
370
    25
100
AcDbLine
 10
134.3571606282
 20
148.4683422331
 30
0.0
 11
134.3571606282
 21
148.7683413509
 31
0.0
  0
LINE
  5
406
330
1F
100
AcDbEntity
  8
0
  6
Continuous
 62
     7
370
    25
100
AcDbLine
 10
128.8571610305
 20
148.7683413509
 30
0.0
 11
128.8571610305
 21
148.4683422331
 31
0.0
  0
LINE
  5
407
330
1F
100
AcDbEntity
  8
0
  6
Continuous
 62
     7
370
    25
100
AcDbLine
 10
134.3571606282
 20
148.7683413509
 30
0.0
 11
133.8321606818
 21
148.9090157632
 31
0.0
  0
LINE
  5
408
330
1F
100
AcDbEntity
  8
0
  6
Continuous
 62
     7
370
    25
100
AcDbLine
 10
129.3821609769
 20
148.9090157632
 30
0.0
 11
128.8571610305
 21
148.7683413509
 31
0.0
  0
LINE
  5
409
330
1F
100
AcDbEntity
  8
0
  6
Continuous
 62
     7
370
    25
100
AcDbLine
 10
129.3821609769
 20
151.6683412675
 30
0.0
 11
129.3821609769
 21
148.9090157632
 31
0.0
  0
LINE
  5
40A
330
1F
100
AcDbEntity
  8
0
  6
Continuous
 62
     7
370
    25
100
AcDbLine
 10
133.8321606818
 20
148.9090157632
 30
0.0
 11
133.8321606818
 21
151.6683412675
 31
0.0
  0
ARC
  5
40B
330
1F
100
AcDbEntity
  8
0
  6
Continuous
 62
     7
370
    25
100
AcDbCircle
 10
142.957160804
 20
170.2683417085
 30
0.0
 40
0.4000000000000057
100
AcDbArc
 50
270.0
 51
90.0
  0
ARC
  5
40C
330
1F
100
AcDbEntity
  8
0
  6
Continuous
 62
     7
370
    25
100
AcDbCircle
 10
139.657160804
 20
170.2683417085
 30
0.0
 40
0.4000000000000057
100
AcDbArc
 50
90.0
 51
270.0
  0
LINE
  5
40D
330
1F
100
AcDbEntity
  8
0
  6
Continuous
 62
     7
370
    25
100
AcDbLine
 10
142.9571609202
 20
170.6683417275
 30
0.0
 11
139.6571607984
 21
170.6683417275
 31
0.0
  0
LINE
  5
40E
330
1F
100
AcDbEntity
  8
0
  6
Continuous
 62
     7
370
    25
100
AcDbLine
 10
139.6571607984
 20
169.8683416895
 30
0.0
 11
142.9571609202
 21
169.8683416895
 31
0.0
  0
LINE
  5
40F
330
1F
100
AcDbEntity
  8
0
  6
Continuous
 62
     7
370
    25
100
AcDbLine
 10
140.207160842
 20
184.9683416966
 30
0.0
 11
139.407160804
 21
184.9683416966
 31
0.0
  0
LINE
  5
410
330
1F
100
AcDbEntity
  8
0
  6
Continuous
 62
     7
370
    25
100
AcDbLine
 10
139.407160804
 20
155.5683417205
 30
0.0
 11
140.207160842
 21
155.5683417205
 31
0.0
  0
LINE
  5
411
330
1F
100
AcDbEntity
  8
0
  6
Continuous
 62
     7
370
    25
100
AcDbLine
 10
140.207160842
 20
156.8683413748
 30
0.0
 11
145.5071608726
 21
156.9608537439
 31
0.0
  0
LINE
  5
412
330
1F
100
AcDbEntity
  8
0
  6
Continuous
 62
     7
370
    25
100
AcDbLine
 10
145.5071608726
 20
183.5758296732
 30
0.0
 11
140.207160842
 21
183.6683420423
 31
0.0
  0
LINE
  5
413
330
1F
100
AcDbEntity
  8
0
  6
Continuous
 62
     7
370
    25
100
AcDbLine
 10
145.5071608726
 20
156.9608537439
 30
0.0
 11
149.7071608159
 21
159.7937894944
 31
0.0
  0
LINE
  5
414
330
1F
100
AcDbEntity
  8
0
  6
Continuous
 62
     7
370
    25
100
AcDbLine
 10
149.7071608159
 20
180.7428939227
 30
0.0
 11
145.5071608726
 21
183.5758296732
 31
0.0
  0
LINE
  5
415
330
1F
100
AcDbEntity
  8
0
  6
Continuous
 62
     7
370
    25
100
AcDbLine
 10
149.7071608159
 20
159.7937894944
 30
0.0
 11
149.9071604762
 21
159.7937894944
 31
0.0
  0
LINE
  5
416
330
1F
100
AcDbEntity
  8
0
  6
Continuous
 62
     7
370
    25
100
AcDbLine
 10
149.9071604762
 20
180.7428939227
 30
0.0
 11
149.7071608159
 21
180.7428939227
 31
0.0
  0
LINE
  5
417
330
1F
100
AcDbEntity
  8
0
  6
Continuous
 62
     7
370
    25
100
AcDbLine
 10
170.3571616862
 20
160.9183413867
 30
0.0
 11
173.1571614001
 21
160.9183413867
 31
0.0
  0
LINE
  5
418
330
1F
100
AcDbEntity
  8
0
  6
Continuous
 62
     7
370
    25
100
AcDbLine
 10
173.1571614001
 20
179.6183420304
 30
0.0
 11
170.3571616862
 21
179.6183420304
 31
0.0
  0
LINE
  5
419
330
1F
100
AcDbEntity
  8
0
  6
Continuous
 62
     7
370
    25
100
AcDbLine
 10
170.3571616862
 20
180.3733413998
 30
0.0
 11
149.9071604762
 21
180.3733413998
 31
0.0
  0
LINE
  5
41A
330
1F
100
AcDbEntity
  8
0
  6
Continuous
 62
     7
370
    25
100
AcDbLine
 10
154.8164128516
 20
184.0183420066
 30
0.0
 11
155.797909126
 21
184.0183420066
 31
0.0
  0
LINE
  5
41B
330
1F
100
AcDbEntity
  8
0
  6
Continuous
 62
     7
370
    25
100
AcDbLine
 10
154.3256654594
 20
184.868341494
 30
0.0
 11
154.8164128516
 21
184.0183420066
 31
0.0
  0
LINE
  5
41C
330
1F
100
AcDbEntity
  8
0
  6
Continuous
 62
     7
370
    25
100
AcDbLine
 10
155.797909126
 20
184.0183420066
 30
0.0
 11
156.2886565182
 21
184.868341494
 31
0.0
  0
LINE
  5
41D
330
1F
100
AcDbEntity
  8
0
  6
Continuous
 62
     7
370
    25
100
AcDbLine
 10
156.2886565182
 20
184.868341494
 30
0.0
 11
155.797909126
 21
185.7183409814
 31
0.0
  0
LINE
  5
41E
330
1F
100
AcDbEntity
  8
0
  6
Continuous
 62
     7
370
    25
100
AcDbLine
 10
154.8164128516
 20
185.7183409814
 30
0.0
 11
154.3256654594
 21
184.868341494
 31
0.0
  0
LINE
  5
41F
330
1F
100
AcDbEntity
  8
0
  6
Continuous
 62
     7
370
    25
100
AcDbLine
 10
155.797909126
 20
185.7183409814
 30
0.0
 11
154.8164128516
 21
185.7183409814
 31
0.0
  0
LINE
  5
420
330
1F
100
AcDbEntity
  8
0
  6
Continuous
 62
     7
370
    25
100
AcDbLine
 10
158.3571597192
 20
182.8083423857
 30
0.0
 11
158.3471610401
 21
182.8083423857
 31
0.0
  0
LINE
  5
421
330
1F
100
AcDbEntity
  8
0
  6
Continuous
 62
     7
370
    25
100
AcDbLine
 10
158.8071613762
 20
157.7283410314
 30
0.0
 11
158.8071613762
 21
160.6683416251
 31
0.0
  0
LINE
  5
422
330
1F
100
AcDbEntity
  8
0
  6
Continuous
 62
     7
370
    25
100
AcDbLine
 10
158.8071613762
 20
180.3733413998
 30
0.0
 11
158.8071613762
 21
182.8083423857
 31
0.0
  0
LINE
  5
423
330
1F
100
AcDbEntity
  8
0
  6
Continuous
 62
     7
370
    25
100
AcDbLine
 10
158.3571612093
 20
157.7283410314
 30
0.0
 11
158.3471610401
 21
157.7283410314
 31
0.0
  0
LINE
  5
424
330
1F
100
AcDbEntity
  8
0
  6
Continuous
 62
     7
370
    25
100
AcDbLine
 10
145.9630309794
 20
183.2683412317
 30
0.0
 11
158.3571612093
 21
183.2683412317
 31
0.0
  0
SPLINE
  5
425
330
1F
100
AcDbEntity
  8
0
  6
Continuous
 62
     7
370
    25
100
AcDbSpline
210
0.0
220
0.0
230
1.0
 70
    24
 71
     3
 72
    11
 73
     7
 74
     0
 42
0.000000001
 43
0.00000001
 40
0.0
 40
0.0
 40
0.0
 40
0.0
 40
0.2499984431012995
 40
0.4999989821570125
 40
0.7499995212127254
 40
0.9999999999999999
 40
0.9999999999999999
 40
0.9999999999999999
 40
0.9999999999999999
 10
158.3571612093317
 20
182.8083423856514
 30
0.0
 10
158.3571612093317
 20
182.8686190784932
 30
0.0
 10
158.3571612093317
 20
182.9891729695289
 30
0.0
 10
158.3571612093317
 20
183.1412235719846
 30
0.0
 10
158.3571612093317
 20
183.2475985148377
 30
0.0
 10
158.3571612093317
 20
183.2614269933052
 30
0.0
 10
158.3571612093317
 20
183.2683412317054
 30
0.0
  0
SPLINE
  5
426
330
1F
100
AcDbEntity
  8
0
  6
Continuous
 62
     7
370
    25
100
AcDbSpline
210
0.0
220
0.0
230
1.0
 70
    24
 71
     3
 72
    11
 73
     7
 74
     0
 42
0.000000001
 43
0.00000001
 40
0.0
 40
0.0
 40
0.0
 40
0.0
 40
0.2500002676834591
 40
0.49999934046327
 40
0.7500001704822581
 40
1.0
 40
1.0
 40
1.0
 40
1.0
 10
158.3571612093317
 20
157.7283410314338
 30
0.0
 10
158.3571612093317
 20
157.6680671396803
 30
0.0
 10
158.3571612093317
 20
157.5475196442589
 30
0.0
 10
158.3571612093317
 20
157.3954725176361
 30
0.0
 10
158.3571612093317
 20
157.2890952223036
 30
0.0
 10
158.3571612093317
 20
157.2752598551262
 30
0.0
 10
158.3571612093317
 20
157.2683421853798
 30
0.0
  0
LINE
  5
427
330
1F
100
AcDbEntity
  8
0
  6
Continuous
 62
     7
370
    25
100
AcDbLine
 10
158.3571612093
 20
157.2683421854
 30
0.0
 11
157.4071615193
 21
157.2683421854
 31
0.0
  0
LINE
  5
428
330
1F
100
AcDbEntity
  8
0
  6
Continuous
 62
     7
370
    25
100
AcDbLine
 10
148.6071608219
 20
157.2683421854
 30
0.0
 11
147.2571610663
 21
157.2683421854
 31
0.0
  0
ARC
  5
429
330
1F
100
AcDbEntity
  8
0
  6
Continuous
 62
     7
370
    25
100
AcDbCircle
 10
158.357160804
 20
157.7283417085
 30
0.0
 40
0.460000000000008
100
AcDbArc
 50
270.0
 51
0.0
  0
SPLINE
  5
42A
330
1F
100
AcDbEntity
  8
0
  6
Continuous
 62
     7
370
    25
100
AcDbSpline
210
0.0
220
0.0
230
1.0
 70
    24
 71
     3
 72
    11
 73
     7
 74
     0
 42
0.000000001
 43
0.00000001
 40
0.0
 40
0.0
 40
0.0
 40
0.0
 40
0.2702616401845311
 40
0.5624289544687194
 40
0.7897347710095828
 40
0.9999999999999999
 40
0.9999999999999999
 40
0.9999999999999999
 40
0.9999999999999999
 10
158.3571612093317
 20
157.7283410314338
 30
0.0
 10
158.4223424974796
 20
157.7283410314338
 30
0.0
 10
158.5579882506798
 20
157.7283410314338
 30
0.0
 10
158.7122793425026
 20
157.7283410314339
 30
0.0
 10
158.8020896637081
 20
157.7283410314338
 30
0.0
 10
158.812269734405
 20
157.7283410314338
 30
0.0
 10
158.8171615455019
 20
157.7283410314338
 30
0.0
  0
ARC
  5
42B
330
1F
100
AcDbEntity
  8
0
  6
Continuous
 62
     7
370
    25
100
AcDbCircle
 10
158.357160804
 20
182.8083417085
 30
0.0
 40
0.460000000000008
100
AcDbArc
 50
0.0
 51
90.0
  0
SPLINE
  5
42C
330
1F
100
AcDbEntity
  8
0
  6
Continuous
 62
     7
370
    25
100
AcDbSpline
210
0.0
220
0.0
230
1.0
 70
    24
 71
     3
 72
    11
 73
     7
 74
     0
 42
0.000000001
 43
0.00000001
 40
0.0
 40
0.0
 40
0.0
 40
0.0
 40
0.2702616401845311
 40
0.5624289544687194
 40
0.7897347710095828
 40
0.9999999999999999
 40
0.9999999999999999
 40
0.9999999999999999
 40
0.9999999999999999
 10
158.3571612093317
 20
182.8083423856514
 30
0.0
 10
158.4223424974796
 20
182.8083423856514
 30
0.0
 10
158.5579882506798
 20
182.8083423856514
 30
0.0
 10
158.7122793425026
 20
182.8083423856514
 30
0.0
 10
158.8020896637081
 20
182.8083423856514
 30
0.0
 10
158.812269734405
 20
182.8083423856514
 30
0.0
 10
158.8171615455019
 20
182.8083423856514
 30
0.0
  0
LINE
  5
42D
330
1F
100
AcDbEntity
  8
0
  6
Continuous
 62
     7
370
    25
100
AcDbLine
 10
158.3571612093
 20
183.2683412317
 30
0.0
 11
158.3571612093
 21
183.278341401
 31
0.0
  0
LINE
  5
42E
330
1F
100
AcDbEntity
  8
0
  6
Continuous
 62
     7
370
    25
100
AcDbLine
 10
158.3571612093
 20
157.2583420161
 30
0.0
 11
158.3571612093
 21
157.2683421854
 31
0.0
  0
LINE
  5
42F
330
1F
100
AcDbEntity
  8
0
  6
Continuous
 62
     7
370
    25
100
AcDbLine
 10
139.407160804
 20
186.2683413509
 30
0.0
 11
158.3571612093
 21
186.2683413509
 31
0.0
  0
LINE
  5
430
330
1F
100
AcDbEntity
  8
0
  6
Continuous
 62
     7
370
    25
100
AcDbLine
 10
158.3571612093
 20
186.2683413509
 30
0.0
 11
158.3571612093
 21
183.278341401
 31
0.0
  0
LINE
  5
431
330
1F
100
AcDbEntity
  8
0
  6
Continuous
 62
     7
370
    25
100
AcDbLine
 10
158.3571612093
 20
157.2583420161
 30
0.0
 11
158.3571612093
 21
154.2683420662
 31
0.0
  0
LINE
  5
432
330
1F
100
AcDbEntity
  8
0
  6
Continuous
 62
     7
370
    25
100
AcDbLine
 10
158.3571612093
 20
154.2683420662
 30
0.0
 11
156.5071611855
 21
154.2683420662
 31
0.0
  0
LINE
  5
433
330
1F
100
AcDbEntity
  8
0
  6
Continuous
 62
     7
370
    25
100
AcDbLine
 10
149.5071611557
 20
154.2683420662
 30
0.0
 11
139.407160804
 21
154.2683420662
 31
0.0
  0
LWPOLYLINE
  5
434
330
1F
100
AcDbEntity
  8
0
  6
Continuous
 62
     7
370
    25
100
AcDbPolyline
 90
        9
 70
   128
 43
0.0
 10
157.4071615193
 20
158.7626388255
 10
157.3975532505
 20
158.8032139424
 10
157.3691009734
 20
158.8422303978
 10
157.3228954527
 20
158.8781876448
 10
157.2607143972
 20
158.9097043458
 10
157.1849464629
 20
158.9355697814
 10
157.0985018465
 20
158.9547892991
 10
157.0047064874
 20
158.9666245464
 10
156.907160506
 20
158.9706202928
  0
LINE
  5
435
330
1F
100
AcDbEntity
  8
0
  6
Continuous
 62
     7
370
    25
100
AcDbLine
 10
157.4071615193
 20
158.7626388255
 30
0.0
 11
157.4071615193
 21
158.3079485182
 31
0.0
  0
LWPOLYLINE
  5
436
330
1F
100
AcDbEntity
  8
0
  6
Continuous
 62
     7
370
    25
100
AcDbPolyline
 90
        9
 70
   128
 43
0.0
 10
157.4071615193
 20
158.3079485182
 10
157.3975532505
 20
158.348523635
 10
157.3691009734
 20
158.3875393454
 10
157.3228954527
 20
158.4234965924
 10
157.2607143972
 20
158.4550132934
 10
157.1849464629
 20
158.480878729
 10
157.0985018465
 20
158.5000982467
 10
157.0047064874
 20
158.511933494
 10
156.907160506
 20
158.5159299854
  0
LINE
  5
437
330
1F
100
AcDbEntity
  8
0
  6
Continuous
 62
     7
370
    25
100
AcDbLine
 10
156.907160506
 20
158.9706202928
 30
0.0
 11
156.907160506
 21
158.5159299854
 31
0.0
  0
LINE
  5
438
330
1F
100
AcDbEntity
  8
0
  6
Continuous
 62
     7
370
    25
100
AcDbLine
 10
156.907160506
 20
158.5159299854
 30
0.0
 11
149.1071610901
 21
158.5159299854
 31
0.0
  0
LINE
  5
439
330
1F
100
AcDbEntity
  8
0
  6
Continuous
 62
     7
370
    25
100
AcDbLine
 10
157.4071615193
 20
154.5193536166
 30
0.0
 11
157.4071615193
 21
158.3079485182
 31
0.0
  0
LWPOLYLINE
  5
43A
330
1F
100
AcDbEntity
  8
0
  6
Continuous
 62
     7
370
    25
100
AcDbPolyline
 90
        9
 70
   128
 43
0.0
 10
156.907160506
 20
154.3113721493
 10
157.0047064874
 20
154.3153686408
 10
157.0985018465
 20
154.327203143
 10
157.1849464629
 20
154.3464226607
 10
157.2607143972
 20
154.3722880963
 10
157.3228954527
 20
154.4038055424
 10
157.3691009734
 20
154.4397620443
 10
157.3975532505
 20
154.4787792448
 10
157.4071615193
 20
154.5193536166
  0
LINE
  5
43B
330
1F
100
AcDbEntity
  8
0
  6
Continuous
 62
     7
370
    25
100
AcDbLine
 10
149.1071610901
 20
154.3113721493
 30
0.0
 11
149.5071611557
 21
154.3113721493
 31
0.0
  0
LINE
  5
43C
330
1F
100
AcDbEntity
  8
0
  6
Continuous
 62
     7
370
    25
100
AcDbLine
 10
156.5071611855
 20
154.3113721493
 30
0.0
 11
156.907160506
 21
154.3113721493
 31
0.0
  0
LWPOLYLINE
  5
43D
330
1F
100
AcDbEntity
  8
0
  6
Continuous
 62
     7
370
    25
100
AcDbPolyline
 90
        9
 70
   128
 43
0.0
 10
148.6071608219
 20
154.5193536166
 10
148.6167683456
 20
154.4787792448
 10
148.6452213678
 20
154.4397620443
 10
148.6914261434
 20
154.4038055424
 10
148.7536071989
 20
154.3722880963
 10
148.8293758783
 20
154.3464226607
 10
148.9158190045
 20
154.327203143
 10
149.0096158538
 20
154.3153686408
 10
149.1071610901
 20
154.3113721493
  0
LINE
  5
43E
330
1F
100
AcDbEntity
  8
0
  6
Continuous
 62
     7
370
    25
100
AcDbLine
 10
148.6071608219
 20
154.5193536166
 30
0.0
 11
148.6071608219
 21
158.3079485182
 31
0.0
  0
LWPOLYLINE
  5
43F
330
1F
100
AcDbEntity
  8
0
  6
Continuous
 62
     7
370
    25
100
AcDbPolyline
 90
        9
 70
   128
 43
0.0
 10
149.1071610901
 20
158.5159299854
 10
149.0096158538
 20
158.511933494
 10
148.9158190045
 20
158.5000982467
 10
148.8293758783
 20
158.480878729
 10
148.7536071989
 20
158.4550132934
 10
148.6914261434
 20
158.4234965924
 10
148.6452213678
 20
158.3875393454
 10
148.6167683456
 20
158.348523635
 10
148.6071608219
 20
158.3079485182
  0
LINE
  5
440
330
1F
100
AcDbEntity
  8
0
  6
Continuous
 62
     7
370
    25
100
AcDbLine
 10
150.4107139263
 20
158.0583145801
 30
0.0
 11
149.6536075327
 21
157.7120033983
 31
0.0
  0
ELLIPSE
  5
441
330
1F
100
AcDbEntity
  8
0
  6
Continuous
 62
     7
370
    25
100
AcDbEllipse
 10
150.007160804
 20
157.5502833012
 30
0.0
 11
0.5
 21
0.0
 31
0.0
210
0.0
220
0.0
230
1.0
 40
0.4574135786
 41
2.356194488449886
 42
3.141592653589793
  0
ARC
  5
442
330
1F
100
AcDbEntity
  8
0
  6
Continuous
 62
     7
370
    25
100
AcDbCircle
 10
156.3033958823
 20
157.5129302391
 30
0.0
 40
0.2071605575229532
100
AcDbArc
 50
10.3875995164
 51
73.9375565145
  0
LINE
  5
443
330
1F
100
AcDbEntity
  8
0
  6
Continuous
 62
     7
370
    25
100
AcDbLine
 10
156.3607140634
 20
157.7120033983
 30
0.0
 11
155.6036069248
 21
158.0583145801
 31
0.0
  0
ELLIPSE
  5
444
330
1F
100
AcDbEntity
  8
0
  6
Continuous
 62
     7
370
    25
100
AcDbEllipse
 10
155.2500540228
 20
157.8965942234
 30
0.0
 11
0.5
 21
0.0
 31
0.0
210
0.0
220
0.0
230
1.0
 40
0.4574135786
 41
0.7853981623182658
 42
1.570796326794897
  0
LINE
  5
445
330
1F
100
AcDbEntity
  8
0
  6
Continuous
 62
     7
370
    25
100
AcDbLine
 10
155.2500545237
 20
158.1253012601
 30
0.0
 11
150.7642678175
 21
158.1253012601
 31
0.0
  0
ELLIPSE
  5
446
330
1F
100
AcDbEntity
  8
0
  6
Continuous
 62
     7
370
    25
100
AcDbEllipse
 10
150.7642675852
 20
157.8965942234
 30
0.0
 11
0.5
 21
0.0
 31
0.0
210
0.0
220
0.0
230
1.0
 40
0.4574135786
 41
1.570796326884709
 42
2.356194493780989
  0
LWPOLYLINE
  5
447
330
1F
100
AcDbEntity
  8
0
  6
Continuous
 62
     7
370
    25
100
AcDbPolyline
 90
        9
 70
   128
 43
0.0
 10
149.1071610901
 20
158.9706202928
 10
149.0096158538
 20
158.9666245464
 10
148.9158190045
 20
158.9547892991
 10
148.8293758783
 20
158.9355697814
 10
148.7536071989
 20
158.9097043458
 10
148.6914261434
 20
158.8781876448
 10
148.6452213678
 20
158.8422303978
 10
148.6167683456
 20
158.8032139424
 10
148.6071608219
 20
158.7626388255
  0
LINE
  5
448
330
1F
100
AcDbEntity
  8
0
  6
Continuous
 62
     7
370
    25
100
AcDbLine
 10
149.1071610901
 20
158.9706202928
 30
0.0
 11
149.1071610901
 21
158.5159299854
 31
0.0
  0
LINE
  5
449
330
1F
100
AcDbEntity
  8
0
  6
Continuous
 62
     7
370
    25
100
AcDbLine
 10
148.6071608219
 20
158.3079485182
 30
0.0
 11
148.6071608219
 21
158.7626388255
 31
0.0
  0
LINE
  5
44A
330
1F
100
AcDbEntity
  8
0
  6
Continuous
 62
     7
370
    25
100
AcDbLine
 10
156.907160506
 20
158.9706202928
 30
0.0
 11
149.1071610901
 21
158.9706202928
 31
0.0
  0
SPLINE
  5
44B
330
1F
100
AcDbEntity
  8
0
  6
Continuous
 62
     7
370
    25
100
AcDbSpline
210
0.0
220
0.0
230
1.0
 70
    24
 71
     3
 72
     9
 73
     5
 74
     0
 42
0.000000001
 43
0.00000001
 40
0.0
 40
0.0
 40
0.0
 40
0.0
 40
0.5000019335785434
 40
1.0
 40
1.0
 40
1.0
 40
1.0
 10
155.2500545236933
 20
153.9683414582031
 30
0.0
 10
155.2765378227131
 20
153.9683414582031
 30
0.0
 10
155.3295042159235
 20
153.9683414582031
 30
0.0
 10
155.3708184479771
 20
153.9683414582031
 30
0.0
 10
155.3914754841196
 20
153.9683414582031
 30
0.0
  0
LINE
  5
44C
330
1F
100
AcDbEntity
  8
0
  6
Continuous
 62
     7
370
    25
100
AcDbLine
 10
155.2500545237
 20
154.2683420662
 30
0.0
 11
155.2500545237
 21
153.9683414582
 31
0.0
  0
LINE
  5
44D
330
1F
100
AcDbEntity
  8
0
  6
Continuous
 62
     7
370
    25
100
AcDbLine
 10
155.6036069248
 20
154.2683420662
 30
0.0
 11
155.2500545237
 21
154.2683420662
 31
0.0
  0
ARC
  5
44E
330
1F
100
AcDbEntity
  8
0
  6
Continuous
 62
     7
370
    25
100
AcDbCircle
 10
155.3384438153
 20
154.2308400621
 30
0.0
 40
0.2678019322628242
100
AcDbArc
 50
281.4215318434
 51
8.0499494522
  0
SPLINE
  5
44F
330
1F
100
AcDbEntity
  8
0
  6
Continuous
 62
     7
370
    25
100
AcDbSpline
210
0.0
220
0.0
230
1.0
 70
    24
 71
     3
 72
     9
 73
     5
 74
     0
 42
0.000000001
 43
0.00000001
 40
0.0
 40
0.0
 40
0.0
 40
0.0
 40
0.5000000510589578
 40
1.0
 40
1.0
 40
1.0
 40
1.0
 10
150.6228461119997
 20
153.9683414582031
 30
0.0
 10
150.6435034040964
 20
153.9683414582031
 30
0.0
 10
150.6848179840709
 20
153.9683414582031
 30
0.0
 10
150.7377845414826
 20
153.9683414582031
 30
0.0
 10
150.7642678174841
 20
153.9683414582031
 30
0.0
  0
ARC
  5
450
330
1F
100
AcDbEntity
  8
0
  6
Continuous
 62
     7
370
    25
100
AcDbCircle
 10
150.6758791648
 20
154.2308416992
 30
0.0
 40
0.2678038110518273
100
AcDbArc
 50
171.9504611452
 51
258.5782472867
  0
LINE
  5
451
330
1F
100
AcDbEntity
  8
0
  6
Continuous
 62
     7
370
    25
100
AcDbLine
 10
150.7642678175
 20
154.2683420662
 30
0.0
 11
150.4107139263
 21
154.2683420662
 31
0.0
  0
LINE
  5
452
330
1F
100
AcDbEntity
  8
0
  6
Continuous
 62
     7
370
    25
100
AcDbLine
 10
150.7642678175
 20
153.9683414582
 30
0.0
 11
150.7642678175
 21
154.2683420662
 31
0.0
  0
LINE
  5
453
330
1F
100
AcDbEntity
  8
0
  6
Continuous
 62
     7
370
    25
100
AcDbLine
 10
150.4107139263
 20
158.0583145801
 30
0.0
 11
150.4107139263
 21
154.2683420662
 31
0.0
  0
LINE
  5
454
330
1F
100
AcDbEntity
  8
0
  6
Continuous
 62
     7
370
    25
100
AcDbLine
 10
150.7642678175
 20
158.1253012601
 30
0.0
 11
150.7642678175
 21
154.2683420662
 31
0.0
  0
LINE
  5
455
330
1F
100
AcDbEntity
  8
0
  6
Continuous
 62
     7
370
    25
100
AcDbLine
 10
155.2500545237
 20
158.1253012601
 30
0.0
 11
155.2500545237
 21
154.2683420662
 31
0.0
  0
LINE
  5
456
330
1F
100
AcDbEntity
  8
0
  6
Continuous
 62
     7
370
    25
100
AcDbLine
 10
155.2500545237
 20
154.2683420662
 30
0.0
 11
150.7642678175
 21
154.2683420662
 31
0.0
  0
LINE
  5
457
330
1F
100
AcDbEntity
  8
0
  6
Continuous
 62
     7
370
    25
100
AcDbLine
 10
155.2500545237
 20
153.9683414582
 30
0.0
 11
150.7642678175
 21
153.9683414582
 31
0.0
  0
LINE
  5
458
330
1F
100
AcDbEntity
  8
0
  6
Continuous
 62
     7
370
    25
100
AcDbLine
 10
155.6036069248
 20
158.0583145801
 30
0.0
 11
155.6036069248
 21
154.2683420662
 31
0.0
  0
LINE
  5
459
330
1F
100
AcDbEntity
  8
0
  6
Continuous
 62
     7
370
    25
100
AcDbLine
 10
150.7642678175
 20
159.0683413628
 30
0.0
 11
150.4107139263
 21
159.0683413628
 31
0.0
  0
LINE
  5
45A
330
1F
100
AcDbEntity
  8
0
  6
Continuous
 62
     7
370
    25
100
AcDbLine
 10
155.2500545237
 20
159.0683413628
 30
0.0
 11
150.7642678175
 21
159.0683413628
 31
0.0
  0
LINE
  5
45B
330
1F
100
AcDbEntity
  8
0
  6
Continuous
 62
     7
370
    25
100
AcDbLine
 10
155.6036069248
 20
159.0683413628
 30
0.0
 11
155.2500545237
 21
159.0683413628
 31
0.0
  0
LINE
  5
45C
330
1F
100
AcDbEntity
  8
0
  6
Continuous
 62
     7
370
    25
100
AcDbLine
 10
156.3607140634
 20
157.7120033983
 30
0.0
 11
156.3607140634
 21
154.2683420662
 31
0.0
  0
LINE
  5
45D
330
1F
100
AcDbEntity
  8
0
  6
Continuous
 62
     7
370
    25
100
AcDbLine
 10
156.3607140634
 20
154.2683420662
 30
0.0
 11
155.6036069248
 21
154.2683420662
 31
0.0
  0
ARC
  5
45E
330
1F
100
AcDbEntity
  8
0
  6
Continuous
 62
     7
370
    25
100
AcDbCircle
 10
156.0955501481
 20
154.2308406319
 30
0.0
 40
0.267802650402818
100
AcDbArc
 50
281.4216767024
 51
8.0498045932
  0
LINE
  5
45F
330
1F
100
AcDbEntity
  8
0
  6
Continuous
 62
     7
370
    25
100
AcDbLine
 10
156.1485826228
 20
153.9683414582
 30
0.0
 11
155.3914754841
 21
153.9683414582
 31
0.0
  0
LINE
  5
460
330
1F
100
AcDbEntity
  8
0
  6
Continuous
 62
     7
370
    25
100
AcDbLine
 10
149.6536075327
 20
154.2683420662
 30
0.0
 11
149.6536075327
 21
157.7120033983
 31
0.0
  0
LINE
  5
461
330
1F
100
AcDbEntity
  8
0
  6
Continuous
 62
     7
370
    25
100
AcDbLine
 10
150.4107139263
 20
154.2683420662
 30
0.0
 11
149.6536075327
 21
154.2683420662
 31
0.0
  0
ARC
  5
462
330
1F
100
AcDbEntity
  8
0
  6
Continuous
 62
     7
370
    25
100
AcDbCircle
 10
149.9187717944
 20
154.2308410085
 30
0.0
 40
0.2678029406012659
100
AcDbArc
 50
171.9502855646
 51
258.5784228672
  0
LINE
  5
463
330
1F
100
AcDbEntity
  8
0
  6
Continuous
 62
     7
370
    25
100
AcDbLine
 10
150.622846112
 20
153.9683414582
 30
0.0
 11
149.8657397184
 21
153.9683414582
 31
0.0
  0
LINE
  5
464
330
1F
100
AcDbEntity
  8
0
  6
Continuous
 62
     7
370
    25
100
AcDbLine
 10
155.6036069248
 20
159.0683413628
 30
0.0
 11
156.3607140634
 21
159.0683413628
 31
0.0
  0
LINE
  5
465
330
1F
100
AcDbEntity
  8
0
  6
Continuous
 62
     7
370
    25
100
AcDbLine
 10
150.4107139263
 20
159.0683413628
 30
0.0
 11
149.6536075327
 21
159.0683413628
 31
0.0
  0
LINE
  5
466
330
1F
100
AcDbEntity
  8
0
  6
Continuous
 62
     7
370
    25
100
AcDbLine
 10
149.6536075327
 20
154.2683420662
 30
0.0
 11
149.5071611557
 21
154.2683420662
 31
0.0
  0
ARC
  5
467
330
1F
100
AcDbEntity
  8
0
  6
Continuous
 62
     7
370
    25
100
AcDbCircle
 10
149.807160804
 20
154.2683417085
 30
0.0
 40
0.3000000000000114
100
AcDbArc
 50
180.0
 51
269.9999999897
  0
SPLINE
  5
468
330
1F
100
AcDbEntity
  8
0
  6
Continuous
 62
     7
370
    25
100
AcDbSpline
210
0.0
220
0.0
230
1.0
 70
    24
 71
     3
 72
     9
 73
     5
 74
     0
 42
0.000000001
 43
0.00000001
 40
0.0
 40
0.0
 40
0.0
 40
0.0
 40
0.499998963965355
 40
1.0
 40
1.0
 40
1.0
 40
1.0
 10
149.8071610185968
 20
153.9683414582031
 30
0.0
 10
149.8098913657745
 20
153.9683414582031
 30
0.0
 10
149.815352071445
 20
153.9683414582031
 30
0.0
 10
149.8489438128962
 20
153.9683414582031
 30
0.0
 10
149.865739718424
 20
153.9683414582031
 30
0.0
  0
LINE
  5
469
330
1F
100
AcDbEntity
  8
0
  6
Continuous
 62
     7
370
    25
100
AcDbLine
 10
156.5071611855
 20
154.2683420662
 30
0.0
 11
156.3607140634
 21
154.2683420662
 31
0.0
  0
ARC
  5
46A
330
1F
100
AcDbEntity
  8
0
  6
Continuous
 62
     7
370
    25
100
AcDbCircle
 10
156.207160804
 20
154.2683417085
 30
0.0
 40
0.3000000000000114
100
AcDbArc
 50
269.9999999995
 51
360.0
  0
SPLINE
  5
46B
330
1F
100
AcDbEntity
  8
0
  6
Continuous
 62
     7
370
    25
100
AcDbSpline
210
0.0
220
0.0
230
1.0
 70
    24
 71
     3
 72
     9
 73
     5
 74
     0
 42
0.000000001
 43
0.00000001
 40
0.0
 40
0.0
 40
0.0
 40
0.0
 40
0.4999979181986273
 40
1.0
 40
1.0
 40
1.0
 40
1.0
 10
156.1485826227533
 20
153.9683414582031
 30
0.0
 10
156.1653778465162
 20
153.9683414582031
 30
0.0
 10
156.1989684338997
 20
153.9683414582031
 30
0.0
 10
156.2044298554018
 20
153.9683414582031
 30
0.0
 10
156.2071605775224
 20
153.9683414582031
 30
0.0
  0
LINE
  5
46C
330
1F
100
AcDbEntity
  8
0
  6
Continuous
 62
     7
370
    25
100
AcDbLine
 10
156.5071611855
 20
157.550282586
 30
0.0
 11
156.5071611855
 21
154.2683420662
 31
0.0
  0
LINE
  5
46D
330
1F
100
AcDbEntity
  8
0
  6
Continuous
 62
     7
370
    25
100
AcDbLine
 10
149.5071611557
 20
157.550282586
 30
0.0
 11
149.5071611557
 21
154.2683420662
 31
0.0
  0
LINE
  5
46E
330
1F
100
AcDbEntity
  8
0
  6
Continuous
 62
     7
370
    25
100
AcDbLine
 10
149.5071611557
 20
159.0683413628
 30
0.0
 11
149.5071611557
 21
158.9706202928
 31
0.0
  0
LINE
  5
46F
330
1F
100
AcDbEntity
  8
0
  6
Continuous
 62
     7
370
    25
100
AcDbLine
 10
149.6536075327
 20
159.0683413628
 30
0.0
 11
149.5071611557
 21
159.0683413628
 31
0.0
  0
LINE
  5
470
330
1F
100
AcDbEntity
  8
0
  6
Continuous
 62
     7
370
    25
100
AcDbLine
 10
156.5071611855
 20
159.0683413628
 30
0.0
 11
156.5071611855
 21
158.9706202928
 31
0.0
  0
LINE
  5
471
330
1F
100
AcDbEntity
  8
0
  6
Continuous
 62
     7
370
    25
100
AcDbLine
 10
156.5071611855
 20
159.0683413628
 30
0.0
 11
156.3607140634
 21
159.0683413628
 31
0.0
  0
LINE
  5
472
330
1F
100
AcDbEntity
  8
0
  6
Continuous
 62
     7
370
    25
100
AcDbLine
 10
129.3071604524
 20
165.2740837965
 30
0.0
 11
133.9071608338
 21
165.2740837965
 31
0.0
  0
LINE
  5
473
330
1F
100
AcDbEntity
  8
0
  6
Continuous
 62
     7
370
    25
100
AcDbLine
 10
129.3071604524
 20
165.9990644041
 30
0.0
 11
133.9071608338
 21
165.9990644041
 31
0.0
  0
LINE
  5
474
330
1F
100
AcDbEntity
  8
0
  6
Continuous
 62
     7
370
    25
100
AcDbLine
 10
133.9071608338
 20
165.2740837965
 30
0.0
 11
133.9071608338
 21
165.9990644041
 31
0.0
  0
LINE
  5
475
330
1F
100
AcDbEntity
  8
0
  6
Continuous
 62
     7
370
    25
100
AcDbLine
 10
129.3071604524
 20
165.2740837965
 30
0.0
 11
129.3071604524
 21
165.9990644041
 31
0.0
  0
LINE
  5
476
330
1F
100
AcDbEntity
  8
0
  6
Continuous
 62
     7
370
    25
100
AcDbLine
 10
129.3071604524
 20
164.7433610592
 30
0.0
 11
133.9071608338
 21
164.7433610592
 31
0.0
  0
LINE
  5
477
330
1F
100
AcDbEntity
  8
0
  6
Continuous
 62
     7
370
    25
100
AcDbLine
 10
133.9071608338
 20
164.7433610592
 30
0.0
 11
133.9071608338
 21
165.2740837965
 31
0.0
  0
LINE
  5
478
330
1F
100
AcDbEntity
  8
0
  6
Continuous
 62
     7
370
    25
100
AcDbLine
 10
129.3071604524
 20
164.7433610592
 30
0.0
 11
129.3071604524
 21
165.2740837965
 31
0.0
  0
LINE
  5
479
330
1F
100
AcDbEntity
  8
0
  6
Continuous
 62
     7
370
    25
100
AcDbLine
 10
129.3071604524
 20
166.4441900287
 30
0.0
 11
133.9071608338
 21
166.4441900287
 31
0.0
  0
LINE
  5
47A
330
1F
100
AcDbEntity
  8
0
  6
Continuous
 62
     7
370
    25
100
AcDbLine
 10
133.9071608338
 20
165.9990644041
 30
0.0
 11
133.9071608338
 21
166.4441900287
 31
0.0
  0
LINE
  5
47B
330
1F
100
AcDbEntity
  8
0
  6
Continuous
 62
     7
370
    25
100
AcDbLine
 10
129.3071604524
 20
165.9990644041
 30
0.0
 11
129.3071604524
 21
166.4441900287
 31
0.0
  0
LINE
  5
47C
330
1F
100
AcDbEntity
  8
0
  6
Continuous
 62
     7
370
    25
100
AcDbLine
 10
125.3571613881
 20
165.7581193331
 30
0.0
 11
129.3071604524
 21
165.7581193331
 31
0.0
  0
LINE
  5
47D
330
1F
100
AcDbEntity
  8
0
  6
Continuous
 62
     7
370
    25
100
AcDbLine
 10
125.3571613881
 20
165.1683418039
 30
0.0
 11
125.3571613881
 21
165.7581193331
 31
0.0
  0
LINE
  5
47E
330
1F
100
AcDbEntity
  8
0
  6
Continuous
 62
     7
370
    25
100
AcDbLine
 10
133.9071608338
 20
165.7581193331
 30
0.0
 11
137.8571608294
 21
165.7581193331
 31
0.0
  0
LINE
  5
47F
330
1F
100
AcDbEntity
  8
0
  6
Continuous
 62
     7
370
    25
100
AcDbLine
 10
137.8571608294
 20
165.1683418039
 30
0.0
 11
137.8571608294
 21
165.7581193331
 31
0.0
  0
LINE
  5
480
330
1F
100
AcDbEntity
  8
0
  6
Continuous
 62
     7
370
    25
100
AcDbLine
 10
133.9071608338
 20
166.1036321852
 30
0.0
 11
136.707160734
 21
166.1036321852
 31
0.0
  0
LINE
  5
481
330
1F
100
AcDbEntity
  8
0
  6
Continuous
 62
     7
370
    25
100
AcDbLine
 10
137.8571608294
 20
166.3133775774
 30
0.0
 11
136.707160734
 21
166.2977764342
 31
0.0
  0
LINE
  5
482
330
1F
100
AcDbEntity
  8
0
  6
Continuous
 62
     7
370
    25
100
AcDbLine
 10
137.8571608294
 20
165.7581193331
 30
0.0
 11
137.8571608294
 21
166.3133775774
 31
0.0
  0
LINE
  5
483
330
1F
100
AcDbEntity
  8
0
  6
Continuous
 62
     7
370
    25
100
AcDbLine
 10
128.8071609292
 20
166.1036321852
 30
0.0
 11
126.4671608064
 21
166.135376874
 31
0.0
  0
LINE
  5
484
330
1F
100
AcDbEntity
  8
0
  6
Continuous
 62
     7
370
    25
100
AcDbLine
 10
128.8071609292
 20
166.1036321852
 30
0.0
 11
129.3071604524
 21
166.1036321852
 31
0.0
  0
LINE
  5
485
330
1F
100
AcDbEntity
  8
0
  6
Continuous
 62
     7
370
    25
100
AcDbLine
 10
126.4671608064
 20
166.1942323629
 30
0.0
 11
125.3571613881
 21
166.2092911038
 31
0.0
  0
LINE
  5
486
330
1F
100
AcDbEntity
  8
0
  6
Continuous
 62
     7
370
    25
100
AcDbLine
 10
125.3571613881
 20
165.7581193331
 30
0.0
 11
125.3571613881
 21
166.2092911038
 31
0.0
  0
LINE
  5
487
330
1F
100
AcDbEntity
  8
0
  6
Continuous
 62
     7
370
    25
100
AcDbLine
 10
126.4671608064
 20
166.135376874
 30
0.0
 11
126.4671608064
 21
187.3457072262
 31
0.0
  0
LINE
  5
488
330
1F
100
AcDbEntity
  8
0
  6
Continuous
 62
     7
370
    25
100
AcDbLine
 10
128.8071609292
 20
166.1036321852
 30
0.0
 11
128.8071609292
 21
187.4683422927
 31
0.0
  0
LINE
  5
489
330
1F
100
AcDbEntity
  8
0
  6
Continuous
 62
     7
370
    25
100
AcDbLine
 10
136.707160734
 20
166.1036321852
 30
0.0
 11
136.707160734
 21
187.4683422927
 31
0.0
  0
LINE
  5
48A
330
1F
100
AcDbEntity
  8
0
  6
Continuous
 62
     7
370
    25
100
AcDbLine
 10
126.4671608064
 20
158.712392855
 30
0.0
 11
123.9671602104
 21
158.8050788227
 31
0.0
  0
LINE
  5
48B
330
1F
100
AcDbEntity
  8
0
  6
Continuous
 62
     7
370
    25
100
AcDbLine
 10
123.9671602104
 20
158.8050788227
 30
0.0
 11
123.9671602104
 21
186.9873223785
 31
0.0
  0
LINE
  5
48C
330
1F
100
AcDbEntity
  8
0
  6
Continuous
 62
     7
370
    25
100
AcDbLine
 10
128.8071609292
 20
158.4647981409
 30
0.0
 11
128.8071609292
 21
165.1683418039
 31
0.0
  0
LINE
  5
48D
330
1F
100
AcDbEntity
  8
0
  6
Continuous
 62
     7
370
    25
100
AcDbLine
 10
128.8071609292
 20
158.4647981409
 30
0.0
 11
126.4671608064
 21
158.5515504662
 31
0.0
  0
LINE
  5
48E
330
1F
100
AcDbEntity
  8
0
  6
Continuous
 62
     7
370
    25
100
AcDbLine
 10
126.4671608064
 20
158.5515504662
 30
0.0
 11
126.4671608064
 21
165.1683418039
 31
0.0
  0
LINE
  5
48F
330
1F
100
AcDbEntity
  8
0
  6
Continuous
 62
     7
370
    25
100
AcDbLine
 10
128.8071609292
 20
158.4647981409
 30
0.0
 11
136.707160734
 21
158.4647981409
 31
0.0
  0
LINE
  5
490
330
1F
100
AcDbEntity
  8
0
  6
Continuous
 62
     7
370
    25
100
AcDbLine
 10
136.707160734
 20
158.4647981409
 30
0.0
 11
136.707160734
 21
165.1683418039
 31
0.0
  0
LINE
  5
491
330
1F
100
AcDbEntity
  8
0
  6
Continuous
 62
     7
370
    25
100
AcDbLine
 10
139.407160804
 20
186.5768400911
 30
0.0
 11
139.407160804
 21
170.5805916065
 31
0.0
  0
LINE
  5
492
330
1F
100
AcDbEntity
  8
0
  6
Continuous
 62
     7
370
    25
100
AcDbLine
 10
139.407160804
 20
169.9560918106
 30
0.0
 11
139.407160804
 21
159.0954659466
 31
0.0
  0
LINE
  5
493
330
1F
100
AcDbEntity
  8
0
  6
Continuous
 62
     7
370
    25
100
AcDbLine
 10
139.407160804
 20
159.0954659466
 30
0.0
 11
136.707160734
 21
158.9953629259
 31
0.0
  0
LINE
  5
494
330
1F
100
AcDbEntity
  8
0
  6
Continuous
 62
     7
370
    25
100
AcDbLine
 10
123.1671600792
 20
155.6683419231
 30
0.0
 11
123.1671600792
 21
184.868341494
 31
0.0
  0
LINE
  5
495
330
1F
100
AcDbEntity
  8
0
  6
Continuous
 62
     7
370
    25
100
AcDbLine
 10
118.307161257
 20
156.5956054214
 30
0.0
 11
118.307161257
 21
183.9410779957
 31
0.0
  0
LINE
  5
496
330
1F
100
AcDbEntity
  8
0
  6
Continuous
 62
     7
370
    25
100
AcDbLine
 10
132.3071605716
 20
156.058426011
 30
0.0
 11
132.3071605716
 21
157.4372841004
 31
0.0
  0
LINE
  5
497
330
1F
100
AcDbEntity
  8
0
  6
Continuous
 62
     7
370
    25
100
AcDbLine
 10
132.3071605716
 20
156.058426011
 30
0.0
 11
131.6071606431
 21
156.3442004803
 31
0.0
  0
LINE
  5
498
330
1F
100
AcDbEntity
  8
0
  6
Continuous
 62
     7
370
    25
100
AcDbLine
 10
131.6071606431
 20
156.3442004803
 30
0.0
 11
131.6071606431
 21
157.7230585698
 31
0.0
  0
LINE
  5
499
330
1F
100
AcDbEntity
  8
0
  6
Continuous
 62
     7
370
    25
100
AcDbLine
 10
132.3071605716
 20
157.4372841004
 30
0.0
 11
131.6071606431
 21
157.7230585698
 31
0.0
  0
LINE
  5
49A
330
1F
100
AcDbEntity
  8
0
  6
Continuous
 62
     7
370
    25
100
AcDbLine
 10
131.6071606431
 20
156.3442004803
 30
0.0
 11
130.9071607146
 21
156.058426011
 31
0.0
  0
LINE
  5
49B
330
1F
100
AcDbEntity
  8
0
  6
Continuous
 62
     7
370
    25
100
AcDbLine
 10
130.9071607146
 20
156.058426011
 30
0.0
 11
130.9071607146
 21
157.4372841004
 31
0.0
  0
LINE
  5
49C
330
1F
100
AcDbEntity
  8
0
  6
Continuous
 62
     7
370
    25
100
AcDbLine
 10
131.6071606431
 20
157.7230585698
 30
0.0
 11
130.9071607146
 21
157.4372841004
 31
0.0
  0
LINE
  5
49D
330
1F
100
AcDbEntity
  8
0
  6
Continuous
 62
     7
370
    25
100
AcDbLine
 10
130.9071607146
 20
156.058426011
 30
0.0
 11
130.9071607146
 21
155.4868785623
 31
0.0
  0
LINE
  5
49E
330
1F
100
AcDbEntity
  8
0
  6
Continuous
 62
     7
370
    25
100
AcDbLine
 10
132.3071605716
 20
155.4868785623
 30
0.0
 11
132.3071605716
 21
156.058426011
 31
0.0
  0
LINE
  5
49F
330
1F
100
AcDbEntity
  8
0
  6
Continuous
 62
     7
370
    25
100
AcDbLine
 10
131.6071606431
 20
155.2011055831
 30
0.0
 11
132.3071605716
 21
155.4868785623
 31
0.0
  0
LINE
  5
4A0
330
1F
100
AcDbEntity
  8
0
  6
Continuous
 62
     7
370
    25
100
AcDbLine
 10
130.9071607146
 20
155.4868785623
 30
0.0
 11
131.6071606431
 21
155.2011055831
 31
0.0
  0
LINE
  5
4A1
330
1F
100
AcDbEntity
  8
0
  6
Continuous
 62
     7
370
    25
100
AcDbLine
 10
123.9671602104
 20
158.2121713046
 30
0.0
 11
139.407160804
 21
158.2121713046
 31
0.0
  0
LINE
  5
4A2
330
1F
100
AcDbEntity
  8
0
  6
Continuous
 62
     7
370
    25
100
AcDbLine
 10
139.407160804
 20
158.2121713046
 30
0.0
 11
139.407160804
 21
159.0954659466
 31
0.0
  0
LINE
  5
4A3
330
1F
100
AcDbEntity
  8
0
  6
Continuous
 62
     7
370
    25
100
AcDbLine
 10
123.9671602104
 20
158.2121713046
 30
0.0
 11
123.9671602104
 21
158.8050788227
 31
0.0
  0
LINE
  5
4A4
330
1F
100
AcDbEntity
  8
0
  6
Continuous
 62
     7
370
    25
100
AcDbLine
 10
123.9671602104
 20
156.0908509377
 30
0.0
 11
130.9071607146
 21
156.0908509377
 31
0.0
  0
LINE
  5
4A5
330
1F
100
AcDbEntity
  8
0
  6
Continuous
 62
     7
370
    25
100
AcDbLine
 10
132.3071605716
 20
156.0908509377
 30
0.0
 11
139.407160804
 21
156.0908509377
 31
0.0
  0
LINE
  5
4A6
330
1F
100
AcDbEntity
  8
0
  6
Continuous
 62
     7
370
    25
100
AcDbLine
 10
139.407160804
 20
156.0908509377
 30
0.0
 11
139.407160804
 21
158.2121713046
 31
0.0
  0
LINE
  5
4A7
330
1F
100
AcDbEntity
  8
0
  6
Continuous
 62
     7
370
    25
100
AcDbLine
 10
123.9671602104
 20
156.0908509377
 30
0.0
 11
123.9671602104
 21
158.2121713046
 31
0.0
  0
LINE
  5
4A8
330
1F
100
AcDbEntity
  8
0
  6
Continuous
 62
     7
370
    25
100
AcDbLine
 10
128.8071609292
 20
155.489979494
 30
0.0
 11
130.9071607146
 21
155.489979494
 31
0.0
  0
LINE
  5
4A9
330
1F
100
AcDbEntity
  8
0
  6
Continuous
 62
     7
370
    25
100
AcDbLine
 10
132.3071605716
 20
155.489979494
 30
0.0
 11
134.4071607295
 21
155.489979494
 31
0.0
  0
LINE
  5
4AA
330
1F
100
AcDbEntity
  8
0
  6
Continuous
 62
     7
370
    25
100
AcDbLine
 10
128.8071609292
 20
155.489979494
 30
0.0
 11
128.8071609292
 21
156.0908509377
 31
0.0
  0
LINE
  5
4AB
330
1F
100
AcDbEntity
  8
0
  6
Continuous
 62
     7
370
    25
100
AcDbLine
 10
136.707160734
 20
153.0683411244
 30
0.0
 11
136.707160734
 21
156.0908509377
 31
0.0
  0
LWPOLYLINE
  5
4AC
330
1F
100
AcDbEntity
  8
0
  6
Continuous
 62
     7
370
    25
100
AcDbPolyline
 90
        3
 70
   128
 43
0.0
 10
128.8071609292
 20
155.489979494
 10
128.6510794613
 20
155.4994998459
 10
128.3571607623
 20
155.5174333934
  0
LINE
  5
4AD
330
1F
100
AcDbEntity
  8
0
  6
Continuous
 62
     7
370
    25
100
AcDbLine
 10
126.4671608064
 20
153.1909761909
 30
0.0
 11
126.4671608064
 21
156.0908509377
 31
0.0
  0
LINE
  5
4AE
330
1F
100
AcDbEntity
  8
0
  6
Continuous
 62
     7
370
    25
100
AcDbLine
 10
123.9671602104
 20
153.5493610386
 30
0.0
 11
123.9671602104
 21
156.0908509377
 31
0.0
  0
LINE
  5
4AF
330
1F
100
AcDbEntity
  8
0
  6
Continuous
 62
     7
370
    25
100
AcDbLine
 10
139.407160804
 20
156.0908509377
 30
0.0
 11
139.407160804
 21
153.959843326
 31
0.0
  0
LINE
  5
4B0
330
1F
100
AcDbEntity
  8
0
  6
Continuous
 62
     7
370
    25
100
AcDbLine
 10
128.3571607623
 20
152.2683409933
 30
0.0
 11
134.4071607295
 21
152.2683409933
 31
0.0
  0
LINE
  5
4B1
330
1F
100
AcDbEntity
  8
0
  6
Continuous
 62
     7
370
    25
100
AcDbLine
 10
134.4071607295
 20
152.2683409933
 30
0.0
 11
134.4071607295
 21
155.489979494
 31
0.0
  0
LINE
  5
4B2
330
1F
100
AcDbEntity
  8
0
  6
Continuous
 62
     7
370
    25
100
AcDbLine
 10
128.3571607623
 20
152.2683409933
 30
0.0
 11
128.3571607623
 21
155.5174333934
 31
0.0
  0
LINE
  5
4B3
330
1F
100
AcDbEntity
  8
0
  6
Continuous
 62
     7
370
    25
100
AcDbLine
 10
134.3571606282
 20
151.6683412675
 30
0.0
 11
128.8571610305
 21
151.6683412675
 31
0.0
  0
LINE
  5
4B4
330
1F
100
AcDbEntity
  8
0
  6
Continuous
 62
     7
370
    25
100
AcDbLine
 10
128.8571610305
 20
151.6683412675
 30
0.0
 11
128.8571610305
 21
152.2683409933
 31
0.0
  0
LINE
  5
4B5
330
1F
100
AcDbEntity
  8
0
  6
Continuous
 62
     7
370
    25
100
AcDbLine
 10
134.3571606282
 20
151.6683412675
 30
0.0
 11
134.3571606282
 21
152.2683409933
 31
0.0
  0
LINE
  5
4B6
330
1F
100
AcDbEntity
  8
0
  6
Continuous
 62
     7
370
    25
100
AcDbLine
 10
134.3571606282
 20
148.4683422331
 30
0.0
 11
128.8571610305
 21
148.4683422331
 31
0.0
  0
LINE
  5
4B7
330
1F
100
AcDbEntity
  8
0
  6
Continuous
 62
     7
370
    25
100
AcDbLine
 10
128.8571610305
 20
148.7683413509
 30
0.0
 11
134.3571606282
 21
148.7683413509
 31
0.0
  0
LINE
  5
4B8
330
1F
100
AcDbEntity
  8
0
  6
Continuous
 62
     7
370
    25
100
AcDbLine
 10
133.8321606818
 20
148.9090157632
 30
0.0
 11
129.3821609769
 21
148.9090157632
 31
0.0
  0
LINE
  5
4B9
330
1F
100
AcDbEntity
  8
0
  6
Continuous
 62
     7
370
    25
100
AcDbLine
 10
139.407160804
 20
152.3683411959
 30
0.0
 11
134.4071607295
 21
152.3683411959
 31
0.0
  0
LINE
  5
4BA
330
1F
100
AcDbEntity
  8
0
  6
Continuous
 62
     7
370
    25
100
AcDbLine
 10
139.407160804
 20
152.3683411959
 30
0.0
 11
139.407160804
 21
153.959843326
 31
0.0
  0
LINE
  5
4BB
330
1F
100
AcDbEntity
  8
0
  6
Continuous
 62
     7
370
    25
100
AcDbLine
 10
128.3571607623
 20
152.3683411959
 30
0.0
 11
123.9671602104
 21
152.3683411959
 31
0.0
  0
LINE
  5
4BC
330
1F
100
AcDbEntity
  8
0
  6
Continuous
 62
     7
370
    25
100
AcDbLine
 10
123.9671602104
 20
152.3683411959
 30
0.0
 11
123.9671602104
 21
153.5493610386
 31
0.0
  0
ARC
  5
4BD
330
1F
100
AcDbEntity
  8
0
  6
Continuous
 62
     7
370
    25
100
AcDbCircle
 10
141.307160804
 20
170.2683417085
 30
0.0
 40
1.000000000000033
100
AcDbArc
 50
203.5781784782
 51
336.4218215218
  0
ARC
  5
4BE
330
1F
100
AcDbEntity
  8
0
  6
Continuous
 62
     7
370
    25
100
AcDbCircle
 10
141.307160804
 20
170.2683417085
 30
0.0
 40
1.000000000000033
100
AcDbArc
 50
23.5781784782
 51
156.4218215218
  0
LINE
  5
4BF
330
1F
100
AcDbEntity
  8
0
  6
Continuous
 62
     7
370
    25
100
AcDbLine
 10
143.3071608845
 20
168.8683416653
 30
0.0
 11
143.3071608845
 21
170.074692539
 31
0.0
  0
LINE
  5
4C0
330
1F
100
AcDbEntity
  8
0
  6
Continuous
 62
     7
370
    25
100
AcDbLine
 10
143.3071608845
 20
170.4619908781
 30
0.0
 11
143.3071608845
 21
171.6683417518
 31
0.0
  0
LINE
  5
4C1
330
1F
100
AcDbEntity
  8
0
  6
Continuous
 62
     7
370
    25
100
AcDbLine
 10
139.407160804
 20
168.8683416653
 30
0.0
 11
143.3071608845
 21
168.8683416653
 31
0.0
  0
LINE
  5
4C2
330
1F
100
AcDbEntity
  8
0
  6
Continuous
 62
     7
370
    25
100
AcDbLine
 10
143.3071608845
 20
171.6683417518
 30
0.0
 11
139.407160804
 21
171.6683417518
 31
0.0
  0
LINE
  5
4C3
330
1F
100
AcDbEntity
  8
0
  6
Continuous
 62
     7
370
    25
100
AcDbLine
 10
140.207160842
 20
171.6683417518
 30
0.0
 11
140.207160842
 21
184.9683416966
 31
0.0
  0
LINE
  5
4C4
330
1F
100
AcDbEntity
  8
0
  6
Continuous
 62
     7
370
    25
100
AcDbLine
 10
140.207160842
 20
155.5683417205
 30
0.0
 11
140.207160842
 21
168.8683416653
 31
0.0
  0
LINE
  5
4C5
330
1F
100
AcDbEntity
  8
0
  6
Continuous
 62
     7
370
    25
100
AcDbLine
 10
145.5071608726
 20
183.5758296732
 30
0.0
 11
145.5071608726
 21
156.9608537439
 31
0.0
  0
LINE
  5
4C6
330
1F
100
AcDbEntity
  8
0
  6
Continuous
 62
     7
370
    25
100
AcDbLine
 10
149.7071608159
 20
180.7428939227
 30
0.0
 11
149.7071608159
 21
159.7937894944
 31
0.0
  0
LINE
  5
4C7
330
1F
100
AcDbEntity
  8
0
  6
Continuous
 62
     7
370
    25
100
AcDbLine
 10
149.9071604762
 20
159.7937894944
 30
0.0
 11
149.9071604762
 21
164.0183417085
 31
0.0
  0
LINE
  5
4C8
330
1F
100
AcDbEntity
  8
0
  6
Continuous
 62
     7
370
    25
100
AcDbLine
 10
149.9071604762
 20
176.5183417085
 30
0.0
 11
149.9071604762
 21
180.7428939227
 31
0.0
  0
LINE
  5
4C9
330
1F
100
AcDbEntity
  8
0
  6
Continuous
 62
     7
370
    25
100
AcDbLine
 10
149.9071604762
 20
164.5871227566
 30
0.0
 11
149.9071604762
 21
175.9495606605
 31
0.0
  0
LINE
  5
4CA
330
1F
100
AcDbEntity
  8
0
  6
Continuous
 62
     7
370
    25
100
AcDbLine
 10
149.9071604762
 20
165.3013480786
 30
0.0
 11
170.3571616862
 21
165.3013480786
 31
0.0
  0
LINE
  5
4CB
330
1F
100
AcDbEntity
  8
0
  6
Continuous
 62
     7
370
    25
100
AcDbLine
 10
170.3571616862
 20
175.2353353385
 30
0.0
 11
149.9071604762
 21
175.2353353385
 31
0.0
  0
LINE
  5
4CC
330
1F
100
AcDbEntity
  8
0
  6
Continuous
 62
     7
370
    25
100
AcDbLine
 10
170.3571616862
 20
175.2353353385
 30
0.0
 11
170.3571616862
 21
165.3013480786
 31
0.0
  0
LINE
  5
4CD
330
1F
100
AcDbEntity
  8
0
  6
Continuous
 62
     7
370
    25
100
AcDbLine
 10
173.1571614001
 20
179.6183420304
 30
0.0
 11
173.1571614001
 21
160.9183413867
 31
0.0
  0
LINE
  5
4CE
330
1F
100
AcDbEntity
  8
0
  6
Continuous
 62
     7
370
    25
100
AcDbLine
 10
149.9071604762
 20
176.5183417085
 30
0.0
 11
149.9071604762
 21
175.9495606605
 31
0.0
  0
LINE
  5
4CF
330
1F
100
AcDbEntity
  8
0
  6
Continuous
 62
     7
370
    25
100
AcDbLine
 10
149.9071604762
 20
176.5183417085
 30
0.0
 11
170.3571616862
 21
176.5183417085
 31
0.0
  0
LINE
  5
4D0
330
1F
100
AcDbEntity
  8
0
  6
Continuous
 62
     7
370
    25
100
AcDbLine
 10
170.3571616862
 20
176.5183417085
 30
0.0
 11
170.3571616862
 21
175.2353353385
 31
0.0
  0
LINE
  5
4D1
330
1F
100
AcDbEntity
  8
0
  6
Continuous
 62
     7
370
    25
100
AcDbLine
 10
149.9071604762
 20
164.0183417085
 30
0.0
 11
170.3571616862
 21
164.0183417085
 31
0.0
  0
LINE
  5
4D2
330
1F
100
AcDbEntity
  8
0
  6
Continuous
 62
     7
370
    25
100
AcDbLine
 10
149.9071604762
 20
164.5871227566
 30
0.0
 11
149.9071604762
 21
164.0183417085
 31
0.0
  0
LINE
  5
4D3
330
1F
100
AcDbEntity
  8
0
  6
Continuous
 62
     7
370
    25
100
AcDbLine
 10
170.3571616862
 20
165.3013480786
 30
0.0
 11
170.3571616862
 21
164.0183417085
 31
0.0
  0
LINE
  5
4D4
330
1F
100
AcDbEntity
  8
0
  6
Continuous
 62
     7
370
    25
100
AcDbLine
 10
170.3571616862
 20
180.3733413998
 30
0.0
 11
170.3571616862
 21
176.5183417085
 31
0.0
  0
LINE
  5
4D5
330
1F
100
AcDbEntity
  8
0
  6
Continuous
 62
     7
370
    25
100
AcDbLine
 10
149.9071604762
 20
160.6683416251
 30
0.0
 11
170.3571616862
 21
160.6683416251
 31
0.0
  0
LINE
  5
4D6
330
1F
100
AcDbEntity
  8
0
  6
Continuous
 62
     7
370
    25
100
AcDbLine
 10
170.3571616862
 20
164.0183417085
 30
0.0
 11
170.3571616862
 21
160.6683416251
 31
0.0
  0
LINE
  5
4D7
330
1F
100
AcDbEntity
  8
0
  6
Continuous
 62
     7
370
    25
100
AcDbLine
 10
156.0071601722
 20
159.0683413628
 30
0.0
 11
156.0071601722
 21
160.6683416251
 31
0.0
  0
LINE
  5
4D8
330
1F
100
AcDbEntity
  8
0
  6
Continuous
 62
     7
370
    25
100
AcDbLine
 10
150.0071606789
 20
159.0683413628
 30
0.0
 11
150.0071606789
 21
160.6683416251
 31
0.0
  0
LINE
  5
4D9
330
1F
100
AcDbEntity
  8
0
  6
Continuous
 62
     7
370
    25
100
AcDbLine
 10
151.5071607385
 20
182.0683417801
 30
0.0
 11
151.5071607385
 21
182.7683417085
 31
0.0
  0
LINE
  5
4DA
330
1F
100
AcDbEntity
  8
0
  6
Continuous
 62
     7
370
    25
100
AcDbLine
 10
151.5071607385
 20
182.0683417801
 30
0.0
 11
147.7421037111
 21
182.0683417801
 31
0.0
  0
LINE
  5
4DB
330
1F
100
AcDbEntity
  8
0
  6
Continuous
 62
     7
370
    25
100
AcDbLine
 10
151.5071607385
 20
182.7683417085
 30
0.0
 11
146.7043115947
 21
182.7683417085
 31
0.0
  0
LINE
  5
4DC
330
1F
100
AcDbEntity
  8
0
  6
Continuous
 62
     7
370
    25
100
AcDbLine
 10
148.6071608219
 20
158.468341637
 30
0.0
 11
147.7421037111
 21
158.468341637
 31
0.0
  0
LINE
  5
4DD
330
1F
100
AcDbEntity
  8
0
  6
Continuous
 62
     7
370
    25
100
AcDbLine
 10
148.6071608219
 20
157.7683417085
 30
0.0
 11
146.7043115947
 21
157.7683417085
 31
0.0
  0
LINE
  5
4DE
330
1F
100
AcDbEntity
  8
0
  6
Continuous
 62
     7
370
    25
100
AcDbLine
 10
147.7571605894
 20
158.468341637
 30
0.0
 11
147.7571605894
 21
158.4784975234
 31
0.0
  0
LINE
  5
4DF
330
1F
100
AcDbEntity
  8
0
  6
Continuous
 62
     7
370
    25
100
AcDbLine
 10
147.2571610663
 20
157.0683417801
 30
0.0
 11
145.6665187332
 21
157.0683417801
 31
0.0
  0
LINE
  5
4E0
330
1F
100
AcDbEntity
  8
0
  6
Continuous
 62
     7
370
    25
100
AcDbLine
 10
147.2571610663
 20
157.0683417801
 30
0.0
 11
147.2571610663
 21
157.7683417085
 31
0.0
  0
ARC
  5
4E1
330
1F
100
AcDbEntity
  8
0
  6
Continuous
 62
     7
370
    25
100
AcDbCircle
 10
150.007160804
 20
180.6683417085
 30
0.0
 40
0.5500000000000013
100
AcDbArc
 50
327.5635627877
 51
157.1068008073
  0
LINE
  5
4E2
330
1F
100
AcDbEntity
  8
0
  6
Continuous
 62
     7
370
    25
100
AcDbLine
 10
150.0071606789
 20
160.4183418635
 30
0.0
 11
149.9071604762
 21
160.4091746691
 31
0.0
  0
ARC
  5
4E3
330
1F
100
AcDbEntity
  8
0
  6
Continuous
 62
     7
370
    25
100
AcDbCircle
 10
150.007160804
 20
159.8683417085
 30
0.0
 40
0.5499999999999954
100
AcDbArc
 50
202.8931991927
 51
270.0
  0
LINE
  5
4E4
330
1F
100
AcDbEntity
  8
0
  6
Continuous
 62
     7
370
    25
100
AcDbLine
 10
151.5071607385
 20
180.3733413998
 30
0.0
 11
151.5071607385
 21
182.0683417801
 31
0.0
  0
LINE
  5
4E5
330
1F
100
AcDbEntity
  8
0
  6
Continuous
 62
     8
370
    25
100
AcDbLine
 10
158.3471610401
 20
157.7283410314
 30
0.0
 11
158.3471610401
 21
160.6683416251
 31
0.0
  0
LINE
  5
4E6
330
1F
100
AcDbEntity
  8
0
  6
Continuous
 62
     8
370
    25
100
AcDbLine
 10
158.3471610401
 20
180.3733413998
 30
0.0
 11
158.3471610401
 21
182.8083423857
 31
0.0
  0
LINE
  5
4E7
330
1F
100
AcDbEntity
  8
0
  6
Continuous
 62
     8
370
    25
100
AcDbLine
 10
158.3471610401
 20
182.8083423857
 30
0.0
 11
146.6450086985
 21
182.8083423857
 31
0.0
  0
LINE
  5
4E8
330
1F
100
AcDbEntity
  8
0
  6
Continuous
 62
     8
370
    25
100
AcDbLine
 10
147.2571610663
 20
157.7283410314
 30
0.0
 11
148.6071608219
 21
157.7283410314
 31
0.0
  0
LINE
  5
4E9
330
1F
100
AcDbEntity
  8
0
  6
Continuous
 62
     8
370
    25
100
AcDbLine
 10
157.4071615193
 20
157.7283410314
 30
0.0
 11
158.3471610401
 21
157.7283410314
 31
0.0
  0
LINE
  5
4EA
330
1F
100
AcDbEntity
  8
0
  6
Continuous
 62
     8
370
    25
100
AcDbLine
 10
158.3571612093
 20
183.278341401
 30
0.0
 11
145.9482050691
 21
183.278341401
 31
0.0
  0
LINE
  5
4EB
330
1F
100
AcDbEntity
  8
0
  6
Continuous
 62
     8
370
    25
100
AcDbLine
 10
147.2571610663
 20
157.2583420161
 30
0.0
 11
148.6071608219
 21
157.2583420161
 31
0.0
  0
LINE
  5
4EC
330
1F
100
AcDbEntity
  8
0
  6
Continuous
 62
     8
370
    25
100
AcDbLine
 10
157.4071615193
 20
157.2583420161
 30
0.0
 11
158.3571612093
 21
157.2583420161
 31
0.0
  0
LINE
  5
4ED
330
1F
100
AcDbEntity
  8
0
  6
Continuous
 62
     8
370
    25
100
AcDbLine
 10
150.4107139263
 20
159.0683413628
 30
0.0
 11
150.4107139263
 21
158.9706202928
 31
0.0
  0
LINE
  5
4EE
330
1F
100
AcDbEntity
  8
0
  6
Continuous
 62
     8
370
    25
100
AcDbLine
 10
150.7642678175
 20
158.9706202928
 30
0.0
 11
150.7642678175
 21
159.0683413628
 31
0.0
  0
LINE
  5
4EF
330
1F
100
AcDbEntity
  8
0
  6
Continuous
 62
     8
370
    25
100
AcDbLine
 10
155.2500545237
 20
158.9706202928
 30
0.0
 11
155.2500545237
 21
159.0683413628
 31
0.0
  0
LINE
  5
4F0
330
1F
100
AcDbEntity
  8
0
  6
Continuous
 62
     8
370
    25
100
AcDbLine
 10
155.6036069248
 20
158.9706202928
 30
0.0
 11
155.6036069248
 21
159.0683413628
 31
0.0
  0
LINE
  5
4F1
330
1F
100
AcDbEntity
  8
0
  6
Continuous
 62
     8
370
    25
100
AcDbLine
 10
156.3607140634
 20
159.0683413628
 30
0.0
 11
156.3607140634
 21
158.9706202928
 31
0.0
  0
LINE
  5
4F2
330
1F
100
AcDbEntity
  8
0
  6
Continuous
 62
     8
370
    25
100
AcDbLine
 10
149.6536075327
 20
159.0683413628
 30
0.0
 11
149.6536075327
 21
158.9706202928
 31
0.0
  0
LINE
  5
4F3
330
1F
100
AcDbEntity
  8
0
  6
CENTERX2
 62
     7
370
    18
100
AcDbLine
 10
173.4042782825
 20
170.2683417085
 30
0.0
 11
117.2839448377
 21
170.2683417085
 31
0.0
  0
ENDSEC
  0
SECTION
  2
OBJECTS
  0
DICTIONARY
  5
C
330
0
100
AcDbDictionary
281
     1
  3
ACAD_GROUP
350
D
  3
ACAD_LAYOUT
350
1A
  3
ACAD_MLINESTYLE
350
17
  3
ACAD_PLOTSETTINGS
350
19
  3
ACAD_PLOTSTYLENAME
350
E
  3
ACAD_SCALELIST
350
47
  0
DICTIONARY
  5
D
102
{ACAD_REACTORS
330
C
102
}
330
C
100
AcDbDictionary
281
     1
  0
DICTIONARY
  5
1A
102
{ACAD_REACTORS
330
C
102
}
330
C
100
AcDbDictionary
281
     1
  3
Layout1
350
1E
  3
Layout2
350
26
  3
Model
350
22
  0
DICTIONARY
  5
17
102
{ACAD_REACTORS
330
C
102
}
330
C
100
AcDbDictionary
281
     1
  3
Standard
350
18
  0
DICTIONARY
  5
19
102
{ACAD_REACTORS
330
C
102
}
330
C
100
AcDbDictionary
281
     1
  0
ACDBDICTIONARYWDFLT
  5
E
102
{ACAD_REACTORS
330
C
102
}
330
C
100
AcDbDictionary
281
     1
  3
Normal
350
F
100
AcDbDictionaryWithDefault
340
F
  0
DICTIONARY
  5
47
102
{ACAD_REACTORS
330
C
102
}
330
C
100
AcDbDictionary
281
     1
  3
A0
350
48
  3
A1
350
49
  3
A2
350
4A
  3
A3
350
4B
  3
A4
350
4C
  3
A5
350
4D
  3
A6
350
4E
  3
A7
350
4F
  3
A8
350
50
  3
A9
350
51
  3
B0
350
52
  3
B1
350
53
  3
B2
350
54
  3
B3
350
55
  3
B4
350
56
  3
B5
350
57
  3
B6
350
58
  3
B7
350
59
  3
B8
350
5A
  3
B9
350
5B
  3
C0
350
5C
  3
C1
350
5D
  3
C2
350
5E
  3
C3
350
5F
  3
C4
350
60
  3
C5
350
61
  3
C6
350
62
  3
C7
350
63
  3
C8
350
64
  3
C9
350
65
  3
D0
350
66
  3
D1
350
67
  3
D2
350
68
  0
LAYOUT
  5
1E
102
{ACAD_REACTORS
330
1A
102
}
330
1A
100
AcDbPlotSettings
  1

  2
none_device
  4

  6

 40
0.0
 41
0.0
 42
0.0
 43
0.0
 44
0.0
 45
0.0
 46
0.0
 47
0.0
 48
0.0
 49
0.0
140
0.0
141
0.0
142
1.0
143
1.0
 70
   688
 72
     1
 73
     0
 74
     5
  7

 75
    16
147
1.0
148
0.0
149
0.0
100
AcDbLayout
  1
Layout1
 70
     1
 71
     1
 10
0.0
 20
0.0
 11
420.0
 21
297.0
 12
0.0
 22
0.0
 32
0.0
 14
1.0000000000E+20
 24
1.0000000000E+20
 34
1.0000000000E+20
 15
-1.0000000000E+20
 25
-1.0000000000E+20
 35
-1.0000000000E+20
146
0.0
 13
0.0
 23
0.0
 33
0.0
 16
1.0
 26
0.0
 36
0.0
 17
0.0
 27
1.0
 37
0.0
 76
     0
330
1B
  0
LAYOUT
  5
26
102
{ACAD_REACTORS
330
1A
102
}
330
1A
100
AcDbPlotSettings
  1

  2
none_device
  4

  6

 40
0.0
 41
0.0
 42
0.0
 43
0.0
 44
0.0
 45
0.0
 46
0.0
 47
0.0
 48
0.0
 49
0.0
140
0.0
141
0.0
142
1.0
143
1.0
 70
   688
 72
     1
 73
     0
 74
     5
  7

 75
    16
147
1.0
148
0.0
149
0.0
100
AcDbLayout
  1
Layout2
 70
     1
 71
     2
 10
0.0
 20
0.0
 11
0.0
 21
0.0
 12
0.0
 22
0.0
 32
0.0
 14
0.0
 24
0.0
 34
0.0
 15
0.0
 25
0.0
 35
0.0
146
0.0
 13
0.0
 23
0.0
 33
0.0
 16
1.0
 26
0.0
 36
0.0
 17
0.0
 27
1.0
 37
0.0
 76
     0
330
23
  0
LAYOUT
  5
22
102
{ACAD_REACTORS
330
1A
102
}
330
1A
100
AcDbPlotSettings
  1

  2
none_device
  4
Letter_(8.50_x_11.00_Inches)
  6

 40
6.35
 41
6.35
 42
6.35000508
 43
6.35000508
 44
215.9
 45
279.4
 46
0.0
 47
0.0
 48
0.0
 49
0.0
140
0.0
141
0.0
142
1.0
143
1.0
 70
  1712
 72
     1
 73
     0
 74
     0
  7

 75
     0
147
1.0
148
0.0
149
0.0
100
AcDbLayout
  1
Model
 70
     1
 71
     0
 10
0.0
 20
0.0
 11
297.0
 21
210.0
 12
0.0
 22
0.0
 32
0.0
 14
0.0
 24
0.0
 34
0.0
 15
297.0
 25
210.0
 35
0.0
146
0.0
 13
0.0
 23
0.0
 33
0.0
 16
1.0
 26
0.0
 36
0.0
 17
0.0
 27
1.0
 37
0.0
 76
     0
330
1F
331
29
  0
MLINESTYLE
  5
18
102
{ACAD_REACTORS
330
17
102
}
330
17
100
AcDbMlineStyle
  2
Standard
 70
     0
  3

 62
   256
 51
90.0
 52
90.0
 71
     2
 49
0.5
 62
   256
  6
BYLAYER
 49
-0.5
 62
   256
  6
BYLAYER
  0
ACDBPLACEHOLDER
  5
F
102
{ACAD_REACTORS
330
E
102
}
330
E
  0
SCALE
  5
48
102
{ACAD_REACTORS
330
47
102
}
330
47
100
AcDbScale
 70
     0
300
1:1
140
1.0
141
1.0
290
     1
  0
SCALE
  5
49
102
{ACAD_REACTORS
330
47
102
}
330
47
100
AcDbScale
 70
     0
300
1:2
140
1.0
141
2.0
290
     0
  0
SCALE
  5
4A
102
{ACAD_REACTORS
330
47
102
}
330
47
100
AcDbScale
 70
     0
300
1:4
140
1.0
141
4.0
290
     0
  0
SCALE
  5
4B
102
{ACAD_REACTORS
330
47
102
}
330
47
100
AcDbScale
 70
     0
300
1:5
140
1.0
141
5.0
290
     0
  0
SCALE
  5
4C
102
{ACAD_REACTORS
330
47
102
}
330
47
100
AcDbScale
 70
     0
300
1:8
140
1.0
141
8.0
290
     0
  0
SCALE
  5
4D
102
{ACAD_REACTORS
330
47
102
}
330
47
100
AcDbScale
 70
     0
300
1:10
140
1.0
141
10.0
290
     0
  0
SCALE
  5
4E
102
{ACAD_REACTORS
330
47
102
}
330
47
100
AcDbScale
 70
     0
300
1:16
140
1.0
141
16.0
290
     0
  0
SCALE
  5
4F
102
{ACAD_REACTORS
330
47
102
}
330
47
100
AcDbScale
 70
     0
300
1:20
140
1.0
141
20.0
290
     0
  0
SCALE
  5
50
102
{ACAD_REACTORS
330
47
102
}
330
47
100
AcDbScale
 70
     0
300
1:30
140
1.0
141
30.0
290
     0
  0
SCALE
  5
51
102
{ACAD_REACTORS
330
47
102
}
330
47
100
AcDbScale
 70
     0
300
1:40
140
1.0
141
40.0
290
     0
  0
SCALE
  5
52
102
{ACAD_REACTORS
330
47
102
}
330
47
100
AcDbScale
 70
     0
300
1:50
140
1.0
141
50.0
290
     0
  0
SCALE
  5
53
102
{ACAD_REACTORS
330
47
102
}
330
47
100
AcDbScale
 70
     0
300
1:100
140
1.0
141
100.0
290
     0
  0
SCALE
  5
54
102
{ACAD_REACTORS
330
47
102
}
330
47
100
AcDbScale
 70
     0
300
2:1
140
2.0
141
1.0
290
     0
  0
SCALE
  5
55
102
{ACAD_REACTORS
330
47
102
}
330
47
100
AcDbScale
 70
     0
300
4:1
140
4.0
141
1.0
290
     0
  0
SCALE
  5
56
102
{ACAD_REACTORS
330
47
102
}
330
47
100
AcDbScale
 70
     0
300
8:1
140
8.0
141
1.0
290
     0
  0
SCALE
  5
57
102
{ACAD_REACTORS
330
47
102
}
330
47
100
AcDbScale
 70
     0
300
10:1
140
10.0
141
1.0
290
     0
  0
SCALE
  5
58
102
{ACAD_REACTORS
330
47
102
}
330
47
100
AcDbScale
 70
     0
300
100:1
140
100.0
141
1.0
290
     0
  0
SCALE
  5
59
102
{ACAD_REACTORS
330
47
102
}
330
47
100
AcDbScale
 70
     0
300
1/128" = 1'-0"
140
0.0078125
141
12.0
290
     0
  0
SCALE
  5
5A
102
{ACAD_REACTORS
330
47
102
}
330
47
100
AcDbScale
 70
     0
300
1/64" = 1'-0"
140
0.015625
141
12.0
290
     0
  0
SCALE
  5
5B
102
{ACAD_REACTORS
330
47
102
}
330
47
100
AcDbScale
 70
     0
300
1/32" = 1'-0"
140
0.03125
141
12.0
290
     0
  0
SCALE
  5
5C
102
{ACAD_REACTORS
330
47
102
}
330
47
100
AcDbScale
 70
     0
300
1/16" = 1'-0"
140
0.0625
141
12.0
290
     0
  0
SCALE
  5
5D
102
{ACAD_REACTORS
330
47
102
}
330
47
100
AcDbScale
 70
     0
300
3/32" = 1'-0"
140
0.09375
141
12.0
290
     0
  0
SCALE
  5
5E
102
{ACAD_REACTORS
330
47
102
}
330
47
100
AcDbScale
 70
     0
300
1/8" = 1'-0"
140
0.125
141
12.0
290
     0
  0
SCALE
  5
5F
102
{ACAD_REACTORS
330
47
102
}
330
47
100
AcDbScale
 70
     0
300
3/16" = 1'-0"
140
0.1875
141
12.0
290
     0
  0
SCALE
  5
60
102
{ACAD_REACTORS
330
47
102
}
330
47
100
AcDbScale
 70
     0
300
1/4" = 1'-0"
140
0.25
141
12.0
290
     0
  0
SCALE
  5
61
102
{ACAD_REACTORS
330
47
102
}
330
47
100
AcDbScale
 70
     0
300
3/8" = 1'-0"
140
0.375
141
12.0
290
     0
  0
SCALE
  5
62
102
{ACAD_REACTORS
330
47
102
}
330
47
100
AcDbScale
 70
     0
300
1/2" = 1'-0"
140
0.5
141
12.0
290
     0
  0
SCALE
  5
63
102
{ACAD_REACTORS
330
47
102
}
330
47
100
AcDbScale
 70
     0
300
3/4" = 1'-0"
140
0.75
141
12.0
290
     0
  0
SCALE
  5
64
102
{ACAD_REACTORS
330
47
102
}
330
47
100
AcDbScale
 70
     0
300
1" = 1'-0"
140
1.0
141
12.0
290
     0
  0
SCALE
  5
65
102
{ACAD_REACTORS
330
47
102
}
330
47
100
AcDbScale
 70
     0
300
1-1/2" = 1'-0"
140
1.5
141
12.0
290
     0
  0
SCALE
  5
66
102
{ACAD_REACTORS
330
47
102
}
330
47
100
AcDbScale
 70
     0
300
3" = 1'-0"
140
3.0
141
12.0
290
     0
  0
SCALE
  5
67
102
{ACAD_REACTORS
330
47
102
}
330
47
100
AcDbScale
 70
     0
300
6" = 1'-0"
140
6.0
141
12.0
290
     0
  0
SCALE
  5
68
102
{ACAD_REACTORS
330
47
102
}
330
47
100
AcDbScale
 70
     0
300
1'-0" = 1'-0"
140
12.0
141
12.0
290
     0
  0
ENDSEC
  0
EOF
